ISO-10303-21;
HEADER;
FILE_DESCRIPTION (( 'STEP AP203' ),
    '1' );
FILE_NAME ('TTN162612-E0W.STEP',
    '2019-10-24T14:00:18',
    ( '' ),
    ( '' ),
    'SwSTEP 2.0',
    'SolidWorks 2018',
    '' );
FILE_SCHEMA (( 'CONFIG_CONTROL_DESIGN' ));
ENDSEC;

DATA;
#1 = ORIENTED_EDGE ( 'NONE', *, *, #3, .F. ) ;
#2 = APPROVAL_STATUS ( 'not_yet_approved' ) ;
#3 = EDGE_CURVE ( 'NONE', #244, #157, #71, .T. ) ;
#4 = DIRECTION ( 'NONE',  ( 0.0000000000000000000, 1.000000000000000000, 2.168404344971009361E-16 ) ) ;
#5 = FACE_OUTER_BOUND ( 'NONE', #68, .T. ) ;
#6 = VECTOR ( 'NONE', #36, 1000.000000000000114 ) ;
#7 = CARTESIAN_POINT ( 'NONE',  ( 0.6606032142793363260, 0.3059586641219323999, 1.621106863357661521 ) ) ;
#8 = ORIENTED_EDGE ( 'NONE', *, *, #20, .T. ) ;
#9 = AXIS2_PLACEMENT_3D ( 'NONE', #148, #51, #195 ) ;
#10 = DIRECTION ( 'NONE',  ( -1.000000000000000000, 0.0000000000000000000, 0.0000000000000000000 ) ) ;
#11 = CARTESIAN_POINT ( 'NONE',  ( 0.6606032142793362150, 1.305958664121932511, 0.9023538843324335756 ) ) ;
#12 = CARTESIAN_POINT ( 'NONE',  ( 0.6606032142793362150, 1.305958664121932511, 0.9023538843324336867 ) ) ;
#13 = ADVANCED_FACE ( 'NONE', ( #77 ), #181, .T. ) ;
#14 = PERSON_AND_ORGANIZATION_ROLE ( 'design_owner' ) ;
#15 = ORIENTED_EDGE ( 'NONE', *, *, #226, .F. ) ;
#16 = CC_DESIGN_APPROVAL ( #106, ( #222 ) ) ;
#17 = DIRECTION ( 'NONE',  ( 8.659560562354924230E-17, -0.7071067811865466846, -0.7071067811865483499 ) ) ;
#18 = FACE_OUTER_BOUND ( 'NONE', #60, .T. ) ;
#19 = UNCERTAINTY_MEASURE_WITH_UNIT (LENGTH_MEASURE( 1.000000000000000082E-05 ), #275, 'distance_accuracy_value', 'NONE');
#20 = EDGE_CURVE ( 'NONE', #279, #206, #22, .T. ) ;
#21 = CONICAL_SURFACE ( 'NONE', #91, 0.9499999999999992895, 0.7853981633974503884 ) ;
#22 = CIRCLE ( 'NONE', #263, 0.9999999999999997780 ) ;
#23 = AXIS2_PLACEMENT_3D ( 'NONE', #167, #48, #221 ) ;
#24 = EDGE_LOOP ( 'NONE', ( #257, #49, #223 ) ) ;
#25 = EDGE_LOOP ( 'NONE', ( #282, #276, #8, #112 ) ) ;
#26 = ORIENTED_EDGE ( 'NONE', *, *, #208, .T. ) ;
#27 = DIRECTION ( 'NONE',  ( -0.0000000000000000000, 1.224646799147352714E-16, -1.000000000000000000 ) ) ;
#28 = DATE_TIME_ROLE ( 'classification_date' ) ;
#29 = DATE_AND_TIME ( #83, #42 ) ;
#30 = CARTESIAN_POINT ( 'NONE',  ( 0.6606032142793362150, 1.305958664121932511, 1.621106863357661743 ) ) ;
#31 = EDGE_LOOP ( 'NONE', ( #299, #185, #15 ) ) ;
#32 = CARTESIAN_POINT ( 'NONE',  ( 0.6606032142793363260, 0.3559586641219320002, 1.671106863357661565 ) ) ;
#33 = DIRECTION ( 'NONE',  ( 0.0000000000000000000, 0.0000000000000000000, 1.000000000000000000 ) ) ;
#34 = EDGE_CURVE ( 'NONE', #149, #244, #120, .T. ) ;
#35 = DIRECTION ( 'NONE',  ( 0.0000000000000000000, 1.000000000000000000, 1.141265444721584497E-16 ) ) ;
#36 = DIRECTION ( 'NONE',  ( 0.0000000000000000000, -0.7071067811865490160, 0.7071067811865460184 ) ) ;
#37 = DIRECTION ( 'NONE',  ( 0.0000000000000000000, 0.0000000000000000000, 1.000000000000000000 ) ) ;
#38 = CALENDAR_DATE ( 2019, 24, 10 ) ;
#39 = EDGE_CURVE ( 'NONE', #206, #279, #301, .T. ) ;
#40 = FACE_OUTER_BOUND ( 'NONE', #251, .T. ) ;
#41 = DATE_AND_TIME ( #97, #162 ) ;
#42 = LOCAL_TIME ( 10, 0, 18.00000000000000000, #278 ) ;
#43 = LOCAL_TIME ( 10, 0, 18.00000000000000000, #248 ) ;
#44 = SHAPE_DEFINITION_REPRESENTATION ( #95, #132 ) ;
#45 = VECTOR ( 'NONE', #250, 1000.000000000000000 ) ;
#46 = EDGE_CURVE ( 'NONE', #261, #206, #184, .T. ) ;
#47 = PERSON_AND_ORGANIZATION_ROLE ( 'creator' ) ;
#48 = DIRECTION ( 'NONE',  ( -0.0000000000000000000, 1.224646799147352714E-16, -1.000000000000000000 ) ) ;
#49 = ORIENTED_EDGE ( 'NONE', *, *, #220, .T. ) ;
#50 = EDGE_CURVE ( 'NONE', #149, #139, #177, .T. ) ;
#51 = DIRECTION ( 'NONE',  ( 1.000000000000000000, 1.224646799147353207E-16, 1.499759782661857060E-32 ) ) ;
#52 = CARTESIAN_POINT ( 'NONE',  ( 0.6606032142793362150, 2.305958664121932067, 0.9023538843324337977 ) ) ;
#53 = ORIENTED_EDGE ( 'NONE', *, *, #20, .F. ) ;
#54 = DIRECTION ( 'NONE',  ( -0.0000000000000000000, 1.224646799147352714E-16, -1.000000000000000000 ) ) ;
#55 = DIRECTION ( 'NONE',  ( 0.0000000000000000000, 1.000000000000000000, 1.180191044069852345E-16 ) ) ;
#56 = VECTOR ( 'NONE', #193, 999.9999999999998863 ) ;
#57 =( NAMED_UNIT ( * ) SI_UNIT ( $, .STERADIAN. ) SOLID_ANGLE_UNIT ( ) );
#58 = CIRCLE ( 'NONE', #110, 0.9499999999999992895 ) ;
#59 = PERSON_AND_ORGANIZATION ( #137, #119 ) ;
#60 = EDGE_LOOP ( 'NONE', ( #173, #26, #197, #142 ) ) ;
#61 = COORDINATED_UNIVERSAL_TIME_OFFSET ( 5, 0, .BEHIND. ) ;
#62 = EDGE_LOOP ( 'NONE', ( #190, #216, #170, #287 ) ) ;
#63 = ORIENTED_EDGE ( 'NONE', *, *, #66, .F. ) ;
#64 = PERSON_AND_ORGANIZATION ( #137, #119 ) ;
#65 = VECTOR ( 'NONE', #146, 1000.000000000000000 ) ;
#66 = EDGE_CURVE ( 'NONE', #298, #261, #259, .T. ) ;
#67 = CC_DESIGN_PERSON_AND_ORGANIZATION_ASSIGNMENT ( #262, #217, ( #222 ) ) ;
#68 = EDGE_LOOP ( 'NONE', ( #107, #274, #53, #164 ) ) ;
#69 = DATE_TIME_ROLE ( 'creation_date' ) ;
#70 = PERSON_AND_ORGANIZATION_ROLE ( 'creator' ) ;
#71 = CIRCLE ( 'NONE', #127, 0.9999999999999997780 ) ;
#72 = CARTESIAN_POINT ( 'NONE',  ( 0.6606032142793362150, 1.305958664121932511, 0.9523538843324342862 ) ) ;
#73 = CARTESIAN_POINT ( 'NONE',  ( 0.6606032142793362150, 1.305958664121932511, -0.1646461156675665116 ) ) ;
#74 = CARTESIAN_POINT ( 'NONE',  ( 0.6606032142793362150, 1.305958664121932289, 1.902353884332433687 ) ) ;
#75 = AXIS2_PLACEMENT_3D ( 'NONE', #291, #76, #202 ) ;
#76 = DIRECTION ( 'NONE',  ( -0.0000000000000000000, 1.224646799147352714E-16, -1.000000000000000000 ) ) ;
#77 = FACE_OUTER_BOUND ( 'NONE', #25, .T. ) ;
#78 = ADVANCED_FACE ( 'NONE', ( #18 ), #168, .T. ) ;
#79 = CARTESIAN_POINT ( 'NONE',  ( 0.6606032142793362150, 0.3559586641219332215, 0.9023538843324334646 ) ) ;
#80 = COORDINATED_UNIVERSAL_TIME_OFFSET ( 5, 0, .BEHIND. ) ;
#81 = EDGE_CURVE ( 'NONE', #157, #279, #296, .T. ) ;
#82 = CONICAL_SURFACE ( 'NONE', #75, 0.9999999999999997780, 0.7853981633974472798 ) ;
#83 = CALENDAR_DATE ( 2019, 24, 10 ) ;
#84 = CC_DESIGN_PERSON_AND_ORGANIZATION_ASSIGNMENT ( #130, #14, ( #115 ) ) ;
#85 = FACE_OUTER_BOUND ( 'NONE', #62, .T. ) ;
#86 = CARTESIAN_POINT ( 'NONE',  ( 0.6606032142793362150, 1.305958664121932511, 0.9023538843324335756 ) ) ;
#87 = AXIS2_PLACEMENT_3D ( 'NONE', #230, #37, #207 ) ;
#88 = CARTESIAN_POINT ( 'NONE',  ( 0.6606032142793362150, 2.305958664121932067, 1.621106863357661965 ) ) ;
#89 = APPROVAL_DATE_TIME ( #41, #232 ) ;
#90 = DIRECTION ( 'NONE',  ( 0.0000000000000000000, 1.000000000000000000, 1.180191044069852345E-16 ) ) ;
#91 = AXIS2_PLACEMENT_3D ( 'NONE', #11, #201, #176 ) ;
#92 = ORIENTED_EDGE ( 'NONE', *, *, #39, .F. ) ;
#93 = AXIS2_PLACEMENT_3D ( 'NONE', #272, #293, #125 ) ;
#94 = DIRECTION ( 'NONE',  ( 0.0000000000000000000, 1.000000000000000000, 2.168404344971009361E-16 ) ) ;
#95 = PRODUCT_DEFINITION_SHAPE ( 'NONE', 'NONE',  #237 ) ;
#96 = APPLICATION_CONTEXT ( 'configuration controlled 3d designs of mechanical parts and assemblies' ) ;
#97 = CALENDAR_DATE ( 2019, 24, 10 ) ;
#98 = APPLICATION_PROTOCOL_DEFINITION ( 'international standard', 'config_control_design', 1994, #178 ) ;
#99 = ADVANCED_FACE ( 'NONE', ( #225 ), #249, .T. ) ;
#100 = CARTESIAN_POINT ( 'NONE',  ( 0.6606032142793362150, 1.305958664121932511, 0.9023538843324335756 ) ) ;
#101 = CC_DESIGN_PERSON_AND_ORGANIZATION_ASSIGNMENT ( #64, #246, ( #131 ) ) ;
#102 = ORIENTED_EDGE ( 'NONE', *, *, #252, .T. ) ;
#103 = CIRCLE ( 'NONE', #23, 0.9500000000000000666 ) ;
#104 = ORIENTED_EDGE ( 'NONE', *, *, #34, .F. ) ;
#105 = DATE_AND_TIME ( #174, #300 ) ;
#106 = APPROVAL ( #2, 'UNSPECIFIED' ) ;
#107 = ORIENTED_EDGE ( 'NONE', *, *, #236, .F. ) ;
#108 = CONICAL_SURFACE ( 'NONE', #187, 0.9499999999999992895, 0.7853981633974503884 ) ;
#109 = ORIENTED_EDGE ( 'NONE', *, *, #66, .T. ) ;
#110 = AXIS2_PLACEMENT_3D ( 'NONE', #100, #179, #233 ) ;
#111 = CC_DESIGN_DATE_AND_TIME_ASSIGNMENT ( #224, #28, ( #131 ) ) ;
#112 = ORIENTED_EDGE ( 'NONE', *, *, #199, .F. ) ;
#113 = DIRECTION ( 'NONE',  ( 0.0000000000000000000, -1.224646799147352714E-16, 1.000000000000000000 ) ) ;
#114 = VECTOR ( 'NONE', #135, 1000.000000000000000 ) ;
#115 = PRODUCT ( 'TTN162612-E0W', 'TTN162612-E0W', '', ( #256 ) ) ;
#116 = APPROVAL_STATUS ( 'not_yet_approved' ) ;
#117 = DIRECTION ( 'NONE',  ( -0.0000000000000000000, 1.224646799147352714E-16, -1.000000000000000000 ) ) ;
#118 = CARTESIAN_POINT ( 'NONE',  ( 0.6606032142793362150, 2.305958664121932067, 0.9523538843324343972 ) ) ;
#119 = ORGANIZATION ( 'UNSPECIFIED', 'UNSPECIFIED', '' ) ;
#120 = LINE ( 'NONE', #88, #56 ) ;
#121 = CARTESIAN_POINT ( 'NONE',  ( 0.6606032142793362150, 1.305958664121932511, 0.9023538843324335756 ) ) ;
#122 = DIRECTION ( 'NONE',  ( -0.0000000000000000000, 1.224646799147352714E-16, -1.000000000000000000 ) ) ;
#123 = ORIENTED_EDGE ( 'NONE', *, *, #236, .T. ) ;
#124 = CARTESIAN_POINT ( 'NONE',  ( 0.6606032142793363260, 2.255958664121931800, 0.9023538843324336867 ) ) ;
#125 = DIRECTION ( 'NONE',  ( 0.0000000000000000000, 1.000000000000000000, 1.224646799147352714E-16 ) ) ;
#126 = CIRCLE ( 'NONE', #260, 2.067000000000000171 ) ;
#127 = AXIS2_PLACEMENT_3D ( 'NONE', #30, #27, #4 ) ;
#128 = CC_DESIGN_APPROVAL ( #232, ( #237 ) ) ;
#129 = CIRCLE ( 'NONE', #280, 0.9999999999999997780 ) ;
#130 = PERSON_AND_ORGANIZATION ( #137, #119 ) ;
#131 = SECURITY_CLASSIFICATION ( '', '', #136 ) ;
#132 = ADVANCED_BREP_SHAPE_REPRESENTATION ( 'TTN162612-E0W', ( #154, #87 ), #269 ) ;
#133 = DIRECTION ( 'NONE',  ( 0.0000000000000000000, 1.000000000000000000, 1.084202172485504681E-16 ) ) ;
#134 = APPROVAL_ROLE ( '' ) ;
#135 = DIRECTION ( 'NONE',  ( 8.659560562354952580E-17, 0.7071067811865489050, 0.7071067811865462405 ) ) ;
#136 = SECURITY_CLASSIFICATION_LEVEL ( 'unclassified' ) ;
#137 = PERSON ( 'UNSPECIFIED', 'UNSPECIFIED', 'UNSPECIFIED', ('UNSPECIFIED'), ('UNSPECIFIED'), ('UNSPECIFIED') ) ;
#138 = DIRECTION ( 'NONE',  ( 0.0000000000000000000, 1.000000000000000000, 1.084202172485504681E-16 ) ) ;
#139 = VERTEX_POINT ( 'NONE', #32 ) ;
#140 = LOCAL_TIME ( 10, 0, 18.00000000000000000, #80 ) ;
#141 = DIRECTION ( 'NONE',  ( 0.0000000000000000000, 1.000000000000000000, 1.084202172485504681E-16 ) ) ;
#142 = ORIENTED_EDGE ( 'NONE', *, *, #39, .T. ) ;
#143 = APPROVAL_DATE_TIME ( #105, #265 ) ;
#144 = DESIGN_CONTEXT ( 'detailed design', #178, 'design' ) ;
#145 = AXIS2_PLACEMENT_3D ( 'NONE', #241, #117, #245 ) ;
#146 = DIRECTION ( 'NONE',  ( -0.0000000000000000000, 1.224646799147352714E-16, -1.000000000000000000 ) ) ;
#147 = CC_DESIGN_PERSON_AND_ORGANIZATION_ASSIGNMENT ( #163, #47, ( #237 ) ) ;
#148 = CARTESIAN_POINT ( 'NONE',  ( 0.6606032142793362150, 1.305958664121932511, -0.1646461156675665116 ) ) ;
#149 = VERTEX_POINT ( 'NONE', #268 ) ;
#150 = CARTESIAN_POINT ( 'NONE',  ( 0.6606032142793363260, 0.3059586641219323999, 1.621106863357661521 ) ) ;
#151 = CARTESIAN_POINT ( 'NONE',  ( 0.6606032142793362150, 0.3559586641219332215, 0.9023538843324334646 ) ) ;
#152 = APPROVAL_DATE_TIME ( #156, #106 ) ;
#153 = PRODUCT_RELATED_PRODUCT_CATEGORY ( 'detail', '', ( #115 ) ) ;
#154 = MANIFOLD_SOLID_BREP ( 'TTN162282-1-solid1', #209 ) ;
#155 = CONICAL_SURFACE ( 'NONE', #277, 0.9999999999999997780, 0.7853981633974472798 ) ;
#156 = DATE_AND_TIME ( #285, #140 ) ;
#157 = VERTEX_POINT ( 'NONE', #7 ) ;
#158 = LINE ( 'NONE', #150, #281 ) ;
#159 = AXIS2_PLACEMENT_3D ( 'NONE', #165, #161, #138 ) ;
#160 = CC_DESIGN_SECURITY_CLASSIFICATION ( #131, ( #222 ) ) ;
#161 = DIRECTION ( 'NONE',  ( -0.0000000000000000000, 1.224646799147352714E-16, -1.000000000000000000 ) ) ;
#162 = LOCAL_TIME ( 10, 0, 18.00000000000000000, #238 ) ;
#163 = PERSON_AND_ORGANIZATION ( #137, #119 ) ;
#164 = ORIENTED_EDGE ( 'NONE', *, *, #297, .F. ) ;
#165 = CARTESIAN_POINT ( 'NONE',  ( 0.6606032142793362150, 1.305958664121932511, 0.9023538843324336867 ) ) ;
#166 = EDGE_CURVE ( 'NONE', #211, #149, #126, .T. ) ;
#167 = CARTESIAN_POINT ( 'NONE',  ( 0.6606032142793362150, 1.305958664121932511, 1.671106863357661787 ) ) ;
#168 = CYLINDRICAL_SURFACE ( 'NONE', #267, 0.9999999999999997780 ) ;
#169 = CARTESIAN_POINT ( 'NONE',  ( 0.6606032142793363260, 0.3059586641219323999, 0.9023538843324335756 ) ) ;
#170 = ORIENTED_EDGE ( 'NONE', *, *, #34, .T. ) ;
#171 = DIRECTION ( 'NONE',  ( -0.0000000000000000000, 1.224646799147352714E-16, -1.000000000000000000 ) ) ;
#172 = DIRECTION ( 'NONE',  ( 0.0000000000000000000, -1.224646799147352714E-16, 1.000000000000000000 ) ) ;
#173 = ORIENTED_EDGE ( 'NONE', *, *, #81, .F. ) ;
#174 = CALENDAR_DATE ( 2019, 24, 10 ) ;
#175 = ADVANCED_FACE ( 'NONE', ( #40 ), #155, .T. ) ;
#176 = DIRECTION ( 'NONE',  ( 0.0000000000000000000, -1.000000000000000000, -1.141265444721584497E-16 ) ) ;
#177 = CIRCLE ( 'NONE', #145, 0.9500000000000000666 ) ;
#178 = APPLICATION_CONTEXT ( 'configuration controlled 3d designs of mechanical parts and assemblies' ) ;
#179 = DIRECTION ( 'NONE',  ( -0.0000000000000000000, 1.224646799147352714E-16, -1.000000000000000000 ) ) ;
#180 = APPLICATION_PROTOCOL_DEFINITION ( 'international standard', 'config_control_design', 1994, #96 ) ;
#181 = CYLINDRICAL_SURFACE ( 'NONE', #159, 0.9999999999999997780 ) ;
#182 = AXIS2_PLACEMENT_3D ( 'NONE', #86, #122, #35 ) ;
#183 = ORIENTED_EDGE ( 'NONE', *, *, #297, .T. ) ;
#184 = LINE ( 'NONE', #284, #114 ) ;
#185 = ORIENTED_EDGE ( 'NONE', *, *, #166, .T. ) ;
#186 = LINE ( 'NONE', #52, #45 ) ;
#187 = AXIS2_PLACEMENT_3D ( 'NONE', #121, #172, #288 ) ;
#188 = LINE ( 'NONE', #151, #6 ) ;
#189 = ORIENTED_EDGE ( 'NONE', *, *, #50, .T. ) ;
#190 = ORIENTED_EDGE ( 'NONE', *, *, #252, .F. ) ;
#191 = DIRECTION ( 'NONE',  ( 0.0000000000000000000, 1.000000000000000000, 1.084202172485504681E-16 ) ) ;
#192 = PERSON_AND_ORGANIZATION ( #137, #119 ) ;
#193 = DIRECTION ( 'NONE',  ( 0.0000000000000000000, 0.7071067811865469066, -0.7071067811865482389 ) ) ;
#194 = DIRECTION ( 'NONE',  ( 0.0000000000000000000, -1.224646799147352714E-16, 1.000000000000000000 ) ) ;
#195 = DIRECTION ( 'NONE',  ( -1.049058705839868792E-16, 1.000000000000000000, 0.0000000000000000000 ) ) ;
#196 = CARTESIAN_POINT ( 'NONE',  ( 0.6606032142793362150, 1.305958664121932511, -0.1646461156675665116 ) ) ;
#197 = ORIENTED_EDGE ( 'NONE', *, *, #199, .T. ) ;
#198 = APPROVAL_PERSON_ORGANIZATION ( #213, #265, #134 ) ;
#199 = EDGE_CURVE ( 'NONE', #244, #206, #186, .T. ) ;
#200 = DIRECTION ( 'NONE',  ( 0.0000000000000000000, 1.000000000000000000, 2.168404344971009361E-16 ) ) ;
#201 = DIRECTION ( 'NONE',  ( 0.0000000000000000000, -1.224646799147352714E-16, 1.000000000000000000 ) ) ;
#202 = DIRECTION ( 'NONE',  ( 0.0000000000000000000, 1.000000000000000000, 2.168404344971009361E-16 ) ) ;
#203 = CARTESIAN_POINT ( 'NONE',  ( 0.6606032142793363260, 0.3059586641219323999, 0.9523538843324341752 ) ) ;
#204 = ADVANCED_FACE ( 'NONE', ( #5 ), #108, .T. ) ;
#205 = FACE_OUTER_BOUND ( 'NONE', #24, .T. ) ;
#206 = VERTEX_POINT ( 'NONE', #118 ) ;
#207 = DIRECTION ( 'NONE',  ( 1.000000000000000000, 0.0000000000000000000, 0.0000000000000000000 ) ) ;
#208 = EDGE_CURVE ( 'NONE', #157, #244, #129, .T. ) ;
#209 = CLOSED_SHELL ( 'NONE', ( #204, #229, #175, #13, #254, #78, #294, #99, #231 ) ) ;
#210 = EDGE_LOOP ( 'NONE', ( #109, #123 ) ) ;
#211 = VERTEX_POINT ( 'NONE', #74 ) ;
#212 = APPROVAL_PERSON_ORGANIZATION ( #219, #106, #218 ) ;
#213 = PERSON_AND_ORGANIZATION ( #137, #119 ) ;
#214 = AXIS2_PLACEMENT_3D ( 'NONE', #253, #270, #55 ) ;
#215 = ORIENTED_EDGE ( 'NONE', *, *, #46, .F. ) ;
#216 = ORIENTED_EDGE ( 'NONE', *, *, #226, .T. ) ;
#217 = PERSON_AND_ORGANIZATION_ROLE ( 'design_supplier' ) ;
#218 = APPROVAL_ROLE ( '' ) ;
#219 = PERSON_AND_ORGANIZATION ( #137, #119 ) ;
#220 = EDGE_CURVE ( 'NONE', #211, #139, #242, .T. ) ;
#221 = DIRECTION ( 'NONE',  ( 0.0000000000000000000, 1.000000000000000000, 2.282530889443167022E-16 ) ) ;
#222 = PRODUCT_DEFINITION_FORMATION_WITH_SPECIFIED_SOURCE ( 'ANY', '', #115, .NOT_KNOWN. ) ;
#223 = ORIENTED_EDGE ( 'NONE', *, *, #50, .F. ) ;
#224 = DATE_AND_TIME ( #38, #43 ) ;
#225 = FACE_OUTER_BOUND ( 'NONE', #31, .T. ) ;
#226 = EDGE_CURVE ( 'NONE', #139, #149, #103, .T. ) ;
#227 = CARTESIAN_POINT ( 'NONE',  ( 0.6606032142793362150, 1.305958664121932511, 1.621106863357661743 ) ) ;
#228 = CARTESIAN_POINT ( 'NONE',  ( 0.6606032142793362150, 1.305958664121932511, 1.621106863357661743 ) ) ;
#229 = ADVANCED_FACE ( 'NONE', ( #205 ), #235, .T. ) ;
#230 = CARTESIAN_POINT ( 'NONE',  ( 0.0000000000000000000, 0.0000000000000000000, 0.0000000000000000000 ) ) ;
#231 = ADVANCED_FACE ( 'NONE', ( #258 ), #21, .T. ) ;
#232 = APPROVAL ( #283, 'UNSPECIFIED' ) ;
#233 = DIRECTION ( 'NONE',  ( 0.0000000000000000000, 1.000000000000000000, 1.141265444721584497E-16 ) ) ;
#234 = CARTESIAN_POINT ( 'NONE',  ( 0.6606032142793362150, 2.305958664121932067, 1.621106863357661965 ) ) ;
#235 = SPHERICAL_SURFACE ( 'NONE', #289, 2.067000000000000171 ) ;
#236 = EDGE_CURVE ( 'NONE', #261, #298, #58, .T. ) ;
#237 = PRODUCT_DEFINITION ( 'UNKNOWN', '', #222, #144 ) ;
#238 = COORDINATED_UNIVERSAL_TIME_OFFSET ( 5, 0, .BEHIND. ) ;
#239 = AXIS2_PLACEMENT_3D ( 'NONE', #72, #113, #133 ) ;
#240 = CC_DESIGN_APPROVAL ( #265, ( #131 ) ) ;
#241 = CARTESIAN_POINT ( 'NONE',  ( 0.6606032142793362150, 1.305958664121932511, 1.671106863357661787 ) ) ;
#242 = CIRCLE ( 'NONE', #9, 2.067000000000000171 ) ;
#243 = EDGE_LOOP ( 'NONE', ( #215, #63, #183, #92 ) ) ;
#244 = VERTEX_POINT ( 'NONE', #234 ) ;
#245 = DIRECTION ( 'NONE',  ( 0.0000000000000000000, 1.000000000000000000, 2.282530889443167022E-16 ) ) ;
#246 = PERSON_AND_ORGANIZATION_ROLE ( 'classification_officer' ) ;
#247 = CC_DESIGN_PERSON_AND_ORGANIZATION_ASSIGNMENT ( #192, #70, ( #222 ) ) ;
#248 = COORDINATED_UNIVERSAL_TIME_OFFSET ( 5, 0, .BEHIND. ) ;
#249 = SPHERICAL_SURFACE ( 'NONE', #214, 2.067000000000000171 ) ;
#250 = DIRECTION ( 'NONE',  ( -0.0000000000000000000, 1.224646799147352714E-16, -1.000000000000000000 ) ) ;
#251 = EDGE_LOOP ( 'NONE', ( #189, #102, #1, #104 ) ) ;
#252 = EDGE_CURVE ( 'NONE', #139, #157, #158, .T. ) ;
#253 = CARTESIAN_POINT ( 'NONE',  ( 0.6606032142793362150, 1.305958664121932511, -0.1646461156675665116 ) ) ;
#254 = ADVANCED_FACE ( 'NONE', ( #286 ), #273, .T. ) ;
#255 = CC_DESIGN_DATE_AND_TIME_ASSIGNMENT ( #29, #69, ( #237 ) ) ;
#256 = MECHANICAL_CONTEXT ( 'NONE', #96, 'mechanical' ) ;
#257 = ORIENTED_EDGE ( 'NONE', *, *, #166, .F. ) ;
#258 = FACE_OUTER_BOUND ( 'NONE', #243, .T. ) ;
#259 = CIRCLE ( 'NONE', #182, 0.9499999999999992895 ) ;
#260 = AXIS2_PLACEMENT_3D ( 'NONE', #196, #10, #33 ) ;
#261 = VERTEX_POINT ( 'NONE', #124 ) ;
#262 = PERSON_AND_ORGANIZATION ( #137, #119 ) ;
#263 = AXIS2_PLACEMENT_3D ( 'NONE', #264, #194, #191 ) ;
#264 = CARTESIAN_POINT ( 'NONE',  ( 0.6606032142793362150, 1.305958664121932511, 0.9523538843324342862 ) ) ;
#265 = APPROVAL ( #116, 'UNSPECIFIED' ) ;
#266 = APPROVAL_ROLE ( '' ) ;
#267 = AXIS2_PLACEMENT_3D ( 'NONE', #12, #271, #141 ) ;
#268 = CARTESIAN_POINT ( 'NONE',  ( 0.6606032142793362150, 2.255958664121932689, 1.671106863357662009 ) ) ;
#269 =( GEOMETRIC_REPRESENTATION_CONTEXT ( 3 ) GLOBAL_UNCERTAINTY_ASSIGNED_CONTEXT ( ( #19 ) ) GLOBAL_UNIT_ASSIGNED_CONTEXT ( ( #275, #295, #57 ) ) REPRESENTATION_CONTEXT ( 'NONE', 'WORKASPACE' ) );
#270 = DIRECTION ( 'NONE',  ( 1.000000000000000000, 0.0000000000000000000, -0.0000000000000000000 ) ) ;
#271 = DIRECTION ( 'NONE',  ( -0.0000000000000000000, 1.224646799147352714E-16, -1.000000000000000000 ) ) ;
#272 = CARTESIAN_POINT ( 'NONE',  ( 0.6606032142793362150, 1.305958664121932511, 0.9023538843324335756 ) ) ;
#273 = PLANE ( 'NONE',  #93 ) ;
#274 = ORIENTED_EDGE ( 'NONE', *, *, #46, .T. ) ;
#275 =( LENGTH_UNIT ( ) NAMED_UNIT ( * ) SI_UNIT ( .MILLI., .METRE. ) );
#276 = ORIENTED_EDGE ( 'NONE', *, *, #81, .T. ) ;
#277 = AXIS2_PLACEMENT_3D ( 'NONE', #228, #54, #200 ) ;
#278 = COORDINATED_UNIVERSAL_TIME_OFFSET ( 5, 0, .BEHIND. ) ;
#279 = VERTEX_POINT ( 'NONE', #203 ) ;
#280 = AXIS2_PLACEMENT_3D ( 'NONE', #227, #171, #94 ) ;
#281 = VECTOR ( 'NONE', #17, 1000.000000000000000 ) ;
#282 = ORIENTED_EDGE ( 'NONE', *, *, #3, .T. ) ;
#283 = APPROVAL_STATUS ( 'not_yet_approved' ) ;
#284 = CARTESIAN_POINT ( 'NONE',  ( 0.6606032142793363260, 2.255958664121931800, 0.9023538843324336867 ) ) ;
#285 = CALENDAR_DATE ( 2019, 24, 10 ) ;
#286 = FACE_OUTER_BOUND ( 'NONE', #210, .T. ) ;
#287 = ORIENTED_EDGE ( 'NONE', *, *, #208, .F. ) ;
#288 = DIRECTION ( 'NONE',  ( 0.0000000000000000000, -1.000000000000000000, -1.141265444721584497E-16 ) ) ;
#289 = AXIS2_PLACEMENT_3D ( 'NONE', #73, #290, #90 ) ;
#290 = DIRECTION ( 'NONE',  ( 1.000000000000000000, 0.0000000000000000000, -0.0000000000000000000 ) ) ;
#291 = CARTESIAN_POINT ( 'NONE',  ( 0.6606032142793362150, 1.305958664121932511, 1.621106863357661743 ) ) ;
#292 = APPROVAL_PERSON_ORGANIZATION ( #59, #232, #266 ) ;
#293 = DIRECTION ( 'NONE',  ( -0.0000000000000000000, 1.224646799147352714E-16, -1.000000000000000000 ) ) ;
#294 = ADVANCED_FACE ( 'NONE', ( #85 ), #82, .T. ) ;
#295 =( NAMED_UNIT ( * ) PLANE_ANGLE_UNIT ( ) SI_UNIT ( $, .RADIAN. ) );
#296 = LINE ( 'NONE', #169, #65 ) ;
#297 = EDGE_CURVE ( 'NONE', #298, #279, #188, .T. ) ;
#298 = VERTEX_POINT ( 'NONE', #79 ) ;
#299 = ORIENTED_EDGE ( 'NONE', *, *, #220, .F. ) ;
#300 = LOCAL_TIME ( 10, 0, 18.00000000000000000, #61 ) ;
#301 = CIRCLE ( 'NONE', #239, 0.9999999999999997780 ) ;
ENDSEC;
END-ISO-10303-21;
