ISO-10303-21;
HEADER;
FILE_DESCRIPTION (( 'STEP AP214' ),
    '1' );
FILE_NAME ('8561-E0W.step',
    '2007-11-09T08:18:03',
    ( ' ' ),
    ( ' ' ),
    'SwSTEP 2.0',
    'SolidWorks 2007',
    '' );
FILE_SCHEMA (( 'AUTOMOTIVE_DESIGN' ));
ENDSEC;

DATA;
#1 = VERTEX_POINT ( 'NONE', #74 ) ;
#2 = VERTEX_POINT ( 'NONE', #138 ) ;
#3 = EDGE_CURVE ( 'NONE', #4, #29, #137, .T. ) ;
#4 = VERTEX_POINT ( 'NONE', #132 ) ;
#5 = EDGE_CURVE ( 'NONE', #21, #10, #131, .T. ) ;
#6 = EDGE_CURVE ( 'NONE', #10, #8, #127, .T. ) ;
#7 = ORIENTED_EDGE ( 'NONE', *, *, #11, .T. ) ;
#8 = VERTEX_POINT ( 'NONE', #122 ) ;
#9 = ORIENTED_EDGE ( 'NONE', *, *, #6, .F. ) ;
#10 = VERTEX_POINT ( 'NONE', #121 ) ;
#11 = EDGE_CURVE ( 'NONE', #14, #8, #120, .T. ) ;
#12 = ORIENTED_EDGE ( 'NONE', *, *, #5, .F. ) ;
#13 = EDGE_CURVE ( 'NONE', #32, #4, #115, .T. ) ;
#14 = VERTEX_POINT ( 'NONE', #168 ) ;
#15 = ORIENTED_EDGE ( 'NONE', *, *, #19, .T. ) ;
#16 = ADVANCED_FACE ( 'NONE', ( #167 ), #164, .T. ) ;
#17 = EDGE_LOOP ( 'NONE', ( #15, #7, #9, #12 ) ) ;
#18 = ORIENTED_EDGE ( 'NONE', *, *, #13, .F. ) ;
#19 = EDGE_CURVE ( 'NONE', #21, #14, #165, .T. ) ;
#20 = ORIENTED_EDGE ( 'NONE', *, *, #3, .F. ) ;
#21 = VERTEX_POINT ( 'NONE', #156 ) ;
#22 = EDGE_LOOP ( 'NONE', ( #25, #23, #20, #18 ) ) ;
#23 = ORIENTED_EDGE ( 'NONE', *, *, #24, .T. ) ;
#24 = EDGE_CURVE ( 'NONE', #33, #29, #155, .T. ) ;
#25 = ORIENTED_EDGE ( 'NONE', *, *, #30, .T. ) ;
#26 = EDGE_CURVE ( 'NONE', #66, #32, #151, .T. ) ;
#27 = ADVANCED_FACE ( 'NONE', ( #147 ), #146, .T. ) ;
#28 = ORIENTED_EDGE ( 'NONE', *, *, #26, .F. ) ;
#29 = VERTEX_POINT ( 'NONE', #141 ) ;
#30 = EDGE_CURVE ( 'NONE', #32, #33, #140, .T. ) ;
#31 = ORIENTED_EDGE ( 'NONE', *, *, #30, .F. ) ;
#32 = VERTEX_POINT ( 'NONE', #198 ) ;
#33 = VERTEX_POINT ( 'NONE', #197 ) ;
#34 = EDGE_CURVE ( 'NONE', #67, #33, #196, .T. ) ;
#35 = DIRECTION ( 'NONE',  ( 1.000000000000000000, 0.0000000000000000000, 0.0000000000000000000 ) ) ;
#36 = DIRECTION ( 'NONE',  ( 0.0000000000000000000, 0.0000000000000000000, 1.000000000000000000 ) ) ;
#37 = CARTESIAN_POINT ( 'NONE',  ( 0.0000000000000000000, 0.0000000000000000000, 0.0000000000000000000 ) ) ;
#38 = ORIENTED_EDGE ( 'NONE', *, *, #102, .F. ) ;
#39 = ADVANCED_FACE ( 'NONE', ( #192 ), #191, .T. ) ;
#40 = EDGE_LOOP ( 'NONE', ( #89, #90, #92, #93 ) ) ;
#41 = ADVANCED_FACE ( 'NONE', ( #185, #184 ), #190, .F. ) ;
#42 = EDGE_LOOP ( 'NONE', ( #43, #45 ) ) ;
#43 = ORIENTED_EDGE ( 'NONE', *, *, #44, .F. ) ;
#44 = EDGE_CURVE ( 'NONE', #59, #56, #179, .T. ) ;
#45 = ORIENTED_EDGE ( 'NONE', *, *, #58, .F. ) ;
#46 = EDGE_LOOP ( 'NONE', ( #47, #48 ) ) ;
#47 = ORIENTED_EDGE ( 'NONE', *, *, #6, .T. ) ;
#48 = ORIENTED_EDGE ( 'NONE', *, *, #49, .T. ) ;
#49 = EDGE_CURVE ( 'NONE', #8, #10, #174, .T. ) ;
#50 = ADVANCED_FACE ( 'NONE', ( #169 ), #234, .T. ) ;
#51 = EDGE_LOOP ( 'NONE', ( #52, #53, #103, #104 ) ) ;
#52 = ORIENTED_EDGE ( 'NONE', *, *, #11, .F. ) ;
#53 = ORIENTED_EDGE ( 'NONE', *, *, #102, .T. ) ;
#54 = ORIENTED_EDGE ( 'NONE', *, *, #55, .T. ) ;
#55 = EDGE_CURVE ( 'NONE', #1, #56, #229, .T. ) ;
#56 = VERTEX_POINT ( 'NONE', #225 ) ;
#57 = ORIENTED_EDGE ( 'NONE', *, *, #58, .T. ) ;
#58 = EDGE_CURVE ( 'NONE', #56, #59, #224, .T. ) ;
#59 = VERTEX_POINT ( 'NONE', #219 ) ;
#60 = ORIENTED_EDGE ( 'NONE', *, *, #61, .F. ) ;
#61 = EDGE_CURVE ( 'NONE', #2, #59, #218, .T. ) ;
#62 = ADVANCED_FACE ( 'NONE', ( #214 ), #212, .T. ) ;
#63 = EDGE_LOOP ( 'NONE', ( #64, #68, #31, #28 ) ) ;
#64 = ORIENTED_EDGE ( 'NONE', *, *, #65, .T. ) ;
#65 = EDGE_CURVE ( 'NONE', #66, #67, #207, .T. ) ;
#66 = VERTEX_POINT ( 'NONE', #203 ) ;
#67 = VERTEX_POINT ( 'NONE', #202 ) ;
#68 = ORIENTED_EDGE ( 'NONE', *, *, #34, .T. ) ;
#69 = MANIFOLD_SOLID_BREP ( 'NONE', #76 ) ;
#70 = ADVANCED_FACE ( 'NONE', ( #246 ), #277, .F. ) ;
#71 = EDGE_LOOP ( 'NONE', ( #72, #54, #57, #60 ) ) ;
#72 = ORIENTED_EDGE ( 'NONE', *, *, #73, .F. ) ;
#73 = EDGE_CURVE ( 'NONE', #1, #2, #273, .T. ) ;
#74 = CARTESIAN_POINT ( 'NONE',  ( -0.1969999999999985100, 6.000571133729642500E-018, 0.04899999999999993900 ) ) ;
#75 = ORIENTED_EDGE ( 'NONE', *, *, #44, .T. ) ;
#76 = CLOSED_SHELL ( 'NONE', ( #70, #62, #27, #16, #41, #50, #105, #39, #94, #77, #84 ) ) ;
#77 = ADVANCED_FACE ( 'NONE', ( #269, #268 ), #267, .T. ) ;
#78 = ORIENTED_EDGE ( 'NONE', *, *, #79, .T. ) ;
#79 = EDGE_CURVE ( 'NONE', #2, #1, #310, .T. ) ;
#80 = ORIENTED_EDGE ( 'NONE', *, *, #73, .T. ) ;
#81 = EDGE_LOOP ( 'NONE', ( #82, #83 ) ) ;
#82 = ORIENTED_EDGE ( 'NONE', *, *, #65, .F. ) ;
#83 = ORIENTED_EDGE ( 'NONE', *, *, #98, .F. ) ;
#84 = ADVANCED_FACE ( 'NONE', ( #305 ), #344, .F. ) ;
#85 = EDGE_LOOP ( 'NONE', ( #86, #87, #88, #75 ) ) ;
#86 = ORIENTED_EDGE ( 'NONE', *, *, #55, .F. ) ;
#87 = ORIENTED_EDGE ( 'NONE', *, *, #79, .F. ) ;
#88 = ORIENTED_EDGE ( 'NONE', *, *, #61, .T. ) ;
#89 = ORIENTED_EDGE ( 'NONE', *, *, #24, .F. ) ;
#90 = ORIENTED_EDGE ( 'NONE', *, *, #91, .T. ) ;
#91 = EDGE_CURVE ( 'NONE', #33, #32, #345, .T. ) ;
#92 = ORIENTED_EDGE ( 'NONE', *, *, #13, .T. ) ;
#93 = ORIENTED_EDGE ( 'NONE', *, *, #109, .F. ) ;
#94 = ADVANCED_FACE ( 'NONE', ( #336 ), #335, .T. ) ;
#95 = EDGE_LOOP ( 'NONE', ( #96, #97, #99, #100 ) ) ;
#96 = ORIENTED_EDGE ( 'NONE', *, *, #34, .F. ) ;
#97 = ORIENTED_EDGE ( 'NONE', *, *, #98, .T. ) ;
#98 = EDGE_CURVE ( 'NONE', #67, #66, #334, .T. ) ;
#99 = ORIENTED_EDGE ( 'NONE', *, *, #26, .T. ) ;
#100 = ORIENTED_EDGE ( 'NONE', *, *, #91, .F. ) ;
#101 = EDGE_LOOP ( 'NONE', ( #78, #80 ) ) ;
#102 = EDGE_CURVE ( 'NONE', #14, #21, #325, .T. ) ;
#103 = ORIENTED_EDGE ( 'NONE', *, *, #5, .T. ) ;
#104 = ORIENTED_EDGE ( 'NONE', *, *, #49, .F. ) ;
#105 = ADVANCED_FACE ( 'NONE', ( #320, #319 ), #318, .T. ) ;
#106 = EDGE_LOOP ( 'NONE', ( #107, #108 ) ) ;
#107 = ORIENTED_EDGE ( 'NONE', *, *, #3, .T. ) ;
#108 = ORIENTED_EDGE ( 'NONE', *, *, #109, .T. ) ;
#109 = EDGE_CURVE ( 'NONE', #29, #4, #359, .T. ) ;
#110 = EDGE_LOOP ( 'NONE', ( #111, #38 ) ) ;
#111 = ORIENTED_EDGE ( 'NONE', *, *, #19, .F. ) ;
#112 = DIRECTION ( 'NONE',  ( 1.000000000000000000, 3.466812174700868600E-016, 0.0000000000000000000 ) ) ;
#113 = VECTOR ( 'NONE', #112, 39.37007874015748100 ) ;
#114 = CARTESIAN_POINT ( 'NONE',  ( -3.085462835483803600E-017, 0.08900000000000088400, 0.0000000000000000000 ) ) ;
#115 = LINE ( 'NONE', #114, #113 ) ;
#116 = AXIS2_PLACEMENT_3D ( 'NONE', #37, #36, #35 ) ;
#117 = DIRECTION ( 'NONE',  ( 1.000000000000000000, 3.466812174700868600E-016, 0.0000000000000000000 ) ) ;
#118 = VECTOR ( 'NONE', #117, 39.37007874015748100 ) ;
#119 = CARTESIAN_POINT ( 'NONE',  ( 3.414809992080371500E-017, -0.09850000000000046200, 1.206237258515047200E-017 ) ) ;
#120 = LINE ( 'NONE', #119, #118 ) ;
#121 = CARTESIAN_POINT ( 'NONE',  ( -9.811212691902556900E-034, 0.09850000000000008700, 0.0000000000000000000 ) ) ;
#122 = CARTESIAN_POINT ( 'NONE',  ( 6.829619984160716000E-017, -0.09850000000000008700, 1.206237258515045100E-017 ) ) ;
#123 = DIRECTION ( 'NONE',  ( -3.466812174700868600E-016, 1.000000000000000000, 0.0000000000000000000 ) ) ;
#124 = DIRECTION ( 'NONE',  ( 1.000000000000000000, 3.466812174700868600E-016, 0.0000000000000000000 ) ) ;
#125 = CARTESIAN_POINT ( 'NONE',  ( 3.414809992080358600E-017, 1.183850485483436400E-032, 0.0000000000000000000 ) ) ;
#126 = AXIS2_PLACEMENT_3D ( 'NONE', #125, #124, #123 ) ;
#127 = CIRCLE ( 'NONE', #126, 0.09850000000000008700 ) ;
#128 = DIRECTION ( 'NONE',  ( 1.000000000000000000, 3.466812174700868600E-016, 0.0000000000000000000 ) ) ;
#129 = VECTOR ( 'NONE', #128, 39.37007874015748100 ) ;
#130 = CARTESIAN_POINT ( 'NONE',  ( -3.414809992080371500E-017, 0.09850000000000046200, 0.0000000000000000000 ) ) ;
#131 = LINE ( 'NONE', #130, #129 ) ;
#132 = CARTESIAN_POINT ( 'NONE',  ( -0.01999999999999883100, 0.08900000000000084200, 0.0000000000000000000 ) ) ;
#133 = DIRECTION ( 'NONE',  ( -3.357257014685684800E-016, 1.000000000000000000, 0.0000000000000000000 ) ) ;
#134 = DIRECTION ( 'NONE',  ( 1.000000000000000000, 3.466812174700868600E-016, 0.0000000000000000000 ) ) ;
#135 = CARTESIAN_POINT ( 'NONE',  ( -0.01999999999999880000, -6.933624349401321200E-018, 0.0000000000000000000 ) ) ;
#136 = AXIS2_PLACEMENT_3D ( 'NONE', #135, #134, #133 ) ;
#137 = CIRCLE ( 'NONE', #136, 0.08900000000000084200 ) ;
#138 = CARTESIAN_POINT ( 'NONE',  ( -0.1969999999999985100, 0.0000000000000000000, -0.04899999999999993900 ) ) ;
#139 = AXIS2_PLACEMENT_3D ( 'NONE', #201, #200, #199 ) ;
#140 = CIRCLE ( 'NONE', #139, 0.08900000000000091200 ) ;
#141 = CARTESIAN_POINT ( 'NONE',  ( -0.01999999999999877200, -0.08900000000000084200, 1.089899654901926300E-017 ) ) ;
#142 = DIRECTION ( 'NONE',  ( -3.466812174700868600E-016, 1.000000000000000000, 0.0000000000000000000 ) ) ;
#143 = DIRECTION ( 'NONE',  ( 1.000000000000000000, 3.466812174700868600E-016, 0.0000000000000000000 ) ) ;
#144 = CARTESIAN_POINT ( 'NONE',  ( 0.0000000000000000000, 0.0000000000000000000, 0.0000000000000000000 ) ) ;
#145 = AXIS2_PLACEMENT_3D ( 'NONE', #144, #143, #142 ) ;
#146 = CYLINDRICAL_SURFACE ( 'NONE', #145, 0.08900000000000088400 ) ;
#147 = FACE_OUTER_BOUND ( 'NONE', #22, .T. ) ;
#148 = DIRECTION ( 'NONE',  ( 0.7071067811865484600, 0.7071067811865465700, 0.0000000000000000000 ) ) ;
#149 = VECTOR ( 'NONE', #148, 39.37007874015748100 ) ;
#150 = CARTESIAN_POINT ( 'NONE',  ( -0.1969999999999984800, 0.07900000000000098600, 0.0000000000000000000 ) ) ;
#151 = LINE ( 'NONE', #150, #149 ) ;
#152 = DIRECTION ( 'NONE',  ( 1.000000000000000000, 3.466812174700868600E-016, 0.0000000000000000000 ) ) ;
#153 = VECTOR ( 'NONE', #152, 39.37007874015748100 ) ;
#154 = CARTESIAN_POINT ( 'NONE',  ( 3.085462835483803600E-017, -0.08900000000000088400, 1.089899654901926500E-017 ) ) ;
#155 = LINE ( 'NONE', #154, #153 ) ;
#156 = CARTESIAN_POINT ( 'NONE',  ( -0.01999999999999978500, 0.09850000000000083700, 0.0000000000000000000 ) ) ;
#157 = DIRECTION ( 'NONE',  ( -3.466812174700812400E-016, 1.000000000000000000, 0.0000000000000000000 ) ) ;
#158 = DIRECTION ( 'NONE',  ( 1.000000000000000000, 3.466812174700868600E-016, 0.0000000000000000000 ) ) ;
#159 = CARTESIAN_POINT ( 'NONE',  ( -0.01999999999999975400, -6.933624349401650900E-018, 0.0000000000000000000 ) ) ;
#160 = AXIS2_PLACEMENT_3D ( 'NONE', #159, #158, #157 ) ;
#161 = DIRECTION ( 'NONE',  ( -3.466812174700868600E-016, 1.000000000000000000, 0.0000000000000000000 ) ) ;
#162 = DIRECTION ( 'NONE',  ( 1.000000000000000000, 3.466812174700868600E-016, 0.0000000000000000000 ) ) ;
#163 = AXIS2_PLACEMENT_3D ( 'NONE', #166, #162, #161 ) ;
#164 = CYLINDRICAL_SURFACE ( 'NONE', #163, 0.09850000000000046200 ) ;
#165 = CIRCLE ( 'NONE', #160, 0.09850000000000083700 ) ;
#166 = CARTESIAN_POINT ( 'NONE',  ( 0.0000000000000000000, 0.0000000000000000000, 0.0000000000000000000 ) ) ;
#167 = FACE_OUTER_BOUND ( 'NONE', #17, .T. ) ;
#168 = CARTESIAN_POINT ( 'NONE',  ( -0.01999999999999971900, -0.09850000000000083700, 1.206237258515051800E-017 ) ) ;
#169 = FACE_OUTER_BOUND ( 'NONE', #51, .T. ) ;
#170 = DIRECTION ( 'NONE',  ( -3.466812174700868600E-016, 1.000000000000000000, 0.0000000000000000000 ) ) ;
#171 = DIRECTION ( 'NONE',  ( 1.000000000000000000, 3.466812174700868600E-016, 0.0000000000000000000 ) ) ;
#172 = CARTESIAN_POINT ( 'NONE',  ( 3.414809992080358600E-017, 1.183850485483436400E-032, 0.0000000000000000000 ) ) ;
#173 = AXIS2_PLACEMENT_3D ( 'NONE', #172, #171, #170 ) ;
#174 = CIRCLE ( 'NONE', #173, 0.09850000000000008700 ) ;
#175 = DIRECTION ( 'NONE',  ( 0.0000000000000000000, 0.0000000000000000000, -1.000000000000000000 ) ) ;
#176 = DIRECTION ( 'NONE',  ( 1.000000000000000000, 0.0000000000000000000, 0.0000000000000000000 ) ) ;
#177 = CARTESIAN_POINT ( 'NONE',  ( -3.710460826384715700E-018, 0.0000000000000000000, 0.0000000000000000000 ) ) ;
#178 = AXIS2_PLACEMENT_3D ( 'NONE', #177, #176, #175 ) ;
#179 = CIRCLE ( 'NONE', #178, 0.04899999999999996700 ) ;
#180 = DIRECTION ( 'NONE',  ( 3.466812174700868600E-016, -1.000000000000000000, 0.0000000000000000000 ) ) ;
#181 = DIRECTION ( 'NONE',  ( -1.000000000000000000, -3.466812174700868600E-016, 0.0000000000000000000 ) ) ;
#182 = CARTESIAN_POINT ( 'NONE',  ( 9.413011104430405600E-017, -0.2222677699306019900, 0.0000000000000000000 ) ) ;
#183 = AXIS2_PLACEMENT_3D ( 'NONE', #182, #181, #180 ) ;
#184 = FACE_OUTER_BOUND ( 'NONE', #46, .T. ) ;
#185 = FACE_BOUND ( 'NONE', #42, .T. ) ;
#186 = DIRECTION ( 'NONE',  ( -3.466812174700868600E-016, 1.000000000000000000, 0.0000000000000000000 ) ) ;
#187 = DIRECTION ( 'NONE',  ( 1.000000000000000000, 3.466812174700868600E-016, 0.0000000000000000000 ) ) ;
#188 = CARTESIAN_POINT ( 'NONE',  ( 0.0000000000000000000, 0.0000000000000000000, 0.0000000000000000000 ) ) ;
#189 = AXIS2_PLACEMENT_3D ( 'NONE', #188, #187, #186 ) ;
#190 = PLANE ( 'NONE',  #183 ) ;
#191 = CYLINDRICAL_SURFACE ( 'NONE', #189, 0.08900000000000088400 ) ;
#192 = FACE_OUTER_BOUND ( 'NONE', #40, .T. ) ;
#193 = DIRECTION ( 'NONE',  ( 0.7071067811865489100, -0.7071067811865461300, 8.659274570719340600E-017 ) ) ;
#194 = VECTOR ( 'NONE', #193, 39.37007874015748100 ) ;
#195 = CARTESIAN_POINT ( 'NONE',  ( -0.1969999999999984000, -0.07900000000000112500, 9.674390195196910500E-018 ) ) ;
#196 = LINE ( 'NONE', #195, #194 ) ;
#197 = CARTESIAN_POINT ( 'NONE',  ( -0.1869999999999985000, -0.08900000000000098100, 1.089899654901927200E-017 ) ) ;
#198 = CARTESIAN_POINT ( 'NONE',  ( -0.1869999999999985800, 0.08900000000000084200, 0.0000000000000000000 ) ) ;
#199 = DIRECTION ( 'NONE',  ( -3.836865159640779700E-016, 1.000000000000000000, 0.0000000000000000000 ) ) ;
#200 = DIRECTION ( 'NONE',  ( 1.000000000000000000, 3.466812174700868600E-016, 0.0000000000000000000 ) ) ;
#201 = CARTESIAN_POINT ( 'NONE',  ( -0.1869999999999985600, -6.482938766690573300E-017, 0.0000000000000000000 ) ) ;
#202 = CARTESIAN_POINT ( 'NONE',  ( -0.1969999999999984000, -0.07900000000000112500, 1.028669337210808900E-017 ) ) ;
#203 = CARTESIAN_POINT ( 'NONE',  ( -0.1969999999999984800, 0.07900000000000098600, 0.0000000000000000000 ) ) ;
#204 = DIRECTION ( 'NONE',  ( -4.322544293772510800E-016, 1.000000000000000000, 0.0000000000000000000 ) ) ;
#205 = DIRECTION ( 'NONE',  ( 1.000000000000000000, 3.466812174700868600E-016, 0.0000000000000000000 ) ) ;
#206 = AXIS2_PLACEMENT_3D ( 'NONE', #213, #205, #204 ) ;
#207 = CIRCLE ( 'NONE', #206, 0.07900000000000105500 ) ;
#208 = DIRECTION ( 'NONE',  ( -4.322544293772510800E-016, 1.000000000000000000, 0.0000000000000000000 ) ) ;
#209 = DIRECTION ( 'NONE',  ( 1.000000000000000000, 3.466812174700868600E-016, 0.0000000000000000000 ) ) ;
#210 = CARTESIAN_POINT ( 'NONE',  ( -0.1969999999999984300, -6.829619984160656800E-017, 0.0000000000000000000 ) ) ;
#211 = AXIS2_PLACEMENT_3D ( 'NONE', #210, #209, #208 ) ;
#212 = CONICAL_SURFACE ( 'NONE', #211, 0.07900000000000105500, 0.7853981633974466100 ) ;
#213 = CARTESIAN_POINT ( 'NONE',  ( -0.1969999999999984300, -6.829619984160656800E-017, 0.0000000000000000000 ) ) ;
#214 = FACE_OUTER_BOUND ( 'NONE', #63, .T. ) ;
#215 = DIRECTION ( 'NONE',  ( 1.000000000000000000, 0.0000000000000000000, 0.0000000000000000000 ) ) ;
#216 = VECTOR ( 'NONE', #215, 39.37007874015748100 ) ;
#217 = CARTESIAN_POINT ( 'NONE',  ( 0.0000000000000000000, 0.0000000000000000000, -0.04899999999999996000 ) ) ;
#218 = LINE ( 'NONE', #217, #216 ) ;
#219 = CARTESIAN_POINT ( 'NONE',  ( -3.710460826384715700E-018, 0.0000000000000000000, -0.04899999999999996700 ) ) ;
#220 = DIRECTION ( 'NONE',  ( 0.0000000000000000000, 0.0000000000000000000, -1.000000000000000000 ) ) ;
#221 = DIRECTION ( 'NONE',  ( 1.000000000000000000, 0.0000000000000000000, 0.0000000000000000000 ) ) ;
#222 = CARTESIAN_POINT ( 'NONE',  ( -3.710460826384715700E-018, 0.0000000000000000000, 0.0000000000000000000 ) ) ;
#223 = AXIS2_PLACEMENT_3D ( 'NONE', #222, #221, #220 ) ;
#224 = CIRCLE ( 'NONE', #223, 0.04899999999999996700 ) ;
#225 = CARTESIAN_POINT ( 'NONE',  ( -3.710460826384715700E-018, 6.000571133729644800E-018, 0.04899999999999996700 ) ) ;
#226 = DIRECTION ( 'NONE',  ( 1.000000000000000000, 0.0000000000000000000, 0.0000000000000000000 ) ) ;
#227 = VECTOR ( 'NONE', #226, 39.37007874015748100 ) ;
#228 = CARTESIAN_POINT ( 'NONE',  ( 0.0000000000000000000, 6.000571133729644100E-018, 0.04899999999999996000 ) ) ;
#229 = LINE ( 'NONE', #228, #227 ) ;
#230 = DIRECTION ( 'NONE',  ( -3.466812174700868600E-016, 1.000000000000000000, 0.0000000000000000000 ) ) ;
#231 = DIRECTION ( 'NONE',  ( 1.000000000000000000, 3.466812174700868600E-016, 0.0000000000000000000 ) ) ;
#232 = CARTESIAN_POINT ( 'NONE',  ( 0.0000000000000000000, 0.0000000000000000000, 0.0000000000000000000 ) ) ;
#233 = AXIS2_PLACEMENT_3D ( 'NONE', #232, #231, #230 ) ;
#234 = CYLINDRICAL_SURFACE ( 'NONE', #233, 0.09850000000000046200 ) ;
#235 =( LENGTH_UNIT ( ) NAMED_UNIT ( * ) SI_UNIT ( $, .METRE. ) );
#236 = MECHANICAL_DESIGN_GEOMETRIC_PRESENTATION_REPRESENTATION (  '', ( #238 ), #280 ) ;
#237 = PRESENTATION_LAYER_ASSIGNMENT (  '', '', ( #238 ) ) ;
#238 = STYLED_ITEM ( 'NONE', ( #239 ), #70 ) ;
#239 = PRESENTATION_STYLE_ASSIGNMENT (( #240 ) ) ;
#240 = SURFACE_STYLE_USAGE ( .BOTH. , #241 ) ;
#241 = SURFACE_SIDE_STYLE ('',( #242 ) ) ;
#242 = SURFACE_STYLE_FILL_AREA ( #243 ) ;
#243 = FILL_AREA_STYLE ('',( #244 ) ) ;
#244 = FILL_AREA_STYLE_COLOUR ( '', #245 ) ;
#245 = COLOUR_RGB ( '',0.7529411764705882200, 0.7529411764705882200, 0.7529411764705882200 ) ;
#246 = FACE_OUTER_BOUND ( 'NONE', #71, .T. ) ;
#247 =( GEOMETRIC_REPRESENTATION_CONTEXT ( 3 ) GLOBAL_UNCERTAINTY_ASSIGNED_CONTEXT ( ( #248 ) ) GLOBAL_UNIT_ASSIGNED_CONTEXT ( ( #251, #250, #249 ) ) REPRESENTATION_CONTEXT ( 'NONE', 'WORKASPACE' ) );
#248 = UNCERTAINTY_MEASURE_WITH_UNIT (LENGTH_MEASURE( 1.000000000000000100E-005 ), #251, 'distance_accuracy_value', 'NONE');
#249 =( NAMED_UNIT ( * ) SI_UNIT ( $, .STERADIAN. ) SOLID_ANGLE_UNIT ( ) );
#250 =( NAMED_UNIT ( * ) PLANE_ANGLE_UNIT ( ) SI_UNIT ( $, .RADIAN. ) );
#251 =( CONVERSION_BASED_UNIT ( 'INCH', #252 ) LENGTH_UNIT ( ) NAMED_UNIT ( #253 ) );
#252 = LENGTH_MEASURE_WITH_UNIT ( LENGTH_MEASURE( 0.02539999999999999900 ), #254 );
#253 = DIMENSIONAL_EXPONENTS ( 1.000000000000000000, 0.0000000000000000000, 0.0000000000000000000, 0.0000000000000000000, 0.0000000000000000000, 0.0000000000000000000, 0.0000000000000000000 ) ;
#254 =( LENGTH_UNIT ( ) NAMED_UNIT ( * ) SI_UNIT ( $, .METRE. ) );
#255 = MECHANICAL_DESIGN_GEOMETRIC_PRESENTATION_REPRESENTATION (  '', ( #257 ), #247 ) ;
#256 = PRESENTATION_LAYER_ASSIGNMENT (  '', '', ( #257 ) ) ;
#257 = STYLED_ITEM ( 'NONE', ( #258 ), #69 ) ;
#258 = PRESENTATION_STYLE_ASSIGNMENT (( #259 ) ) ;
#259 = SURFACE_STYLE_USAGE ( .BOTH. , #260 ) ;
#260 = SURFACE_SIDE_STYLE ('',( #261 ) ) ;
#261 = SURFACE_STYLE_FILL_AREA ( #262 ) ;
#262 = FILL_AREA_STYLE ('',( #263 ) ) ;
#263 = FILL_AREA_STYLE_COLOUR ( '', #264 ) ;
#264 = COLOUR_RGB ( '',1.000000000000000000, 1.000000000000000000, 0.0000000000000000000 ) ;
#265 = CARTESIAN_POINT ( 'NONE',  ( -0.1969999999999983700, -0.2222677699306019900, 0.0000000000000000000 ) ) ;
#266 = AXIS2_PLACEMENT_3D ( 'NONE', #265, #313, #312 ) ;
#267 = PLANE ( 'NONE',  #266 ) ;
#268 = FACE_OUTER_BOUND ( 'NONE', #81, .T. ) ;
#269 = FACE_BOUND ( 'NONE', #101, .T. ) ;
#270 = DIRECTION ( 'NONE',  ( 0.0000000000000000000, 0.0000000000000000000, -1.000000000000000000 ) ) ;
#271 = DIRECTION ( 'NONE',  ( 1.000000000000000000, 0.0000000000000000000, 0.0000000000000000000 ) ) ;
#272 = AXIS2_PLACEMENT_3D ( 'NONE', #278, #271, #270 ) ;
#273 = CIRCLE ( 'NONE', #272, 0.04899999999999993900 ) ;
#274 = DIRECTION ( 'NONE',  ( 0.0000000000000000000, 0.0000000000000000000, -1.000000000000000000 ) ) ;
#275 = DIRECTION ( 'NONE',  ( 1.000000000000000000, 0.0000000000000000000, 0.0000000000000000000 ) ) ;
#276 = AXIS2_PLACEMENT_3D ( 'NONE', #279, #275, #274 ) ;
#277 = CYLINDRICAL_SURFACE ( 'NONE', #276, 0.04899999999999996000 ) ;
#278 = CARTESIAN_POINT ( 'NONE',  ( -0.1969999999999985100, 0.0000000000000000000, 0.0000000000000000000 ) ) ;
#279 = CARTESIAN_POINT ( 'NONE',  ( 0.0000000000000000000, 0.0000000000000000000, 0.0000000000000000000 ) ) ;
#280 =( GEOMETRIC_REPRESENTATION_CONTEXT ( 3 ) GLOBAL_UNCERTAINTY_ASSIGNED_CONTEXT ( ( #281 ) ) GLOBAL_UNIT_ASSIGNED_CONTEXT ( ( #284, #283, #282 ) ) REPRESENTATION_CONTEXT ( 'NONE', 'WORKASPACE' ) );
#281 = UNCERTAINTY_MEASURE_WITH_UNIT (LENGTH_MEASURE( 1.000000000000000100E-005 ), #284, 'distance_accuracy_value', 'NONE');
#282 =( NAMED_UNIT ( * ) SI_UNIT ( $, .STERADIAN. ) SOLID_ANGLE_UNIT ( ) );
#283 =( NAMED_UNIT ( * ) PLANE_ANGLE_UNIT ( ) SI_UNIT ( $, .RADIAN. ) );
#284 =( CONVERSION_BASED_UNIT ( 'INCH', #285 ) LENGTH_UNIT ( ) NAMED_UNIT ( #286 ) );
#285 = LENGTH_MEASURE_WITH_UNIT ( LENGTH_MEASURE( 0.02539999999999999900 ), #235 );
#286 = DIMENSIONAL_EXPONENTS ( 1.000000000000000000, 0.0000000000000000000, 0.0000000000000000000, 0.0000000000000000000, 0.0000000000000000000, 0.0000000000000000000, 0.0000000000000000000 ) ;
#287 = CARTESIAN_POINT ( 'NONE',  ( 0.0000000000000000000, 0.0000000000000000000, 0.0000000000000000000 ) ) ;
#288 =( GEOMETRIC_REPRESENTATION_CONTEXT ( 3 ) GLOBAL_UNCERTAINTY_ASSIGNED_CONTEXT ( ( #289 ) ) GLOBAL_UNIT_ASSIGNED_CONTEXT ( ( #292, #291, #290 ) ) REPRESENTATION_CONTEXT ( 'NONE', 'WORKASPACE' ) );
#289 = UNCERTAINTY_MEASURE_WITH_UNIT (LENGTH_MEASURE( 1.000000000000000100E-005 ), #292, 'distance_accuracy_value', 'NONE');
#290 =( NAMED_UNIT ( * ) SI_UNIT ( $, .STERADIAN. ) SOLID_ANGLE_UNIT ( ) );
#291 =( NAMED_UNIT ( * ) PLANE_ANGLE_UNIT ( ) SI_UNIT ( $, .RADIAN. ) );
#292 =( CONVERSION_BASED_UNIT ( 'INCH', #293 ) LENGTH_UNIT ( ) NAMED_UNIT ( #294 ) );
#293 = LENGTH_MEASURE_WITH_UNIT ( LENGTH_MEASURE( 0.02539999999999999900 ), #295 );
#294 = DIMENSIONAL_EXPONENTS ( 1.000000000000000000, 0.0000000000000000000, 0.0000000000000000000, 0.0000000000000000000, 0.0000000000000000000, 0.0000000000000000000, 0.0000000000000000000 ) ;
#295 =( LENGTH_UNIT ( ) NAMED_UNIT ( * ) SI_UNIT ( $, .METRE. ) );
#296 = MECHANICAL_DESIGN_GEOMETRIC_PRESENTATION_REPRESENTATION (  '', ( #298 ), #288 ) ;
#297 = PRESENTATION_LAYER_ASSIGNMENT (  '', '', ( #298 ) ) ;
#298 = STYLED_ITEM ( 'NONE', ( #299 ), #84 ) ;
#299 = PRESENTATION_STYLE_ASSIGNMENT (( #300 ) ) ;
#300 = SURFACE_STYLE_USAGE ( .BOTH. , #301 ) ;
#301 = SURFACE_SIDE_STYLE ('',( #302 ) ) ;
#302 = SURFACE_STYLE_FILL_AREA ( #303 ) ;
#303 = FILL_AREA_STYLE ('',( #311 ) ) ;
#304 = COLOUR_RGB ( '',0.7529411764705882200, 0.7529411764705882200, 0.7529411764705882200 ) ;
#305 = FACE_OUTER_BOUND ( 'NONE', #85, .T. ) ;
#306 = DIRECTION ( 'NONE',  ( 0.0000000000000000000, 0.0000000000000000000, -1.000000000000000000 ) ) ;
#307 = DIRECTION ( 'NONE',  ( 1.000000000000000000, 0.0000000000000000000, 0.0000000000000000000 ) ) ;
#308 = CARTESIAN_POINT ( 'NONE',  ( -0.1969999999999985100, 0.0000000000000000000, 0.0000000000000000000 ) ) ;
#309 = AXIS2_PLACEMENT_3D ( 'NONE', #308, #307, #306 ) ;
#310 = CIRCLE ( 'NONE', #309, 0.04899999999999993900 ) ;
#311 = FILL_AREA_STYLE_COLOUR ( '', #304 ) ;
#312 = DIRECTION ( 'NONE',  ( 3.466812174700868600E-016, -1.000000000000000000, 0.0000000000000000000 ) ) ;
#313 = DIRECTION ( 'NONE',  ( -1.000000000000000000, -3.466812174700868600E-016, 0.0000000000000000000 ) ) ;
#314 = DIRECTION ( 'NONE',  ( 3.466812174700868600E-016, -1.000000000000000000, 0.0000000000000000000 ) ) ;
#315 = DIRECTION ( 'NONE',  ( -1.000000000000000000, -3.466812174700868600E-016, 0.0000000000000000000 ) ) ;
#316 = CARTESIAN_POINT ( 'NONE',  ( -0.01999999999999919900, -0.2222677699306019900, 0.0000000000000000000 ) ) ;
#317 = AXIS2_PLACEMENT_3D ( 'NONE', #316, #315, #314 ) ;
#318 = PLANE ( 'NONE',  #317 ) ;
#319 = FACE_OUTER_BOUND ( 'NONE', #110, .T. ) ;
#320 = FACE_BOUND ( 'NONE', #106, .T. ) ;
#321 = DIRECTION ( 'NONE',  ( -3.466812174700812400E-016, 1.000000000000000000, 0.0000000000000000000 ) ) ;
#322 = DIRECTION ( 'NONE',  ( 1.000000000000000000, 3.466812174700868600E-016, 0.0000000000000000000 ) ) ;
#323 = CARTESIAN_POINT ( 'NONE',  ( -0.01999999999999975400, -6.933624349401650900E-018, 0.0000000000000000000 ) ) ;
#324 = AXIS2_PLACEMENT_3D ( 'NONE', #323, #322, #321 ) ;
#325 = CIRCLE ( 'NONE', #324, 0.09850000000000083700 ) ;
#326 = DIRECTION ( 'NONE',  ( -4.322544293772510800E-016, 1.000000000000000000, 0.0000000000000000000 ) ) ;
#327 = DIRECTION ( 'NONE',  ( 1.000000000000000000, 3.466812174700868600E-016, 0.0000000000000000000 ) ) ;
#328 = CARTESIAN_POINT ( 'NONE',  ( -0.1969999999999984300, -6.829619984160656800E-017, 0.0000000000000000000 ) ) ;
#329 = AXIS2_PLACEMENT_3D ( 'NONE', #328, #327, #326 ) ;
#330 = DIRECTION ( 'NONE',  ( -4.322544293772510800E-016, 1.000000000000000000, 0.0000000000000000000 ) ) ;
#331 = DIRECTION ( 'NONE',  ( 1.000000000000000000, 3.466812174700868600E-016, 0.0000000000000000000 ) ) ;
#332 = CARTESIAN_POINT ( 'NONE',  ( -0.1969999999999984300, -6.829619984160656800E-017, 0.0000000000000000000 ) ) ;
#333 = AXIS2_PLACEMENT_3D ( 'NONE', #332, #331, #330 ) ;
#334 = CIRCLE ( 'NONE', #329, 0.07900000000000105500 ) ;
#335 = CONICAL_SURFACE ( 'NONE', #333, 0.07900000000000105500, 0.7853981633974466100 ) ;
#336 = FACE_OUTER_BOUND ( 'NONE', #95, .T. ) ;
#337 = DIRECTION ( 'NONE',  ( -3.836865159640779700E-016, 1.000000000000000000, 0.0000000000000000000 ) ) ;
#338 = DIRECTION ( 'NONE',  ( 1.000000000000000000, 3.466812174700868600E-016, 0.0000000000000000000 ) ) ;
#339 = CARTESIAN_POINT ( 'NONE',  ( -0.1869999999999985600, -6.482938766690573300E-017, 0.0000000000000000000 ) ) ;
#340 = AXIS2_PLACEMENT_3D ( 'NONE', #339, #338, #337 ) ;
#341 = DIRECTION ( 'NONE',  ( 0.0000000000000000000, 0.0000000000000000000, -1.000000000000000000 ) ) ;
#342 = DIRECTION ( 'NONE',  ( 1.000000000000000000, 0.0000000000000000000, 0.0000000000000000000 ) ) ;
#343 = AXIS2_PLACEMENT_3D ( 'NONE', #287, #342, #341 ) ;
#344 = CYLINDRICAL_SURFACE ( 'NONE', #343, 0.04899999999999996000 ) ;
#345 = CIRCLE ( 'NONE', #340, 0.08900000000000091200 ) ;
#346 = ADVANCED_BREP_SHAPE_REPRESENTATION ( '8561-E0W', ( #69, #116 ), #347 ) ;
#347 =( GEOMETRIC_REPRESENTATION_CONTEXT ( 3 ) GLOBAL_UNCERTAINTY_ASSIGNED_CONTEXT ( ( #348 ) ) GLOBAL_UNIT_ASSIGNED_CONTEXT ( ( #351, #350, #349 ) ) REPRESENTATION_CONTEXT ( 'NONE', 'WORKASPACE' ) );
#348 = UNCERTAINTY_MEASURE_WITH_UNIT (LENGTH_MEASURE( 1.000000000000000100E-005 ), #351, 'distance_accuracy_value', 'NONE');
#349 =( NAMED_UNIT ( * ) SI_UNIT ( $, .STERADIAN. ) SOLID_ANGLE_UNIT ( ) );
#350 =( NAMED_UNIT ( * ) PLANE_ANGLE_UNIT ( ) SI_UNIT ( $, .RADIAN. ) );
#351 =( CONVERSION_BASED_UNIT ( 'INCH', #352 ) LENGTH_UNIT ( ) NAMED_UNIT ( #353 ) );
#352 = LENGTH_MEASURE_WITH_UNIT ( LENGTH_MEASURE( 0.02539999999999999900 ), #354 );
#353 = DIMENSIONAL_EXPONENTS ( 1.000000000000000000, 0.0000000000000000000, 0.0000000000000000000, 0.0000000000000000000, 0.0000000000000000000, 0.0000000000000000000, 0.0000000000000000000 ) ;
#354 =( LENGTH_UNIT ( ) NAMED_UNIT ( * ) SI_UNIT ( $, .METRE. ) );
#355 = DIRECTION ( 'NONE',  ( -3.357257014685684800E-016, 1.000000000000000000, 0.0000000000000000000 ) ) ;
#356 = DIRECTION ( 'NONE',  ( 1.000000000000000000, 3.466812174700868600E-016, 0.0000000000000000000 ) ) ;
#357 = CARTESIAN_POINT ( 'NONE',  ( -0.01999999999999880000, -6.933624349401321200E-018, 0.0000000000000000000 ) ) ;
#358 = AXIS2_PLACEMENT_3D ( 'NONE', #357, #356, #355 ) ;
#359 = CIRCLE ( 'NONE', #358, 0.08900000000000084200 ) ;
#360 = PRODUCT_DEFINITION_SHAPE ( 'NONE', 'NONE',  #363 ) ;
#361 = PRODUCT_RELATED_PRODUCT_CATEGORY ( 'part', '', ( #368 ) ) ;
#362 = PRODUCT_DEFINITION_FORMATION_WITH_SPECIFIED_SOURCE ( 'ANY', '', #368, .NOT_KNOWN. ) ;
#363 = PRODUCT_DEFINITION ( 'UNKNOWN', '', #362, #364 ) ;
#364 = PRODUCT_DEFINITION_CONTEXT ( 'detailed design', #366, 'design' ) ;
#365 = APPLICATION_PROTOCOL_DEFINITION ( 'draft international standard', 'automotive_design', 1998, #366 ) ;
#366 = APPLICATION_CONTEXT ( 'automotive_design' ) ;
#367 = SHAPE_DEFINITION_REPRESENTATION ( #360, #346 ) ;
#368 = PRODUCT ( '8561-E0W', '8561-E0W', '', ( #369 ) ) ;
#369 = PRODUCT_CONTEXT ( 'NONE', #371, 'mechanical' ) ;
#370 = APPLICATION_PROTOCOL_DEFINITION ( 'draft international standard', 'automotive_design', 1998, #371 ) ;
#371 = APPLICATION_CONTEXT ( 'automotive_design' ) ;
ENDSEC;
END-ISO-10303-21;
