ISO-10303-21;
HEADER;
FILE_DESCRIPTION (( 'STEP AP203' ),
    '1' );
FILE_NAME ('TTN023920-E0W.STEP',
    '2014-04-22T14:52:56',
    ( 'admin' ),
    ( '' ),
    'SwSTEP 2.0',
    'SolidWorks 2012',
    '' );
FILE_SCHEMA (( 'CONFIG_CONTROL_DESIGN' ));
ENDSEC;

DATA;
#1 = PRODUCT_DEFINITION_SHAPE ( 'NONE', 'NONE',  #176 ) ;
#2 = DESIGN_CONTEXT ( 'detailed design', #11, 'design' ) ;
#3 =( CONVERSION_BASED_UNIT ( 'INCH', #193 ) LENGTH_UNIT ( ) NAMED_UNIT ( #297 ) );
#4 =( NAMED_UNIT ( * ) PLANE_ANGLE_UNIT ( ) SI_UNIT ( $, .RADIAN. ) );
#5 =( NAMED_UNIT ( * ) SI_UNIT ( $, .STERADIAN. ) SOLID_ANGLE_UNIT ( ) );
#6 = APPLICATION_PROTOCOL_DEFINITION ( 'international standard', 'config_control_design', 1994, #7 ) ;
#7 = APPLICATION_CONTEXT ( 'configuration controlled 3d designs of mechanical parts and assemblies' ) ;
#8 = DIRECTION ( 'NONE',  ( 1.000000000000000000, 0.0000000000000000000, 0.0000000000000000000 ) ) ;
#9 = MECHANICAL_CONTEXT ( 'NONE', #7, 'mechanical' ) ;
#10 = PERSON_AND_ORGANIZATION_ROLE ( 'design_owner' ) ;
#11 = APPLICATION_CONTEXT ( 'configuration controlled 3d designs of mechanical parts and assemblies' ) ;
#12 = APPLICATION_PROTOCOL_DEFINITION ( 'international standard', 'config_control_design', 1994, #11 ) ;
#13 = APPROVAL_STATUS ( 'not_yet_approved' ) ;
#14 = APPROVAL_ROLE ( '' ) ;
#15 = PERSON_AND_ORGANIZATION_ROLE ( 'creator' ) ;
#16 = DATE_TIME_ROLE ( 'creation_date' ) ;
#17 = APPROVAL_STATUS ( 'not_yet_approved' ) ;
#18 = APPROVAL_ROLE ( '' ) ;
#19 = PERSON_AND_ORGANIZATION_ROLE ( 'creator' ) ;
#20 = PERSON_AND_ORGANIZATION_ROLE ( 'design_supplier' ) ;
#21 = SECURITY_CLASSIFICATION_LEVEL ( 'unclassified' ) ;
#22 = PERSON_AND_ORGANIZATION_ROLE ( 'classification_officer' ) ;
#23 = DATE_TIME_ROLE ( 'classification_date' ) ;
#24 = APPROVAL_STATUS ( 'not_yet_approved' ) ;
#25 = APPROVAL_ROLE ( '' ) ;
#26 = FACE_OUTER_BOUND ( 'NONE', #198, .T. ) ;
#27 = CONICAL_SURFACE ( 'NONE', #170, 0.4921259842519553600, 0.7853981633976190300 ) ;
#28 =( LENGTH_UNIT ( ) NAMED_UNIT ( * ) SI_UNIT ( $, .METRE. ) );
#29 = CONICAL_SURFACE ( 'NONE', #164, 0.4999999999999987800, 0.7853981633972645400 ) ;
#30 = FACE_OUTER_BOUND ( 'NONE', #204, .T. ) ;
#31 = FACE_OUTER_BOUND ( 'NONE', #200, .T. ) ;
#32 = CYLINDRICAL_SURFACE ( 'NONE', #169, 0.5000000000000001100 ) ;
#33 = FACE_OUTER_BOUND ( 'NONE', #195, .T. ) ;
#34 = CYLINDRICAL_SURFACE ( 'NONE', #168, 0.5000000000000001100 ) ;
#35 = FACE_OUTER_BOUND ( 'NONE', #199, .T. ) ;
#36 = DIRECTION ( 'NONE',  ( 8.659560562353341600E-017, 0.7071067811865353600, 0.7071067811865596700 ) ) ;
#37 = CARTESIAN_POINT ( 'NONE',  ( 0.0000000000000000000, 0.4921259842519685200, 0.03835831605609985000 ) ) ;
#38 = DIRECTION ( 'NONE',  ( -0.0000000000000000000, 3.061515884555943100E-016, -1.000000000000000000 ) ) ;
#39 = DIRECTION ( 'NONE',  ( 0.0000000000000000000, 0.7071067811865503500, -0.7071067811865444600 ) ) ;
#40 = CARTESIAN_POINT ( 'NONE',  ( 6.123233995736767300E-017, -0.5000000000000001100, -0.04055118110236236000 ) ) ;
#41 = CARTESIAN_POINT ( 'NONE',  ( 0.0000000000000000000, 1.183797291726275600E-014, 0.03048430030815167000 ) ) ;
#42 = DIRECTION ( 'NONE',  ( -0.0000000000000000000, -1.666487321856962200E-013, -1.000000000000000000 ) ) ;
#43 = DIRECTION ( 'NONE',  ( 0.0000000000000000000, 1.000000000000000000, -1.666512646385041700E-013 ) ) ;
#44 = DIRECTION ( 'NONE',  ( -0.0000000000000000000, 3.061515884555943100E-016, -1.000000000000000000 ) ) ;
#45 = CARTESIAN_POINT ( 'NONE',  ( 0.0000000000000000000, 6.752749426928612700E-015, -55.18236220472442000 ) ) ;
#46 = DIRECTION ( 'NONE',  ( -1.000000000000000000, 0.0000000000000000000, 0.0000000000000000000 ) ) ;
#47 = DIRECTION ( 'NONE',  ( 0.0000000000000000000, 0.0000000000000000000, 1.000000000000000000 ) ) ;
#48 = CARTESIAN_POINT ( 'NONE',  ( 0.0000000000000000000, 0.5000000000000001100, -0.04055118110236205500 ) ) ;
#49 = CARTESIAN_POINT ( 'NONE',  ( 0.0000000000000000000, 1.364161606046571600E-026, -0.04055118110228050200 ) ) ;
#50 = DIRECTION ( 'NONE',  ( -0.0000000000000000000, -1.666487321856962200E-013, -1.000000000000000000 ) ) ;
#51 = DIRECTION ( 'NONE',  ( 0.0000000000000000000, 1.000000000000000000, -1.666548843370918600E-013 ) ) ;
#52 = CARTESIAN_POINT ( 'NONE',  ( 0.0000000000000000000, 1.183797291726275600E-014, 0.03048430030815167000 ) ) ;
#53 = DIRECTION ( 'NONE',  ( -0.0000000000000000000, -1.666487321856962200E-013, -1.000000000000000000 ) ) ;
#54 = DIRECTION ( 'NONE',  ( 0.0000000000000000000, 1.000000000000000000, -1.666512646385041700E-013 ) ) ;
#55 = DIRECTION ( 'NONE',  ( 0.0000000000000000000, 1.666487321856962200E-013, 1.000000000000000000 ) ) ;
#56 = CARTESIAN_POINT ( 'NONE',  ( 0.0000000000000000000, 1.312194741633566700E-015, -0.03267716535424738900 ) ) ;
#57 = DIRECTION ( 'NONE',  ( -0.0000000000000000000, -1.666487321856962200E-013, -1.000000000000000000 ) ) ;
#58 = DIRECTION ( 'NONE',  ( 0.0000000000000000000, 1.000000000000000000, -1.666512646385006600E-013 ) ) ;
#59 = DIRECTION ( 'NONE',  ( 0.0000000000000000000, -1.000000000000000000, 1.666512646385006600E-013 ) ) ;
#60 = CARTESIAN_POINT ( 'NONE',  ( 0.0000000000000000000, 1.494598305846211000E-017, -0.04055118110236228400 ) ) ;
#61 = CARTESIAN_POINT ( 'NONE',  ( 0.0000000000000000000, 1.364161606046571600E-026, -0.04055118110228050200 ) ) ;
#62 = DIRECTION ( 'NONE',  ( -0.0000000000000000000, -1.666487321856962200E-013, -1.000000000000000000 ) ) ;
#63 = DIRECTION ( 'NONE',  ( 0.0000000000000000000, 1.000000000000000000, -1.666548843370918600E-013 ) ) ;
#64 = CARTESIAN_POINT ( 'NONE',  ( 0.0000000000000000000, 1.312194741633566700E-015, -0.03267716535424738900 ) ) ;
#65 = CARTESIAN_POINT ( 'NONE',  ( 0.0000000000000000000, 1.315016765888219400E-014, 0.03835831605618186100 ) ) ;
#66 = DIRECTION ( 'NONE',  ( -0.0000000000000000000, -1.666487321856962200E-013, -1.000000000000000000 ) ) ;
#67 = DIRECTION ( 'NONE',  ( 0.0000000000000000000, 1.000000000000000000, -1.666462107197164400E-013 ) ) ;
#68 = PLANE ( 'NONE',  #166 ) ;
#69 = DIRECTION ( 'NONE',  ( 0.0000000000000000000, 1.000000000000000000, 3.073328992872295900E-016 ) ) ;
#70 = DIRECTION ( 'NONE',  ( 0.0000000000000000000, 1.000000000000000000, 3.073328992872295900E-016 ) ) ;
#71 = DIRECTION ( 'NONE',  ( -0.0000000000000000000, 3.061515884555943100E-016, -1.000000000000000000 ) ) ;
#72 = DIRECTION ( 'NONE',  ( 0.0000000000000000000, 1.000000000000000000, 3.061515884555943100E-016 ) ) ;
#73 = DIRECTION ( 'NONE',  ( -0.0000000000000000000, 3.061515884555943100E-016, -1.000000000000000000 ) ) ;
#74 = CARTESIAN_POINT ( 'NONE',  ( 0.0000000000000000000, 1.494598305846208500E-017, -0.04055118110236220800 ) ) ;
#75 = DIRECTION ( 'NONE',  ( -0.0000000000000000000, 3.061515884555943100E-016, -1.000000000000000000 ) ) ;
#76 = DIRECTION ( 'NONE',  ( 0.0000000000000000000, -1.000000000000000000, 1.666512646385006600E-013 ) ) ;
#77 = CARTESIAN_POINT ( 'NONE',  ( 0.0000000000000000000, 1.494598305846208500E-017, -0.04055118110236220800 ) ) ;
#78 = DIRECTION ( 'NONE',  ( 0.0000000000000000000, 1.666487321856962200E-013, 1.000000000000000000 ) ) ;
#79 = DIRECTION ( 'NONE',  ( 0.0000000000000000000, 1.000000000000000000, -1.666462107197164400E-013 ) ) ;
#80 = CARTESIAN_POINT ( 'NONE',  ( 0.0000000000000000000, 1.312194741633566700E-015, -0.03267716535424738900 ) ) ;
#81 = DIRECTION ( 'NONE',  ( -0.0000000000000000000, -1.666487321856962200E-013, -1.000000000000000000 ) ) ;
#82 = DIRECTION ( 'NONE',  ( 1.000000000000000000, 0.0000000000000000000, -0.0000000000000000000 ) ) ;
#83 = CARTESIAN_POINT ( 'NONE',  ( 0.0000000000000000000, 1.315016765888219400E-014, 0.03835831605618186100 ) ) ;
#84 = CARTESIAN_POINT ( 'NONE',  ( 0.0000000000000000000, 6.752749426928612700E-015, -55.18236220472442000 ) ) ;
#85 = DIRECTION ( 'NONE',  ( 1.000000000000000000, 0.0000000000000000000, -0.0000000000000000000 ) ) ;
#86 = CARTESIAN_POINT ( 'NONE',  ( 0.0000000000000000000, 6.752749426928612700E-015, -55.18236220472442000 ) ) ;
#87 = DIRECTION ( 'NONE',  ( 0.0000000000000000000, 1.000000000000000000, 3.166045774748745500E-016 ) ) ;
#88 = DIRECTION ( 'NONE',  ( 0.0000000000000000000, 1.000000000000000000, -1.666462107197164400E-013 ) ) ;
#89 = DIRECTION ( 'NONE',  ( -0.0000000000000000000, -1.666487321856962200E-013, -1.000000000000000000 ) ) ;
#90 = DIRECTION ( 'NONE',  ( 0.0000000000000000000, 1.000000000000000000, 3.166045774748745500E-016 ) ) ;
#91 = DIRECTION ( 'NONE',  ( 0.0000000000000000000, 0.0000000000000000000, 1.000000000000000000 ) ) ;
#92 = CARTESIAN_POINT ( 'NONE',  ( 0.0000000000000000000, 1.315016765888219400E-014, 0.03835831605618186100 ) ) ;
#93 = CARTESIAN_POINT ( 'NONE',  ( 0.0000000000000000000, 0.0000000000000000000, 0.0000000000000000000 ) ) ;
#94 = PERSON_AND_ORGANIZATION ( #301, #225 ) ;
#95 = PERSON_AND_ORGANIZATION ( #301, #225 ) ;
#96 = APPROVAL_PERSON_ORGANIZATION ( #94, #177, #14 ) ;
#97 = VERTEX_POINT ( 'NONE', #237 ) ;
#98 = VERTEX_POINT ( 'NONE', #236 ) ;
#99 = VERTEX_POINT ( 'NONE', #243 ) ;
#100 = VERTEX_POINT ( 'NONE', #252 ) ;
#101 = VERTEX_POINT ( 'NONE', #240 ) ;
#102 = ORIENTED_EDGE ( 'NONE', *, *, #143, .T. ) ;
#103 = VERTEX_POINT ( 'NONE', #250 ) ;
#104 = VERTEX_POINT ( 'NONE', #238 ) ;
#105 = VERTEX_POINT ( 'NONE', #249 ) ;
#106 = VERTEX_POINT ( 'NONE', #241 ) ;
#107 = CALENDAR_DATE ( 2014, 22, 4 ) ;
#108 = APPROVAL_DATE_TIME ( #119, #177 ) ;
#109 = COORDINATED_UNIVERSAL_TIME_OFFSET ( 5, 0, .BEHIND. ) ;
#110 = PERSON_AND_ORGANIZATION ( #301, #225 ) ;
#111 = APPROVAL_DATE_TIME ( #121, #182 ) ;
#112 = PERSON_AND_ORGANIZATION ( #301, #225 ) ;
#113 = LOCAL_TIME ( 10, 52, 56.00000000000000000, #128 ) ;
#114 = CALENDAR_DATE ( 2014, 22, 4 ) ;
#115 = APPROVAL_PERSON_ORGANIZATION ( #134, #189, #25 ) ;
#116 = PERSON_AND_ORGANIZATION ( #301, #225 ) ;
#117 = DATE_AND_TIME ( #129, #133 ) ;
#118 = COORDINATED_UNIVERSAL_TIME_OFFSET ( 5, 0, .BEHIND. ) ;
#119 = DATE_AND_TIME ( #137, #132 ) ;
#120 = LOCAL_TIME ( 10, 52, 56.00000000000000000, #131 ) ;
#121 = DATE_AND_TIME ( #107, #120 ) ;
#122 = DATE_AND_TIME ( #114, #113 ) ;
#123 = PERSON_AND_ORGANIZATION ( #301, #225 ) ;
#124 = APPROVAL_DATE_TIME ( #117, #189 ) ;
#125 = PERSON_AND_ORGANIZATION ( #301, #225 ) ;
#126 = APPROVAL_PERSON_ORGANIZATION ( #112, #182, #18 ) ;
#127 = DATE_AND_TIME ( #135, #130 ) ;
#128 = COORDINATED_UNIVERSAL_TIME_OFFSET ( 5, 0, .BEHIND. ) ;
#129 = CALENDAR_DATE ( 2014, 22, 4 ) ;
#130 = LOCAL_TIME ( 10, 52, 56.00000000000000000, #136 ) ;
#131 = COORDINATED_UNIVERSAL_TIME_OFFSET ( 5, 0, .BEHIND. ) ;
#132 = LOCAL_TIME ( 10, 52, 56.00000000000000000, #109 ) ;
#133 = LOCAL_TIME ( 10, 52, 56.00000000000000000, #118 ) ;
#134 = PERSON_AND_ORGANIZATION ( #301, #225 ) ;
#135 = CALENDAR_DATE ( 2014, 22, 4 ) ;
#136 = COORDINATED_UNIVERSAL_TIME_OFFSET ( 5, 0, .BEHIND. ) ;
#137 = CALENDAR_DATE ( 2014, 22, 4 ) ;
#138 = EDGE_CURVE ( 'NONE', #103, #106, #270, .T. ) ;
#139 = EDGE_CURVE ( 'NONE', #98, #106, #268, .T. ) ;
#140 = EDGE_CURVE ( 'NONE', #105, #97, #264, .T. ) ;
#141 = EDGE_CURVE ( 'NONE', #101, #97, #269, .T. ) ;
#142 = EDGE_CURVE ( 'NONE', #104, #101, #218, .T. ) ;
#143 = EDGE_CURVE ( 'NONE', #106, #100, #205, .T. ) ;
#144 = EDGE_CURVE ( 'NONE', #98, #99, #212, .T. ) ;
#145 = EDGE_CURVE ( 'NONE', #99, #100, #222, .T. ) ;
#146 = EDGE_CURVE ( 'NONE', #100, #97, #223, .T. ) ;
#147 = EDGE_CURVE ( 'NONE', #103, #98, #220, .T. ) ;
#148 = EDGE_CURVE ( 'NONE', #104, #105, #211, .T. ) ;
#149 = EDGE_CURVE ( 'NONE', #99, #101, #224, .T. ) ;
#150 = EDGE_CURVE ( 'NONE', #100, #99, #210, .T. ) ;
#151 = EDGE_CURVE ( 'NONE', #97, #101, #207, .T. ) ;
#152 = EDGE_CURVE ( 'NONE', #105, #104, #215, .T. ) ;
#153 = EDGE_CURVE ( 'NONE', #106, #98, #213, .T. ) ;
#154 = AXIS2_PLACEMENT_3D ( 'NONE', #245, #244, #242 ) ;
#155 = AXIS2_PLACEMENT_3D ( 'NONE', #239, #247, #246 ) ;
#156 = AXIS2_PLACEMENT_3D ( 'NONE', #299, #232, #233 ) ;
#157 = AXIS2_PLACEMENT_3D ( 'NONE', #41, #42, #43 ) ;
#158 = AXIS2_PLACEMENT_3D ( 'NONE', #45, #46, #47 ) ;
#159 = AXIS2_PLACEMENT_3D ( 'NONE', #49, #50, #51 ) ;
#160 = AXIS2_PLACEMENT_3D ( 'NONE', #52, #53, #54 ) ;
#161 = AXIS2_PLACEMENT_3D ( 'NONE', #56, #57, #58 ) ;
#162 = AXIS2_PLACEMENT_3D ( 'NONE', #61, #62, #63 ) ;
#163 = AXIS2_PLACEMENT_3D ( 'NONE', #65, #66, #67 ) ;
#164 = AXIS2_PLACEMENT_3D ( 'NONE', #64, #55, #59 ) ;
#165 = AXIS2_PLACEMENT_3D ( 'NONE', #80, #78, #76 ) ;
#166 = AXIS2_PLACEMENT_3D ( 'NONE', #60, #71, #72 ) ;
#167 = AXIS2_PLACEMENT_3D ( 'NONE', #83, #81, #79 ) ;
#168 = AXIS2_PLACEMENT_3D ( 'NONE', #74, #73, #69 ) ;
#169 = AXIS2_PLACEMENT_3D ( 'NONE', #77, #75, #70 ) ;
#170 = AXIS2_PLACEMENT_3D ( 'NONE', #92, #89, #88 ) ;
#171 = AXIS2_PLACEMENT_3D ( 'NONE', #84, #82, #87 ) ;
#172 = AXIS2_PLACEMENT_3D ( 'NONE', #86, #85, #90 ) ;
#173 =( GEOMETRIC_REPRESENTATION_CONTEXT ( 3 ) GLOBAL_UNCERTAINTY_ASSIGNED_CONTEXT ( ( #303 ) ) GLOBAL_UNIT_ASSIGNED_CONTEXT ( ( #3, #4, #5 ) ) REPRESENTATION_CONTEXT ( 'NONE', 'WORKASPACE' ) );
#174 = AXIS2_PLACEMENT_3D ( 'NONE', #93, #91, #8 ) ;
#175 = CC_DESIGN_PERSON_AND_ORGANIZATION_ASSIGNMENT ( #95, #10, ( #300 ) ) ;
#176 = PRODUCT_DEFINITION ( 'UNKNOWN', '', #181, #2 ) ;
#177 = APPROVAL ( #13, 'UNSPECIFIED' ) ;
#178 = CC_DESIGN_APPROVAL ( #177, ( #176 ) ) ;
#179 = CC_DESIGN_PERSON_AND_ORGANIZATION_ASSIGNMENT ( #123, #15, ( #176 ) ) ;
#180 = CC_DESIGN_DATE_AND_TIME_ASSIGNMENT ( #127, #16, ( #176 ) ) ;
#181 = PRODUCT_DEFINITION_FORMATION_WITH_SPECIFIED_SOURCE ( 'ANY', '', #300, .NOT_KNOWN. ) ;
#182 = APPROVAL ( #17, 'UNSPECIFIED' ) ;
#183 = CC_DESIGN_APPROVAL ( #182, ( #181 ) ) ;
#184 = CC_DESIGN_PERSON_AND_ORGANIZATION_ASSIGNMENT ( #125, #19, ( #181 ) ) ;
#185 = CC_DESIGN_PERSON_AND_ORGANIZATION_ASSIGNMENT ( #110, #20, ( #181 ) ) ;
#186 = SECURITY_CLASSIFICATION ( '', '', #21 ) ;
#187 = CC_DESIGN_PERSON_AND_ORGANIZATION_ASSIGNMENT ( #116, #22, ( #186 ) ) ;
#188 = CC_DESIGN_DATE_AND_TIME_ASSIGNMENT ( #122, #23, ( #186 ) ) ;
#189 = APPROVAL ( #24, 'UNSPECIFIED' ) ;
#190 = CC_DESIGN_APPROVAL ( #189, ( #186 ) ) ;
#191 = CC_DESIGN_SECURITY_CLASSIFICATION ( #186, ( #181 ) ) ;
#192 = PRODUCT_RELATED_PRODUCT_CATEGORY ( 'detail', '', ( #300 ) ) ;
#193 = LENGTH_MEASURE_WITH_UNIT ( LENGTH_MEASURE( 0.02539999999999999900 ), #28 );
#194 = EDGE_LOOP ( 'NONE', ( #277, #265, #272, #274 ) ) ;
#195 = EDGE_LOOP ( 'NONE', ( #260, #262, #263, #255 ) ) ;
#196 = EDGE_LOOP ( 'NONE', ( #281, #285 ) ) ;
#197 = EDGE_LOOP ( 'NONE', ( #258, #261, #254 ) ) ;
#198 = EDGE_LOOP ( 'NONE', ( #256, #102, #259, #257 ) ) ;
#199 = EDGE_LOOP ( 'NONE', ( #284, #283, #275, #279 ) ) ;
#200 = EDGE_LOOP ( 'NONE', ( #253, #273, #266 ) ) ;
#201 = ORIENTED_EDGE ( 'NONE', *, *, #149, .T. ) ;
#202 = EDGE_LOOP ( 'NONE', ( #287, #276, #278, #282 ) ) ;
#203 = ORIENTED_EDGE ( 'NONE', *, *, #151, .F. ) ;
#204 = EDGE_LOOP ( 'NONE', ( #280, #286, #201, #203 ) ) ;
#205 = LINE ( 'NONE', #248, #206 ) ;
#206 = VECTOR ( 'NONE', #298, 39.37007874015748900 ) ;
#207 = CIRCLE ( 'NONE', #161, 0.4999999999999987800 ) ;
#208 = VECTOR ( 'NONE', #38, 39.37007874015748100 ) ;
#209 = VECTOR ( 'NONE', #39, 39.37007874015748900 ) ;
#210 = CIRCLE ( 'NONE', #160, 0.4999999999999882300 ) ;
#211 = CIRCLE ( 'NONE', #159, 0.4921259842519685200 ) ;
#212 = LINE ( 'NONE', #37, #209 ) ;
#213 = CIRCLE ( 'NONE', #163, 0.4921259842519553600 ) ;
#214 = FACE_OUTER_BOUND ( 'NONE', #202, .T. ) ;
#215 = CIRCLE ( 'NONE', #162, 0.4921259842519685200 ) ;
#216 = FACE_OUTER_BOUND ( 'NONE', #196, .T. ) ;
#217 = VECTOR ( 'NONE', #44, 39.37007874015748100 ) ;
#218 = LINE ( 'NONE', #234, #219 ) ;
#219 = VECTOR ( 'NONE', #36, 39.37007874015748100 ) ;
#220 = CIRCLE ( 'NONE', #158, 55.22291338582678600 ) ;
#221 = FACE_OUTER_BOUND ( 'NONE', #194, .T. ) ;
#222 = CIRCLE ( 'NONE', #157, 0.4999999999999882300 ) ;
#223 = LINE ( 'NONE', #40, #208 ) ;
#224 = LINE ( 'NONE', #48, #217 ) ;
#225 = ORGANIZATION ( 'UNSPECIFIED', 'UNSPECIFIED', '' ) ;
#226 = SHAPE_DEFINITION_REPRESENTATION ( #1, #304 ) ;
#227 = CONICAL_SURFACE ( 'NONE', #165, 0.4999999999999987800, 0.7853981633972645400 ) ;
#228 = FACE_OUTER_BOUND ( 'NONE', #197, .T. ) ;
#229 = SPHERICAL_SURFACE ( 'NONE', #171, 55.22291338582678600 ) ;
#230 = SPHERICAL_SURFACE ( 'NONE', #172, 55.22291338582678600 ) ;
#231 = CONICAL_SURFACE ( 'NONE', #167, 0.4921259842519553600, 0.7853981633976190300 ) ;
#232 = DIRECTION ( 'NONE',  ( -0.0000000000000000000, -1.666487321856962200E-013, -1.000000000000000000 ) ) ;
#233 = DIRECTION ( 'NONE',  ( 0.0000000000000000000, 1.000000000000000000, -1.666512646385006600E-013 ) ) ;
#234 = CARTESIAN_POINT ( 'NONE',  ( 6.123233995736751200E-017, 0.5000000000000001100, -0.03267716535433071200 ) ) ;
#235 = DIRECTION ( 'NONE',  ( 0.0000000000000000000, -0.7071067811862997700, 0.7071067811867952600 ) ) ;
#236 = CARTESIAN_POINT ( 'NONE',  ( 0.0000000000000000000, 0.4921259842519685200, 0.03835831605609985000 ) ) ;
#237 = CARTESIAN_POINT ( 'NONE',  ( 6.123233995736751200E-017, -0.4999999999999974500, -0.03267716535416406000 ) ) ;
#238 = CARTESIAN_POINT ( 'NONE',  ( 6.075019554825444900E-017, 0.4921259842519685200, -0.04055118110236252000 ) ) ;
#239 = CARTESIAN_POINT ( 'NONE',  ( 0.0000000000000000000, 1.315016765888219400E-014, 0.03835831605618186100 ) ) ;
#240 = CARTESIAN_POINT ( 'NONE',  ( 0.0000000000000000000, 0.5000000000000001100, -0.03267716535433071200 ) ) ;
#241 = CARTESIAN_POINT ( 'NONE',  ( 6.075019554825300700E-017, -0.4921259842519422100, 0.03835831605626387200 ) ) ;
#242 = DIRECTION ( 'NONE',  ( -1.224646799147353200E-016, 1.000000000000000000, 0.0000000000000000000 ) ) ;
#243 = CARTESIAN_POINT ( 'NONE',  ( 0.0000000000000000000, 0.5000000000000001100, 0.03048430030806834400 ) ) ;
#244 = DIRECTION ( 'NONE',  ( 1.000000000000000000, 1.224646799147353200E-016, 3.749275628560213600E-032 ) ) ;
#245 = CARTESIAN_POINT ( 'NONE',  ( 0.0000000000000000000, 6.752749426928612700E-015, -55.18236220472442000 ) ) ;
#246 = DIRECTION ( 'NONE',  ( 0.0000000000000000000, 1.000000000000000000, -1.666462107197164400E-013 ) ) ;
#247 = DIRECTION ( 'NONE',  ( -0.0000000000000000000, -1.666487321856962200E-013, -1.000000000000000000 ) ) ;
#248 = CARTESIAN_POINT ( 'NONE',  ( 6.026805113913978400E-017, -0.4921259842519422100, 0.03835831605626387200 ) ) ;
#249 = CARTESIAN_POINT ( 'NONE',  ( 0.0000000000000000000, -0.4921259842519685200, -0.04055118110219848400 ) ) ;
#250 = CARTESIAN_POINT ( 'NONE',  ( 0.0000000000000000000, -6.772405019410743800E-015, 0.04055118110236560800 ) ) ;
#251 = CARTESIAN_POINT ( 'NONE',  ( 0.0000000000000000000, -0.4999999999999974500, -0.03267716535416406000 ) ) ;
#252 = CARTESIAN_POINT ( 'NONE',  ( 6.123233995736621800E-017, -0.4999999999999764100, 0.03048430030823499500 ) ) ;
#253 = ORIENTED_EDGE ( 'NONE', *, *, #138, .F. ) ;
#254 = ORIENTED_EDGE ( 'NONE', *, *, #139, .F. ) ;
#255 = ORIENTED_EDGE ( 'NONE', *, *, #150, .F. ) ;
#256 = ORIENTED_EDGE ( 'NONE', *, *, #139, .T. ) ;
#257 = ORIENTED_EDGE ( 'NONE', *, *, #144, .F. ) ;
#258 = ORIENTED_EDGE ( 'NONE', *, *, #147, .F. ) ;
#259 = ORIENTED_EDGE ( 'NONE', *, *, #145, .F. ) ;
#260 = ORIENTED_EDGE ( 'NONE', *, *, #143, .F. ) ;
#261 = ORIENTED_EDGE ( 'NONE', *, *, #138, .T. ) ;
#262 = ORIENTED_EDGE ( 'NONE', *, *, #153, .T. ) ;
#263 = ORIENTED_EDGE ( 'NONE', *, *, #144, .T. ) ;
#264 = LINE ( 'NONE', #251, #271 ) ;
#265 = ORIENTED_EDGE ( 'NONE', *, *, #152, .F. ) ;
#266 = ORIENTED_EDGE ( 'NONE', *, *, #153, .F. ) ;
#267 = CLOSED_SHELL ( 'NONE', ( #295, #296, #292, #291, #290, #288, #289, #293, #294 ) ) ;
#268 = CIRCLE ( 'NONE', #155, 0.4921259842519553600 ) ;
#269 = CIRCLE ( 'NONE', #156, 0.4999999999999987800 ) ;
#270 = CIRCLE ( 'NONE', #154, 55.22291338582678600 ) ;
#271 = VECTOR ( 'NONE', #235, 39.37007874015748100 ) ;
#272 = ORIENTED_EDGE ( 'NONE', *, *, #140, .T. ) ;
#273 = ORIENTED_EDGE ( 'NONE', *, *, #147, .T. ) ;
#274 = ORIENTED_EDGE ( 'NONE', *, *, #151, .T. ) ;
#275 = ORIENTED_EDGE ( 'NONE', *, *, #141, .F. ) ;
#276 = ORIENTED_EDGE ( 'NONE', *, *, #142, .T. ) ;
#277 = ORIENTED_EDGE ( 'NONE', *, *, #142, .F. ) ;
#278 = ORIENTED_EDGE ( 'NONE', *, *, #141, .T. ) ;
#279 = ORIENTED_EDGE ( 'NONE', *, *, #149, .F. ) ;
#280 = ORIENTED_EDGE ( 'NONE', *, *, #146, .F. ) ;
#281 = ORIENTED_EDGE ( 'NONE', *, *, #152, .T. ) ;
#282 = ORIENTED_EDGE ( 'NONE', *, *, #140, .F. ) ;
#283 = ORIENTED_EDGE ( 'NONE', *, *, #146, .T. ) ;
#284 = ORIENTED_EDGE ( 'NONE', *, *, #145, .T. ) ;
#285 = ORIENTED_EDGE ( 'NONE', *, *, #148, .T. ) ;
#286 = ORIENTED_EDGE ( 'NONE', *, *, #150, .T. ) ;
#287 = ORIENTED_EDGE ( 'NONE', *, *, #148, .F. ) ;
#288 = ADVANCED_FACE ( 'NONE', ( #221 ), #29, .T. ) ;
#289 = ADVANCED_FACE ( 'NONE', ( #216 ), #68, .T. ) ;
#290 = ADVANCED_FACE ( 'NONE', ( #30 ), #34, .T. ) ;
#291 = ADVANCED_FACE ( 'NONE', ( #35 ), #32, .T. ) ;
#292 = ADVANCED_FACE ( 'NONE', ( #214 ), #227, .T. ) ;
#293 = ADVANCED_FACE ( 'NONE', ( #33 ), #231, .T. ) ;
#294 = ADVANCED_FACE ( 'NONE', ( #31 ), #229, .T. ) ;
#295 = ADVANCED_FACE ( 'NONE', ( #228 ), #230, .T. ) ;
#296 = ADVANCED_FACE ( 'NONE', ( #26 ), #27, .T. ) ;
#297 = DIMENSIONAL_EXPONENTS ( 1.000000000000000000, 0.0000000000000000000, 0.0000000000000000000, 0.0000000000000000000, 0.0000000000000000000, 0.0000000000000000000, 0.0000000000000000000 ) ;
#298 = DIRECTION ( 'NONE',  ( 8.659560562356410700E-017, -0.7071067811867859400, -0.7071067811863088700 ) ) ;
#299 = CARTESIAN_POINT ( 'NONE',  ( 0.0000000000000000000, 1.312194741633566700E-015, -0.03267716535424738900 ) ) ;
#300 = PRODUCT ( 'TTN023920-E0W', 'TTN023920-E0W', '', ( #9 ) ) ;
#301 = PERSON ( 'UNSPECIFIED', 'UNSPECIFIED', 'UNSPECIFIED', ('UNSPECIFIED'), ('UNSPECIFIED'), ('UNSPECIFIED') ) ;
#302 = MANIFOLD_SOLID_BREP ( 'TTN023932-1-solid1', #267 ) ;
#303 = UNCERTAINTY_MEASURE_WITH_UNIT (LENGTH_MEASURE( 1.000000000000000100E-005 ), #3, 'distance_accuracy_value', 'NONE');
#304 = ADVANCED_BREP_SHAPE_REPRESENTATION ( 'TTN023920-E0W', ( #302, #174 ), #173 ) ;
ENDSEC;
END-ISO-10303-21;
