ISO-10303-21;
HEADER;
FILE_DESCRIPTION (( 'STEP AP203' ),
    '1' );
FILE_NAME ('5447-E0W.STEP',
    '2015-02-24T16:46:31',
    ( 'Admin' ),
    ( '' ),
    'SwSTEP 2.0',
    'SolidWorks 2014',
    '' );
FILE_SCHEMA (( 'CONFIG_CONTROL_DESIGN' ));
ENDSEC;

DATA;
#1 = EDGE_LOOP ( 'NONE', ( #179, #169, #110, #118 ) ) ;
#2 = LINE ( 'NONE', #150, #218 ) ;
#3 = SPHERICAL_SURFACE ( 'NONE', #23, 14.01000000000000000 ) ;
#4 = EDGE_LOOP ( 'NONE', ( #195, #180, #147, #6 ) ) ;
#5 = CC_DESIGN_APPROVAL ( #11, ( #194 ) ) ;
#6 = ORIENTED_EDGE ( 'NONE', *, *, #39, .T. ) ;
#7 = DATE_AND_TIME ( #185, #161 ) ;
#8 = CARTESIAN_POINT ( 'NONE',  ( 0.0000000000000000000, 0.0000000000000000000, 9.017153270429325600 ) ) ;
#9 = AXIS2_PLACEMENT_3D ( 'NONE', #27, #28, #29 ) ;
#10 = VECTOR ( 'NONE', #42, 1000.000000000000000 ) ;
#11 = APPROVAL ( #99, 'UNSPECIFIED' ) ;
#12 =( GEOMETRIC_REPRESENTATION_CONTEXT ( 3 ) GLOBAL_UNCERTAINTY_ASSIGNED_CONTEXT ( ( #105 ) ) GLOBAL_UNIT_ASSIGNED_CONTEXT ( ( #132, #24, #52 ) ) REPRESENTATION_CONTEXT ( 'NONE', 'WORKASPACE' ) );
#13 = AXIS2_PLACEMENT_3D ( 'NONE', #37, #114, #109 ) ;
#14 = CC_DESIGN_SECURITY_CLASSIFICATION ( #194, ( #158 ) ) ;
#15 = PRODUCT ( '5447-E0W', '5447-E0W', '', ( #178 ) ) ;
#16 = APPROVAL ( #137, 'UNSPECIFIED' ) ;
#17 = DIRECTION ( 'NONE',  ( -0.0000000000000000000, -0.0000000000000000000, 1.000000000000000000 ) ) ;
#18 = PRODUCT_RELATED_PRODUCT_CATEGORY ( 'detail', '', ( #15 ) ) ;
#19 = CYLINDRICAL_SURFACE ( 'NONE', #173, 4.500000000000000900 ) ;
#20 = DIRECTION ( 'NONE',  ( 1.000000000000000000, 0.0000000000000000000, 0.0000000000000000000 ) ) ;
#21 = CC_DESIGN_PERSON_AND_ORGANIZATION_ASSIGNMENT ( #48, #216, ( #15 ) ) ;
#22 = CIRCLE ( 'NONE', #167, 14.01000000000000000 ) ;
#23 = AXIS2_PLACEMENT_3D ( 'NONE', #166, #115, #135 ) ;
#24 =( NAMED_UNIT ( * ) PLANE_ANGLE_UNIT ( ) SI_UNIT ( $, .RADIAN. ) );
#25 = VERTEX_POINT ( 'NONE', #35 ) ;
#26 = LOCAL_TIME ( 11, 46, 31.00000000000000000, #199 ) ;
#27 = CARTESIAN_POINT ( 'NONE',  ( 0.0000000000000000000, 0.0000000000000000000, 1.992366450643882300 ) ) ;
#28 = DIRECTION ( 'NONE',  ( -0.0000000000000000000, -0.0000000000000000000, 1.000000000000000000 ) ) ;
#29 = DIRECTION ( 'NONE',  ( 1.000000000000000000, 0.0000000000000000000, 0.0000000000000000000 ) ) ;
#30 = CARTESIAN_POINT ( 'NONE',  ( 0.0000000000000000000, 0.0000000000000000000, 9.017153270429325600 ) ) ;
#31 = CARTESIAN_POINT ( 'NONE',  ( 0.0000000000000000000, 4.500000000000000900, 1.992366450643882300 ) ) ;
#32 = ADVANCED_FACE ( 'NONE', ( #78 ), #71, .T. ) ;
#33 = LINE ( 'NONE', #38, #10 ) ;
#34 = PERSON_AND_ORGANIZATION ( #203, #81 ) ;
#35 = CARTESIAN_POINT ( 'NONE',  ( 4.500000000000000900, 0.0000000000000000000, 1.992366450643882300 ) ) ;
#36 = FACE_OUTER_BOUND ( 'NONE', #154, .T. ) ;
#37 = CARTESIAN_POINT ( 'NONE',  ( 0.0000000000000000000, 0.0000000000000000000, -1.249999999999999300 ) ) ;
#38 = CARTESIAN_POINT ( 'NONE',  ( -4.500000000000000900, 5.510910596163089600E-016, 9.017153270429325600 ) ) ;
#39 = EDGE_CURVE ( 'NONE', #170, #126, #70, .T. ) ;
#40 = CARTESIAN_POINT ( 'NONE',  ( 0.0000000000000000000, 8.578650828027209100E-016, 1.249999999999999300 ) ) ;
#41 = PERSON_AND_ORGANIZATION_ROLE ( 'classification_officer' ) ;
#42 = DIRECTION ( 'NONE',  ( -0.0000000000000000000, -0.0000000000000000000, 1.000000000000000000 ) ) ;
#43 = CARTESIAN_POINT ( 'NONE',  ( -4.500000000000000900, 5.510910596163089600E-016, 1.992366450643882300 ) ) ;
#44 = DIRECTION ( 'NONE',  ( -0.0000000000000000000, -0.0000000000000000000, 1.000000000000000000 ) ) ;
#45 = APPLICATION_CONTEXT ( 'configuration controlled 3d designs of mechanical parts and assemblies' ) ;
#46 = APPROVAL_DATE_TIME ( #123, #16 ) ;
#47 = LOCAL_TIME ( 11, 46, 31.00000000000000000, #90 ) ;
#48 = PERSON_AND_ORGANIZATION ( #203, #81 ) ;
#49 = AXIS2_PLACEMENT_3D ( 'NONE', #138, #104, #142 ) ;
#50 = DIRECTION ( 'NONE',  ( 1.000000000000000000, 0.0000000000000000000, 0.0000000000000000000 ) ) ;
#51 = DIRECTION ( 'NONE',  ( 0.0000000000000000000, -0.0000000000000000000, 1.000000000000000000 ) ) ;
#52 =( NAMED_UNIT ( * ) SI_UNIT ( $, .STERADIAN. ) SOLID_ANGLE_UNIT ( ) );
#53 = DIRECTION ( 'NONE',  ( 1.000000000000000000, 0.0000000000000000000, 0.0000000000000000000 ) ) ;
#54 = CARTESIAN_POINT ( 'NONE',  ( 0.0000000000000000000, 0.0000000000000000000, 15.26000000000000000 ) ) ;
#55 = DIRECTION ( 'NONE',  ( -1.224646799147353200E-016, -1.000000000000000000, 0.0000000000000000000 ) ) ;
#56 = DIRECTION ( 'NONE',  ( -1.000000000000000000, 1.224646799147353200E-016, 0.0000000000000000000 ) ) ;
#57 = CARTESIAN_POINT ( 'NONE',  ( 0.0000000000000000000, 0.0000000000000000000, 1.992366450643882300 ) ) ;
#58 = AXIS2_PLACEMENT_3D ( 'NONE', #8, #17, #20 ) ;
#59 = SECURITY_CLASSIFICATION_LEVEL ( 'unclassified' ) ;
#60 = DIRECTION ( 'NONE',  ( -0.0000000000000000000, -0.0000000000000000000, 1.000000000000000000 ) ) ;
#61 = EDGE_CURVE ( 'NONE', #121, #170, #33, .T. ) ;
#62 = PRODUCT_DEFINITION ( 'UNKNOWN', '', #158, #64 ) ;
#63 = CLOSED_SHELL ( 'NONE', ( #68, #209, #143, #85, #32 ) ) ;
#64 = DESIGN_CONTEXT ( 'detailed design', #45, 'design' ) ;
#65 = CC_DESIGN_PERSON_AND_ORGANIZATION_ASSIGNMENT ( #34, #220, ( #158 ) ) ;
#66 = PERSON_AND_ORGANIZATION_ROLE ( 'creator' ) ;
#67 = CARTESIAN_POINT ( 'NONE',  ( 0.0000000000000000000, 0.0000000000000000000, -1.249999999999999300 ) ) ;
#68 = ADVANCED_FACE ( 'NONE', ( #36 ), #19, .T. ) ;
#69 = ORIENTED_EDGE ( 'NONE', *, *, #149, .T. ) ;
#70 = CIRCLE ( 'NONE', #9, 4.500000000000000900 ) ;
#71 = CYLINDRICAL_SURFACE ( 'NONE', #58, 4.500000000000000900 ) ;
#72 = APPROVAL_DATE_TIME ( #7, #98 ) ;
#73 = DIRECTION ( 'NONE',  ( 1.000000000000000000, 0.0000000000000000000, 0.0000000000000000000 ) ) ;
#74 = ORIENTED_EDGE ( 'NONE', *, *, #108, .F. ) ;
#75 = PRODUCT_DEFINITION_SHAPE ( 'NONE', 'NONE',  #62 ) ;
#76 = DIRECTION ( 'NONE',  ( 1.000000000000000000, 0.0000000000000000000, 0.0000000000000000000 ) ) ;
#77 = DIRECTION ( 'NONE',  ( -0.0000000000000000000, -0.0000000000000000000, 1.000000000000000000 ) ) ;
#78 = FACE_OUTER_BOUND ( 'NONE', #139, .T. ) ;
#79 = DIRECTION ( 'NONE',  ( 1.000000000000000000, 0.0000000000000000000, 0.0000000000000000000 ) ) ;
#80 = CARTESIAN_POINT ( 'NONE',  ( 0.0000000000000000000, 0.0000000000000000000, 15.26000000000000000 ) ) ;
#81 = ORGANIZATION ( 'UNSPECIFIED', 'UNSPECIFIED', '' ) ;
#82 = CARTESIAN_POINT ( 'NONE',  ( 0.0000000000000000000, 0.0000000000000000000, 1.992366450643882300 ) ) ;
#83 = DIRECTION ( 'NONE',  ( 0.0000000000000000000, 0.0000000000000000000, -1.000000000000000000 ) ) ;
#84 = DATE_AND_TIME ( #219, #208 ) ;
#85 = ADVANCED_FACE ( 'NONE', ( #133 ), #205, .F. ) ;
#86 = APPROVAL_PERSON_ORGANIZATION ( #221, #16, #124 ) ;
#87 = PERSON_AND_ORGANIZATION_ROLE ( 'design_supplier' ) ;
#88 = CARTESIAN_POINT ( 'NONE',  ( -4.500000000000000000, 5.510910596163088600E-016, -1.249999999999999300 ) ) ;
#89 = DIRECTION ( 'NONE',  ( -0.0000000000000000000, -0.0000000000000000000, 1.000000000000000000 ) ) ;
#90 = COORDINATED_UNIVERSAL_TIME_OFFSET ( 5, 0, .BEHIND. ) ;
#91 = CARTESIAN_POINT ( 'NONE',  ( -5.510910596163088600E-016, -4.500000000000000900, 1.992366450643882300 ) ) ;
#92 = DIRECTION ( 'NONE',  ( -0.0000000000000000000, -0.0000000000000000000, 1.000000000000000000 ) ) ;
#93 = CARTESIAN_POINT ( 'NONE',  ( 4.500000000000000000, 0.0000000000000000000, -1.249999999999999300 ) ) ;
#94 = CARTESIAN_POINT ( 'NONE',  ( 0.0000000000000000000, 0.0000000000000000000, 15.26000000000000000 ) ) ;
#95 = CALENDAR_DATE ( 2015, 24, 2 ) ;
#96 = CC_DESIGN_DATE_AND_TIME_ASSIGNMENT ( #200, #111, ( #194 ) ) ;
#97 = EDGE_CURVE ( 'NONE', #165, #126, #202, .T. ) ;
#98 = APPROVAL ( #191, 'UNSPECIFIED' ) ;
#99 = APPROVAL_STATUS ( 'not_yet_approved' ) ;
#100 = APPROVAL_ROLE ( '' ) ;
#101 = PERSON_AND_ORGANIZATION ( #203, #81 ) ;
#102 = DIRECTION ( 'NONE',  ( 1.000000000000000000, 0.0000000000000000000, 0.0000000000000000000 ) ) ;
#103 = DIRECTION ( 'NONE',  ( -1.000000000000000000, 0.0000000000000000000, 0.0000000000000000000 ) ) ;
#104 = DIRECTION ( 'NONE',  ( 0.0000000000000000000, 0.0000000000000000000, 1.000000000000000000 ) ) ;
#105 = UNCERTAINTY_MEASURE_WITH_UNIT (LENGTH_MEASURE( 1.000000000000000100E-005 ), #132, 'distance_accuracy_value', 'NONE');
#106 = ORIENTED_EDGE ( 'NONE', *, *, #196, .T. ) ;
#107 = CIRCLE ( 'NONE', #176, 4.500000000000000900 ) ;
#108 = EDGE_CURVE ( 'NONE', #25, #146, #107, .T. ) ;
#109 = DIRECTION ( 'NONE',  ( 1.000000000000000000, 0.0000000000000000000, 0.0000000000000000000 ) ) ;
#110 = ORIENTED_EDGE ( 'NONE', *, *, #175, .T. ) ;
#111 = DATE_TIME_ROLE ( 'classification_date' ) ;
#112 = APPROVAL_ROLE ( '' ) ;
#113 = CARTESIAN_POINT ( 'NONE',  ( 0.0000000000000000000, 4.592425496802574000E-016, -1.250000000000000000 ) ) ;
#114 = DIRECTION ( 'NONE',  ( -0.0000000000000000000, -0.0000000000000000000, 1.000000000000000000 ) ) ;
#115 = DIRECTION ( 'NONE',  ( -1.000000000000000000, 0.0000000000000000000, 0.0000000000000000000 ) ) ;
#116 = EDGE_CURVE ( 'NONE', #162, #121, #122, .T. ) ;
#117 = EDGE_CURVE ( 'NONE', #165, #146, #22, .T. ) ;
#118 = ORIENTED_EDGE ( 'NONE', *, *, #108, .T. ) ;
#119 = APPLICATION_CONTEXT ( 'configuration controlled 3d designs of mechanical parts and assemblies' ) ;
#120 = APPROVAL_DATE_TIME ( #84, #11 ) ;
#121 = VERTEX_POINT ( 'NONE', #88 ) ;
#122 = CIRCLE ( 'NONE', #184, 4.500000000000000000 ) ;
#123 = DATE_AND_TIME ( #95, #47 ) ;
#124 = APPROVAL_ROLE ( '' ) ;
#125 = ORIENTED_EDGE ( 'NONE', *, *, #39, .F. ) ;
#126 = VERTEX_POINT ( 'NONE', #91 ) ;
#127 = CC_DESIGN_PERSON_AND_ORGANIZATION_ASSIGNMENT ( #214, #66, ( #62 ) ) ;
#128 = DIRECTION ( 'NONE',  ( -0.0000000000000000000, -0.0000000000000000000, 1.000000000000000000 ) ) ;
#129 = EDGE_LOOP ( 'NONE', ( #148, #130 ) ) ;
#130 = ORIENTED_EDGE ( 'NONE', *, *, #196, .F. ) ;
#131 = APPLICATION_PROTOCOL_DEFINITION ( 'international standard', 'config_control_design', 1994, #119 ) ;
#132 =( LENGTH_UNIT ( ) NAMED_UNIT ( * ) SI_UNIT ( .MILLI., .METRE. ) );
#133 = FACE_OUTER_BOUND ( 'NONE', #129, .T. ) ;
#134 = ORIENTED_EDGE ( 'NONE', *, *, #149, .F. ) ;
#135 = DIRECTION ( 'NONE',  ( 0.0000000000000000000, 1.000000000000000000, 0.0000000000000000000 ) ) ;
#136 = AXIS2_PLACEMENT_3D ( 'NONE', #54, #56, #55 ) ;
#137 = APPROVAL_STATUS ( 'not_yet_approved' ) ;
#138 = CARTESIAN_POINT ( 'NONE',  ( 0.0000000000000000000, 0.0000000000000000000, 0.0000000000000000000 ) ) ;
#139 = EDGE_LOOP ( 'NONE', ( #172, #106, #69, #163, #125 ) ) ;
#140 = ORIENTED_EDGE ( 'NONE', *, *, #116, .T. ) ;
#141 = EDGE_CURVE ( 'NONE', #146, #170, #201, .T. ) ;
#142 = DIRECTION ( 'NONE',  ( 1.000000000000000000, 0.0000000000000000000, 0.0000000000000000000 ) ) ;
#143 = ADVANCED_FACE ( 'NONE', ( #189 ), #157, .F. ) ;
#144 = AXIS2_PLACEMENT_3D ( 'NONE', #113, #51, #53 ) ;
#145 = COORDINATED_UNIVERSAL_TIME_OFFSET ( 5, 0, .BEHIND. ) ;
#146 = VERTEX_POINT ( 'NONE', #31 ) ;
#147 = ORIENTED_EDGE ( 'NONE', *, *, #141, .T. ) ;
#148 = ORIENTED_EDGE ( 'NONE', *, *, #116, .F. ) ;
#149 = EDGE_CURVE ( 'NONE', #162, #25, #2, .T. ) ;
#150 = CARTESIAN_POINT ( 'NONE',  ( 4.500000000000000900, 0.0000000000000000000, 9.017153270429325600 ) ) ;
#151 = AXIS2_PLACEMENT_3D ( 'NONE', #206, #89, #164 ) ;
#152 = MANIFOLD_SOLID_BREP ( '5447-001-1-solid1', #63 ) ;
#153 = CALENDAR_DATE ( 2015, 24, 2 ) ;
#154 = EDGE_LOOP ( 'NONE', ( #140, #182, #159, #74, #134 ) ) ;
#155 = PERSON_AND_ORGANIZATION ( #203, #81 ) ;
#156 = PERSON_AND_ORGANIZATION ( #203, #81 ) ;
#157 = SPHERICAL_SURFACE ( 'NONE', #198, 14.01000000000000000 ) ;
#158 = PRODUCT_DEFINITION_FORMATION_WITH_SPECIFIED_SOURCE ( 'ANY', '', #15, .NOT_KNOWN. ) ;
#159 = ORIENTED_EDGE ( 'NONE', *, *, #141, .F. ) ;
#160 = DATE_TIME_ROLE ( 'creation_date' ) ;
#161 = LOCAL_TIME ( 11, 46, 31.00000000000000000, #177 ) ;
#162 = VERTEX_POINT ( 'NONE', #93 ) ;
#163 = ORIENTED_EDGE ( 'NONE', *, *, #175, .F. ) ;
#164 = DIRECTION ( 'NONE',  ( 1.000000000000000000, 0.0000000000000000000, 0.0000000000000000000 ) ) ;
#165 = VERTEX_POINT ( 'NONE', #40 ) ;
#166 = CARTESIAN_POINT ( 'NONE',  ( 0.0000000000000000000, 0.0000000000000000000, 15.26000000000000000 ) ) ;
#167 = AXIS2_PLACEMENT_3D ( 'NONE', #80, #79, #83 ) ;
#168 = APPROVAL_PERSON_ORGANIZATION ( #156, #98, #112 ) ;
#169 = ORIENTED_EDGE ( 'NONE', *, *, #97, .T. ) ;
#170 = VERTEX_POINT ( 'NONE', #43 ) ;
#171 = ADVANCED_BREP_SHAPE_REPRESENTATION ( '5447-E0W', ( #152, #49 ), #12 ) ;
#172 = ORIENTED_EDGE ( 'NONE', *, *, #61, .F. ) ;
#173 = AXIS2_PLACEMENT_3D ( 'NONE', #30, #44, #50 ) ;
#174 = SHAPE_DEFINITION_REPRESENTATION ( #75, #171 ) ;
#175 = EDGE_CURVE ( 'NONE', #126, #25, #213, .T. ) ;
#176 = AXIS2_PLACEMENT_3D ( 'NONE', #57, #60, #73 ) ;
#177 = COORDINATED_UNIVERSAL_TIME_OFFSET ( 5, 0, .BEHIND. ) ;
#178 = MECHANICAL_CONTEXT ( 'NONE', #119, 'mechanical' ) ;
#179 = ORIENTED_EDGE ( 'NONE', *, *, #117, .F. ) ;
#180 = ORIENTED_EDGE ( 'NONE', *, *, #117, .T. ) ;
#181 = DATE_AND_TIME ( #153, #188 ) ;
#182 = ORIENTED_EDGE ( 'NONE', *, *, #61, .T. ) ;
#183 = CIRCLE ( 'NONE', #13, 4.500000000000000000 ) ;
#184 = AXIS2_PLACEMENT_3D ( 'NONE', #67, #77, #76 ) ;
#185 = CALENDAR_DATE ( 2015, 24, 2 ) ;
#186 = CC_DESIGN_DATE_AND_TIME_ASSIGNMENT ( #181, #160, ( #62 ) ) ;
#187 = CC_DESIGN_APPROVAL ( #16, ( #62 ) ) ;
#188 = LOCAL_TIME ( 11, 46, 31.00000000000000000, #145 ) ;
#189 = FACE_OUTER_BOUND ( 'NONE', #4, .T. ) ;
#190 = CC_DESIGN_APPROVAL ( #98, ( #158 ) ) ;
#191 = APPROVAL_STATUS ( 'not_yet_approved' ) ;
#192 = APPLICATION_PROTOCOL_DEFINITION ( 'international standard', 'config_control_design', 1994, #45 ) ;
#193 = AXIS2_PLACEMENT_3D ( 'NONE', #82, #92, #102 ) ;
#194 = SECURITY_CLASSIFICATION ( '', '', #59 ) ;
#195 = ORIENTED_EDGE ( 'NONE', *, *, #97, .F. ) ;
#196 = EDGE_CURVE ( 'NONE', #121, #162, #183, .T. ) ;
#197 = CC_DESIGN_PERSON_AND_ORGANIZATION_ASSIGNMENT ( #155, #87, ( #158 ) ) ;
#198 = AXIS2_PLACEMENT_3D ( 'NONE', #94, #103, #217 ) ;
#199 = COORDINATED_UNIVERSAL_TIME_OFFSET ( 5, 0, .BEHIND. ) ;
#200 = DATE_AND_TIME ( #204, #26 ) ;
#201 = CIRCLE ( 'NONE', #193, 4.500000000000000900 ) ;
#202 = CIRCLE ( 'NONE', #136, 14.01000000000000000 ) ;
#203 = PERSON ( 'UNSPECIFIED', 'UNSPECIFIED', 'UNSPECIFIED', ('UNSPECIFIED'), ('UNSPECIFIED'), ('UNSPECIFIED') ) ;
#204 = CALENDAR_DATE ( 2015, 24, 2 ) ;
#205 = PLANE ( 'NONE',  #144 ) ;
#206 = CARTESIAN_POINT ( 'NONE',  ( 0.0000000000000000000, 0.0000000000000000000, 1.992366450643882300 ) ) ;
#207 = APPROVAL_PERSON_ORGANIZATION ( #212, #11, #100 ) ;
#208 = LOCAL_TIME ( 11, 46, 31.00000000000000000, #211 ) ;
#209 = ADVANCED_FACE ( 'NONE', ( #210 ), #3, .F. ) ;
#210 = FACE_OUTER_BOUND ( 'NONE', #1, .T. ) ;
#211 = COORDINATED_UNIVERSAL_TIME_OFFSET ( 5, 0, .BEHIND. ) ;
#212 = PERSON_AND_ORGANIZATION ( #203, #81 ) ;
#213 = CIRCLE ( 'NONE', #151, 4.500000000000000900 ) ;
#214 = PERSON_AND_ORGANIZATION ( #203, #81 ) ;
#215 = CC_DESIGN_PERSON_AND_ORGANIZATION_ASSIGNMENT ( #101, #41, ( #194 ) ) ;
#216 = PERSON_AND_ORGANIZATION_ROLE ( 'design_owner' ) ;
#217 = DIRECTION ( 'NONE',  ( 0.0000000000000000000, 1.000000000000000000, 0.0000000000000000000 ) ) ;
#218 = VECTOR ( 'NONE', #128, 1000.000000000000000 ) ;
#219 = CALENDAR_DATE ( 2015, 24, 2 ) ;
#220 = PERSON_AND_ORGANIZATION_ROLE ( 'creator' ) ;
#221 = PERSON_AND_ORGANIZATION ( #203, #81 ) ;
ENDSEC;
END-ISO-10303-21;
