ISO-10303-21;
HEADER;
FILE_DESCRIPTION (( 'STEP AP203' ),
    '1' );
FILE_NAME ('Web Model 38912_38999.step',
    '2018-10-18T19:50:10',
    ( '' ),
    ( '' ),
    'SwSTEP 2.0',
    'SolidWorks 2016',
    '' );
FILE_SCHEMA (( 'CONFIG_CONTROL_DESIGN' ));
ENDSEC;

DATA;
#1 = CARTESIAN_POINT ( 'NONE',  ( 0.0000000000000000000, 0.0000000000000000000, -3.174999999999999800 ) ) ;
#2 = COORDINATED_UNIVERSAL_TIME_OFFSET ( 5, 0, .BEHIND. ) ;
#3 = VERTEX_POINT ( 'NONE', #144 ) ;
#4 = PERSON_AND_ORGANIZATION ( #120, #34 ) ;
#5 = APPROVAL_STATUS ( 'not_yet_approved' ) ;
#6 = APPLICATION_PROTOCOL_DEFINITION ( 'international standard', 'config_control_design', 1994, #148 ) ;
#7 = APPROVAL_DATE_TIME ( #36, #15 ) ;
#8 = ORIENTED_EDGE ( 'NONE', *, *, #104, .T. ) ;
#9 = AXIS2_PLACEMENT_3D ( 'NONE', #68, #174, #40 ) ;
#10 = DIRECTION ( 'NONE',  ( 1.000000000000000000, 0.0000000000000000000, 0.0000000000000000000 ) ) ;
#11 = VERTEX_POINT ( 'NONE', #170 ) ;
#12 = ORIENTED_EDGE ( 'NONE', *, *, #134, .F. ) ;
#13 = AXIS2_PLACEMENT_3D ( 'NONE', #119, #32, #162 ) ;
#14 = DIRECTION ( 'NONE',  ( 0.0000000000000000000, 0.0000000000000000000, 1.000000000000000000 ) ) ;
#15 = APPROVAL ( #5, 'UNSPECIFIED' ) ;
#16 = PERSON_AND_ORGANIZATION_ROLE ( 'classification_officer' ) ;
#17 = ADVANCED_FACE ( 'NONE', ( #136 ), #67, .T. ) ;
#18 = APPROVAL_STATUS ( 'not_yet_approved' ) ;
#19 = DATE_TIME_ROLE ( 'classification_date' ) ;
#20 = AXIS2_PLACEMENT_3D ( 'NONE', #1, #147, #156 ) ;
#21 = CALENDAR_DATE ( 2018, 18, 10 ) ;
#22 = AXIS2_PLACEMENT_3D ( 'NONE', #163, #149, #137 ) ;
#23 = CIRCLE ( 'NONE', #20, 19.05000000000000100 ) ;
#24 = APPROVAL_ROLE ( '' ) ;
#25 = FACE_OUTER_BOUND ( 'NONE', #55, .T. ) ;
#26 = AXIS2_PLACEMENT_3D ( 'NONE', #117, #154, #167 ) ;
#27 = ADVANCED_FACE ( 'NONE', ( #111 ), #87, .F. ) ;
#28 = EDGE_LOOP ( 'NONE', ( #12, #105 ) ) ;
#29 = SECURITY_CLASSIFICATION ( '', '', #80 ) ;
#30 = CALENDAR_DATE ( 2018, 18, 10 ) ;
#31 = EDGE_LOOP ( 'NONE', ( #61, #90 ) ) ;
#32 = DIRECTION ( 'NONE',  ( 0.0000000000000000000, 0.0000000000000000000, 1.000000000000000000 ) ) ;
#33 = PRODUCT_DEFINITION ( 'UNKNOWN', '', #65, #123 ) ;
#34 = ORGANIZATION ( 'UNSPECIFIED', 'UNSPECIFIED', '' ) ;
#35 = APPROVAL_PERSON_ORGANIZATION ( #79, #116, #101 ) ;
#36 = DATE_AND_TIME ( #118, #97 ) ;
#37 = CARTESIAN_POINT ( 'NONE',  ( 19.05000000000000100, 2.332952152375708000E-015, 3.174999999999999800 ) ) ;
#38 = AXIS2_PLACEMENT_3D ( 'NONE', #72, #73, #59 ) ;
#39 = PERSON_AND_ORGANIZATION_ROLE ( 'design_supplier' ) ;
#40 = DIRECTION ( 'NONE',  ( -1.000000000000000000, 0.0000000000000000000, 0.0000000000000000000 ) ) ;
#41 = PERSON_AND_ORGANIZATION ( #120, #34 ) ;
#42 = CC_DESIGN_DATE_AND_TIME_ASSIGNMENT ( #153, #19, ( #29 ) ) ;
#43 = DIRECTION ( 'NONE',  ( -0.0000000000000000000, -0.0000000000000000000, -1.000000000000000000 ) ) ;
#44 = CARTESIAN_POINT ( 'NONE',  ( -19.05000000000000100, 0.0000000000000000000, 3.174999999999999800 ) ) ;
#45 = PERSON_AND_ORGANIZATION ( #120, #34 ) ;
#46 = AXIS2_PLACEMENT_3D ( 'NONE', #126, #14, #141 ) ;
#47 = DATE_AND_TIME ( #30, #127 ) ;
#48 = CC_DESIGN_DATE_AND_TIME_ASSIGNMENT ( #114, #112, ( #33 ) ) ;
#49 = PERSON_AND_ORGANIZATION ( #120, #34 ) ;
#50 = APPROVAL ( #113, 'UNSPECIFIED' ) ;
#51 = CIRCLE ( 'NONE', #46, 19.05000000000000100 ) ;
#52 = PRODUCT ( 'Web Model 38912_38999', 'Web Model 38912_38999', '', ( #64 ) ) ;
#53 = CARTESIAN_POINT ( 'NONE',  ( 0.0000000000000000000, 0.0000000000000000000, 3.174999999999999800 ) ) ;
#54 = APPROVAL_DATE_TIME ( #151, #50 ) ;
#55 = EDGE_LOOP ( 'NONE', ( #158, #8, #85, #165 ) ) ;
#56 = CC_DESIGN_PERSON_AND_ORGANIZATION_ASSIGNMENT ( #45, #161, ( #33 ) ) ;
#57 = PRODUCT_DEFINITION_SHAPE ( 'NONE', 'NONE',  #33 ) ;
#58 = SHAPE_DEFINITION_REPRESENTATION ( #57, #84 ) ;
#59 = DIRECTION ( 'NONE',  ( 1.000000000000000000, 0.0000000000000000000, 0.0000000000000000000 ) ) ;
#60 = COORDINATED_UNIVERSAL_TIME_OFFSET ( 5, 0, .BEHIND. ) ;
#61 = ORIENTED_EDGE ( 'NONE', *, *, #102, .T. ) ;
#62 = CC_DESIGN_APPROVAL ( #50, ( #29 ) ) ;
#63 =( NAMED_UNIT ( * ) PLANE_ANGLE_UNIT ( ) SI_UNIT ( $, .RADIAN. ) );
#64 = MECHANICAL_CONTEXT ( 'NONE', #150, 'mechanical' ) ;
#65 = PRODUCT_DEFINITION_FORMATION_WITH_SPECIFIED_SOURCE ( 'ANY', '', #52, .NOT_KNOWN. ) ;
#66 = DIRECTION ( 'NONE',  ( 1.000000000000000000, 0.0000000000000000000, -0.0000000000000000000 ) ) ;
#67 = PLANE ( 'NONE',  #173 ) ;
#68 = CARTESIAN_POINT ( 'NONE',  ( 0.0000000000000000000, 0.0000000000000000000, 3.174999999999999800 ) ) ;
#69 = PERSON_AND_ORGANIZATION ( #120, #34 ) ;
#70 = LINE ( 'NONE', #146, #94 ) ;
#71 = CC_DESIGN_SECURITY_CLASSIFICATION ( #29, ( #65 ) ) ;
#72 = CARTESIAN_POINT ( 'NONE',  ( 0.0000000000000000000, 0.0000000000000000000, 3.174999999999999800 ) ) ;
#73 = DIRECTION ( 'NONE',  ( 0.0000000000000000000, 0.0000000000000000000, 1.000000000000000000 ) ) ;
#74 = APPROVAL_PERSON_ORGANIZATION ( #69, #15, #164 ) ;
#75 = CC_DESIGN_APPROVAL ( #116, ( #65 ) ) ;
#76 = ORIENTED_EDGE ( 'NONE', *, *, #104, .F. ) ;
#77 =( GEOMETRIC_REPRESENTATION_CONTEXT ( 3 ) GLOBAL_UNCERTAINTY_ASSIGNED_CONTEXT ( ( #166 ) ) GLOBAL_UNIT_ASSIGNED_CONTEXT ( ( #83, #63, #125 ) ) REPRESENTATION_CONTEXT ( 'NONE', 'WORKASPACE' ) );
#78 = PERSON_AND_ORGANIZATION_ROLE ( 'design_owner' ) ;
#79 = PERSON_AND_ORGANIZATION ( #120, #34 ) ;
#80 = SECURITY_CLASSIFICATION_LEVEL ( 'unclassified' ) ;
#81 = PERSON_AND_ORGANIZATION_ROLE ( 'creator' ) ;
#82 = ADVANCED_FACE ( 'NONE', ( #109 ), #175, .T. ) ;
#83 =( LENGTH_UNIT ( ) NAMED_UNIT ( * ) SI_UNIT ( .MILLI., .METRE. ) );
#84 = ADVANCED_BREP_SHAPE_REPRESENTATION ( 'Web Model 38912_38999', ( #96, #22 ), #77 ) ;
#85 = ORIENTED_EDGE ( 'NONE', *, *, #142, .T. ) ;
#86 = AXIS2_PLACEMENT_3D ( 'NONE', #53, #88, #10 ) ;
#87 = PLANE ( 'NONE',  #13 ) ;
#88 = DIRECTION ( 'NONE',  ( 0.0000000000000000000, 0.0000000000000000000, 1.000000000000000000 ) ) ;
#89 = LOCAL_TIME ( 15, 50, 10.00000000000000000, #60 ) ;
#90 = ORIENTED_EDGE ( 'NONE', *, *, #130, .T. ) ;
#91 = COORDINATED_UNIVERSAL_TIME_OFFSET ( 5, 0, .BEHIND. ) ;
#92 = CC_DESIGN_APPROVAL ( #15, ( #33 ) ) ;
#93 = APPROVAL_DATE_TIME ( #47, #116 ) ;
#94 = VECTOR ( 'NONE', #132, 1000.000000000000000 ) ;
#95 = PRODUCT_RELATED_PRODUCT_CATEGORY ( 'detail', '', ( #52 ) ) ;
#96 = MANIFOLD_SOLID_BREP ( 'Boss-Extrude1', #140 ) ;
#97 = LOCAL_TIME ( 15, 50, 10.00000000000000000, #2 ) ;
#98 = ORIENTED_EDGE ( 'NONE', *, *, #135, .T. ) ;
#99 = ADVANCED_FACE ( 'NONE', ( #25 ), #133, .T. ) ;
#100 = CC_DESIGN_PERSON_AND_ORGANIZATION_ASSIGNMENT ( #171, #81, ( #65 ) ) ;
#101 = APPROVAL_ROLE ( '' ) ;
#102 = EDGE_CURVE ( 'NONE', #172, #143, #152, .T. ) ;
#103 = CIRCLE ( 'NONE', #38, 19.05000000000000100 ) ;
#104 = EDGE_CURVE ( 'NONE', #143, #3, #168, .T. ) ;
#105 = ORIENTED_EDGE ( 'NONE', *, *, #142, .F. ) ;
#106 = CARTESIAN_POINT ( 'NONE',  ( 19.05000000000000100, 2.332952152375708000E-015, 3.174999999999999800 ) ) ;
#107 = EDGE_LOOP ( 'NONE', ( #76, #115, #98, #128 ) ) ;
#108 = LOCAL_TIME ( 15, 50, 10.00000000000000000, #124 ) ;
#109 = FACE_OUTER_BOUND ( 'NONE', #107, .T. ) ;
#110 = APPLICATION_PROTOCOL_DEFINITION ( 'international standard', 'config_control_design', 1994, #150 ) ;
#111 = FACE_OUTER_BOUND ( 'NONE', #28, .T. ) ;
#112 = DATE_TIME_ROLE ( 'creation_date' ) ;
#113 = APPROVAL_STATUS ( 'not_yet_approved' ) ;
#114 = DATE_AND_TIME ( #131, #89 ) ;
#115 = ORIENTED_EDGE ( 'NONE', *, *, #102, .F. ) ;
#116 = APPROVAL ( #18, 'UNSPECIFIED' ) ;
#117 = CARTESIAN_POINT ( 'NONE',  ( 0.0000000000000000000, 0.0000000000000000000, 3.174999999999999800 ) ) ;
#118 = CALENDAR_DATE ( 2018, 18, 10 ) ;
#119 = CARTESIAN_POINT ( 'NONE',  ( 0.0000000000000000000, 0.0000000000000000000, -3.174999999999999800 ) ) ;
#120 = PERSON ( 'UNSPECIFIED', 'UNSPECIFIED', 'UNSPECIFIED', ('UNSPECIFIED'), ('UNSPECIFIED'), ('UNSPECIFIED') ) ;
#121 = APPROVAL_PERSON_ORGANIZATION ( #129, #50, #24 ) ;
#122 = CC_DESIGN_PERSON_AND_ORGANIZATION_ASSIGNMENT ( #49, #39, ( #65 ) ) ;
#123 = DESIGN_CONTEXT ( 'detailed design', #148, 'design' ) ;
#124 = COORDINATED_UNIVERSAL_TIME_OFFSET ( 5, 0, .BEHIND. ) ;
#125 =( NAMED_UNIT ( * ) SI_UNIT ( $, .STERADIAN. ) SOLID_ANGLE_UNIT ( ) );
#126 = CARTESIAN_POINT ( 'NONE',  ( 0.0000000000000000000, 0.0000000000000000000, -3.174999999999999800 ) ) ;
#127 = LOCAL_TIME ( 15, 50, 10.00000000000000000, #145 ) ;
#128 = ORIENTED_EDGE ( 'NONE', *, *, #134, .T. ) ;
#129 = PERSON_AND_ORGANIZATION ( #120, #34 ) ;
#130 = EDGE_CURVE ( 'NONE', #143, #172, #103, .T. ) ;
#131 = CALENDAR_DATE ( 2018, 18, 10 ) ;
#132 = DIRECTION ( 'NONE',  ( -0.0000000000000000000, -0.0000000000000000000, -1.000000000000000000 ) ) ;
#133 = CYLINDRICAL_SURFACE ( 'NONE', #9, 19.05000000000000100 ) ;
#134 = EDGE_CURVE ( 'NONE', #11, #3, #23, .T. ) ;
#135 = EDGE_CURVE ( 'NONE', #172, #11, #70, .T. ) ;
#136 = FACE_OUTER_BOUND ( 'NONE', #31, .T. ) ;
#137 = DIRECTION ( 'NONE',  ( 1.000000000000000000, 0.0000000000000000000, 0.0000000000000000000 ) ) ;
#138 = CC_DESIGN_PERSON_AND_ORGANIZATION_ASSIGNMENT ( #4, #78, ( #52 ) ) ;
#139 = CALENDAR_DATE ( 2018, 18, 10 ) ;
#140 = CLOSED_SHELL ( 'NONE', ( #99, #82, #17, #27 ) ) ;
#141 = DIRECTION ( 'NONE',  ( 1.000000000000000000, 0.0000000000000000000, 0.0000000000000000000 ) ) ;
#142 = EDGE_CURVE ( 'NONE', #3, #11, #51, .T. ) ;
#143 = VERTEX_POINT ( 'NONE', #37 ) ;
#144 = CARTESIAN_POINT ( 'NONE',  ( 19.05000000000000100, 2.332952152375708000E-015, -3.174999999999999800 ) ) ;
#145 = COORDINATED_UNIVERSAL_TIME_OFFSET ( 5, 0, .BEHIND. ) ;
#146 = CARTESIAN_POINT ( 'NONE',  ( -19.05000000000000100, 0.0000000000000000000, 3.174999999999999800 ) ) ;
#147 = DIRECTION ( 'NONE',  ( 0.0000000000000000000, 0.0000000000000000000, 1.000000000000000000 ) ) ;
#148 = APPLICATION_CONTEXT ( 'configuration controlled 3d designs of mechanical parts and assemblies' ) ;
#149 = DIRECTION ( 'NONE',  ( 0.0000000000000000000, 0.0000000000000000000, 1.000000000000000000 ) ) ;
#150 = APPLICATION_CONTEXT ( 'configuration controlled 3d designs of mechanical parts and assemblies' ) ;
#151 = DATE_AND_TIME ( #139, #157 ) ;
#152 = CIRCLE ( 'NONE', #86, 19.05000000000000100 ) ;
#153 = DATE_AND_TIME ( #21, #108 ) ;
#154 = DIRECTION ( 'NONE',  ( -0.0000000000000000000, -0.0000000000000000000, -1.000000000000000000 ) ) ;
#155 = DIRECTION ( 'NONE',  ( 0.0000000000000000000, 0.0000000000000000000, 1.000000000000000000 ) ) ;
#156 = DIRECTION ( 'NONE',  ( 1.000000000000000000, 0.0000000000000000000, 0.0000000000000000000 ) ) ;
#157 = LOCAL_TIME ( 15, 50, 10.00000000000000000, #91 ) ;
#158 = ORIENTED_EDGE ( 'NONE', *, *, #130, .F. ) ;
#159 = VECTOR ( 'NONE', #43, 1000.000000000000000 ) ;
#160 = CC_DESIGN_PERSON_AND_ORGANIZATION_ASSIGNMENT ( #41, #16, ( #29 ) ) ;
#161 = PERSON_AND_ORGANIZATION_ROLE ( 'creator' ) ;
#162 = DIRECTION ( 'NONE',  ( 1.000000000000000000, 0.0000000000000000000, -0.0000000000000000000 ) ) ;
#163 = CARTESIAN_POINT ( 'NONE',  ( 0.0000000000000000000, 0.0000000000000000000, 0.0000000000000000000 ) ) ;
#164 = APPROVAL_ROLE ( '' ) ;
#165 = ORIENTED_EDGE ( 'NONE', *, *, #135, .F. ) ;
#166 = UNCERTAINTY_MEASURE_WITH_UNIT (LENGTH_MEASURE( 1.000000000000000100E-005 ), #83, 'distance_accuracy_value', 'NONE');
#167 = DIRECTION ( 'NONE',  ( -1.000000000000000000, 0.0000000000000000000, 0.0000000000000000000 ) ) ;
#168 = LINE ( 'NONE', #106, #159 ) ;
#169 = CARTESIAN_POINT ( 'NONE',  ( 0.0000000000000000000, 0.0000000000000000000, 3.174999999999999800 ) ) ;
#170 = CARTESIAN_POINT ( 'NONE',  ( -19.05000000000000100, 0.0000000000000000000, -3.174999999999999800 ) ) ;
#171 = PERSON_AND_ORGANIZATION ( #120, #34 ) ;
#172 = VERTEX_POINT ( 'NONE', #44 ) ;
#173 = AXIS2_PLACEMENT_3D ( 'NONE', #169, #155, #66 ) ;
#174 = DIRECTION ( 'NONE',  ( -0.0000000000000000000, -0.0000000000000000000, -1.000000000000000000 ) ) ;
#175 = CYLINDRICAL_SURFACE ( 'NONE', #26, 19.05000000000000100 ) ;
ENDSEC;
END-ISO-10303-21;
