ISO-10303-21;
HEADER;
FILE_DESCRIPTION (( 'STEP AP203' ),
    '1' );
FILE_NAME ('4267-E0W.STEP',
    '2015-05-29T14:18:24',
    ( 'admin' ),
    ( '' ),
    'SwSTEP 2.0',
    'SolidWorks 2014',
    '' );
FILE_SCHEMA (( 'CONFIG_CONTROL_DESIGN' ));
ENDSEC;

DATA;
#1 = CIRCLE ( 'NONE', #130, 2.499999999999999600 ) ;
#2 = EDGE_LOOP ( 'NONE', ( #161, #179, #288, #143 ) ) ;
#3 =( NAMED_UNIT ( * ) PLANE_ANGLE_UNIT ( ) SI_UNIT ( $, .RADIAN. ) );
#4 = AXIS2_PLACEMENT_3D ( 'NONE', #162, #110, #16 ) ;
#5 = CARTESIAN_POINT ( 'NONE',  ( 0.1500000000000006600, -2.499999999999999600, 0.0000000000000000000 ) ) ;
#6 = CARTESIAN_POINT ( 'NONE',  ( -1.100000000000000500, 8.690218438090904000E-033, 0.0000000000000000000 ) ) ;
#7 = ORIENTED_EDGE ( 'NONE', *, *, #275, .T. ) ;
#8 = DIRECTION ( 'NONE',  ( -6.505213034913027800E-017, -1.000000000000000000, 0.0000000000000000000 ) ) ;
#9 = DIRECTION ( 'NONE',  ( -6.505213034913027800E-017, -1.000000000000000000, 0.0000000000000000000 ) ) ;
#10 = SECURITY_CLASSIFICATION_LEVEL ( 'unclassified' ) ;
#11 = EDGE_CURVE ( 'NONE', #260, #215, #206, .T. ) ;
#12 = VECTOR ( 'NONE', #298, 1000.000000000000200 ) ;
#13 = APPLICATION_CONTEXT ( 'configuration controlled 3d designs of mechanical parts and assemblies' ) ;
#14 = EDGE_CURVE ( 'NONE', #215, #86, #243, .T. ) ;
#15 = VERTEX_POINT ( 'NONE', #300 ) ;
#16 = DIRECTION ( 'NONE',  ( -1.000000000000000000, 0.0000000000000000000, 0.0000000000000000000 ) ) ;
#17 = ADVANCED_FACE ( 'NONE', ( #250 ), #202, .T. ) ;
#18 = ORIENTED_EDGE ( 'NONE', *, *, #211, .T. ) ;
#19 = APPROVAL_STATUS ( 'not_yet_approved' ) ;
#20 = CIRCLE ( 'NONE', #234, 2.499999999999999600 ) ;
#21 = TOROIDAL_SURFACE ( 'NONE', #135, 0.06010997191683668800, 4.599999999999998800 ) ;
#22 = CARTESIAN_POINT ( 'NONE',  ( -1.100000000000000500, 5.142987832943087400E-049, 0.0000000000000000000 ) ) ;
#23 = EDGE_CURVE ( 'NONE', #215, #15, #32, .T. ) ;
#24 = AXIS2_PLACEMENT_3D ( 'NONE', #240, #93, #287 ) ;
#25 = LINE ( 'NONE', #158, #163 ) ;
#26 = DIRECTION ( 'NONE',  ( -1.000000000000000000, 6.160239616394908500E-017, -0.0000000000000000000 ) ) ;
#27 = DIRECTION ( 'NONE',  ( -1.000000000000000000, 6.160239616394908500E-017, -0.0000000000000000000 ) ) ;
#28 = DIRECTION ( 'NONE',  ( -4.725700692775096200E-017, -1.000000000000000000, 0.0000000000000000000 ) ) ;
#29 = EDGE_CURVE ( 'NONE', #171, #260, #289, .T. ) ;
#30 = AXIS2_PLACEMENT_3D ( 'NONE', #264, #115, #28 ) ;
#31 = ADVANCED_FACE ( 'NONE', ( #174 ), #21, .T. ) ;
#32 = LINE ( 'NONE', #261, #77 ) ;
#33 = DIRECTION ( 'NONE',  ( -1.000000000000000000, 6.160239616394912200E-017, -0.0000000000000000000 ) ) ;
#34 = COORDINATED_UNIVERSAL_TIME_OFFSET ( 5, 0, .BEHIND. ) ;
#35 = SHAPE_DEFINITION_REPRESENTATION ( #290, #230 ) ;
#36 = CARTESIAN_POINT ( 'NONE',  ( -0.8500000000000014200, 2.499999999999999600, 3.061616997868382600E-016 ) ) ;
#37 = DIRECTION ( 'NONE',  ( -1.000000000000000000, 6.160239616394912200E-017, -0.0000000000000000000 ) ) ;
#38 = DIRECTION ( 'NONE',  ( 1.000000000000000000, -6.160239616394908500E-017, 0.0000000000000000000 ) ) ;
#39 = EDGE_LOOP ( 'NONE', ( #238, #114 ) ) ;
#40 = APPROVAL_STATUS ( 'not_yet_approved' ) ;
#41 = VECTOR ( 'NONE', #248, 1000.000000000000200 ) ;
#42 = ORIENTED_EDGE ( 'NONE', *, *, #165, .T. ) ;
#43 = CC_DESIGN_SECURITY_CLASSIFICATION ( #253, ( #170 ) ) ;
#44 = CIRCLE ( 'NONE', #299, 4.599999999999998800 ) ;
#45 = EDGE_LOOP ( 'NONE', ( #228, #18, #129, #71 ) ) ;
#46 = AXIS2_PLACEMENT_3D ( 'NONE', #60, #204, #8 ) ;
#47 = CC_DESIGN_DATE_AND_TIME_ASSIGNMENT ( #205, #83, ( #164 ) ) ;
#48 = PERSON_AND_ORGANIZATION_ROLE ( 'creator' ) ;
#49 = ADVANCED_FACE ( 'NONE', ( #51 ), #155, .T. ) ;
#50 = DIRECTION ( 'NONE',  ( -1.000000000000000000, 6.160239616394912200E-017, -0.0000000000000000000 ) ) ;
#51 = FACE_OUTER_BOUND ( 'NONE', #269, .T. ) ;
#52 = CARTESIAN_POINT ( 'NONE',  ( -3.499607243154152900, 1.490777987167568600E-016, 0.0000000000000000000 ) ) ;
#53 = DESIGN_CONTEXT ( 'detailed design', #13, 'design' ) ;
#54 = FACE_OUTER_BOUND ( 'NONE', #160, .T. ) ;
#55 =( NAMED_UNIT ( * ) SI_UNIT ( $, .STERADIAN. ) SOLID_ANGLE_UNIT ( ) );
#56 = DIRECTION ( 'NONE',  ( -8.673617379884036700E-017, -1.000000000000000000, 0.0000000000000000000 ) ) ;
#57 = COORDINATED_UNIVERSAL_TIME_OFFSET ( 5, 0, .BEHIND. ) ;
#58 = FACE_OUTER_BOUND ( 'NONE', #45, .T. ) ;
#59 = DIRECTION ( 'NONE',  ( -1.000000000000000000, 6.160239616394908500E-017, -0.0000000000000000000 ) ) ;
#60 = CARTESIAN_POINT ( 'NONE',  ( 0.1500000000000008300, -7.700299520493644600E-017, 0.0000000000000000000 ) ) ;
#61 = APPROVAL_STATUS ( 'not_yet_approved' ) ;
#62 = LINE ( 'NONE', #84, #147 ) ;
#63 = EDGE_CURVE ( 'NONE', #237, #171, #44, .T. ) ;
#64 = CYLINDRICAL_SURFACE ( 'NONE', #185, 2.499999999999999600 ) ;
#65 = ORIENTED_EDGE ( 'NONE', *, *, #23, .F. ) ;
#66 = EDGE_CURVE ( 'NONE', #251, #109, #198, .T. ) ;
#67 = PERSON_AND_ORGANIZATION ( #244, #169 ) ;
#68 = ADVANCED_FACE ( 'NONE', ( #273 ), #168, .T. ) ;
#69 = CONICAL_SURFACE ( 'NONE', #106, 2.250000000000001300, 0.7853981633974473900 ) ;
#70 = LOCAL_TIME ( 10, 18, 24.00000000000000000, #188 ) ;
#71 = ORIENTED_EDGE ( 'NONE', *, *, #11, .F. ) ;
#72 = APPLICATION_PROTOCOL_DEFINITION ( 'international standard', 'config_control_design', 1994, #141 ) ;
#73 = DIRECTION ( 'NONE',  ( -6.160239616394908500E-017, -1.000000000000000000, 0.0000000000000000000 ) ) ;
#74 = AXIS2_PLACEMENT_3D ( 'NONE', #256, #293, #133 ) ;
#75 = DIRECTION ( 'NONE',  ( -1.000000000000000000, 6.160239616394908500E-017, -0.0000000000000000000 ) ) ;
#76 = AXIS2_PLACEMENT_3D ( 'NONE', #151, #37, #245 ) ;
#77 = VECTOR ( 'NONE', #27, 1000.000000000000000 ) ;
#78 = LOCAL_TIME ( 10, 18, 24.00000000000000000, #249 ) ;
#79 = EDGE_LOOP ( 'NONE', ( #286, #255, #220, #295 ) ) ;
#80 = ORIENTED_EDGE ( 'NONE', *, *, #176, .F. ) ;
#81 = CARTESIAN_POINT ( 'NONE',  ( -3.499607243154152900, 1.490777987167568600E-016, 0.0000000000000000000 ) ) ;
#82 = APPROVAL_DATE_TIME ( #281, #94 ) ;
#83 = DATE_TIME_ROLE ( 'creation_date' ) ;
#84 = CARTESIAN_POINT ( 'NONE',  ( -1.100000000000000300, 2.250000000000001300, 0.0000000000000000000 ) ) ;
#85 = FACE_OUTER_BOUND ( 'NONE', #79, .T. ) ;
#86 = VERTEX_POINT ( 'NONE', #148 ) ;
#87 = CARTESIAN_POINT ( 'NONE',  ( -1.100000000000000500, 0.0000000000000000000, 0.0000000000000000000 ) ) ;
#88 = APPROVAL_ROLE ( '' ) ;
#89 = AXIS2_PLACEMENT_3D ( 'NONE', #219, #210, #137 ) ;
#90 = LOCAL_TIME ( 10, 18, 24.00000000000000000, #34 ) ;
#91 = LINE ( 'NONE', #108, #12 ) ;
#92 = AXIS2_PLACEMENT_3D ( 'NONE', #258, #75, #118 ) ;
#93 = DIRECTION ( 'NONE',  ( -1.000000000000000000, 6.160239616394908500E-017, -0.0000000000000000000 ) ) ;
#94 = APPROVAL ( #40, 'UNSPECIFIED' ) ;
#95 = PERSON_AND_ORGANIZATION ( #244, #169 ) ;
#96 = PERSON_AND_ORGANIZATION_ROLE ( 'creator' ) ;
#97 = ADVANCED_FACE ( 'NONE', ( #265 ), #150, .F. ) ;
#98 = ORIENTED_EDGE ( 'NONE', *, *, #209, .F. ) ;
#99 = DIRECTION ( 'NONE',  ( -1.000000000000000000, 6.160239616394908500E-017, -0.0000000000000000000 ) ) ;
#100 = DATE_AND_TIME ( #272, #78 ) ;
#101 = FACE_OUTER_BOUND ( 'NONE', #124, .T. ) ;
#102 = ORIENTED_EDGE ( 'NONE', *, *, #209, .T. ) ;
#103 = ORIENTED_EDGE ( 'NONE', *, *, #104, .T. ) ;
#104 = EDGE_CURVE ( 'NONE', #167, #15, #1, .T. ) ;
#105 = DIRECTION ( 'NONE',  ( 0.0000000000000000000, -1.000000000000000000, -1.224646799147353200E-016 ) ) ;
#106 = AXIS2_PLACEMENT_3D ( 'NONE', #22, #38, #297 ) ;
#107 = PERSON_AND_ORGANIZATION ( #244, #169 ) ;
#108 = CARTESIAN_POINT ( 'NONE',  ( 0.1500000000000009900, 2.499999999999999600, 3.061616997868382200E-016 ) ) ;
#109 = VERTEX_POINT ( 'NONE', #146 ) ;
#110 = DIRECTION ( 'NONE',  ( 0.0000000000000000000, -0.0000000000000000000, -1.000000000000000000 ) ) ;
#111 = APPROVAL_PERSON_ORGANIZATION ( #67, #94, #88 ) ;
#112 = AXIS2_PLACEMENT_3D ( 'NONE', #284, #282, #280 ) ;
#113 = CALENDAR_DATE ( 2015, 29, 5 ) ;
#114 = ORIENTED_EDGE ( 'NONE', *, *, #239, .T. ) ;
#115 = DIRECTION ( 'NONE',  ( 1.000000000000000000, -6.160239616394912200E-017, 0.0000000000000000000 ) ) ;
#116 = PERSON_AND_ORGANIZATION_ROLE ( 'design_owner' ) ;
#117 = DIRECTION ( 'NONE',  ( -1.000000000000000000, 6.160239616394908500E-017, -0.0000000000000000000 ) ) ;
#118 = DIRECTION ( 'NONE',  ( 9.637352644315589100E-017, 1.000000000000000000, 0.0000000000000000000 ) ) ;
#119 = MECHANICAL_CONTEXT ( 'NONE', #141, 'mechanical' ) ;
#120 = ORIENTED_EDGE ( 'NONE', *, *, #122, .T. ) ;
#121 = DIRECTION ( 'NONE',  ( 1.000000000000000000, -6.160239616394908500E-017, 0.0000000000000000000 ) ) ;
#122 = EDGE_CURVE ( 'NONE', #260, #171, #126, .T. ) ;
#123 = LINE ( 'NONE', #268, #285 ) ;
#124 = EDGE_LOOP ( 'NONE', ( #252, #301, #145, #80 ) ) ;
#125 = CARTESIAN_POINT ( 'NONE',  ( -3.499607243154152900, 0.06010997191683683400, 7.361348470479134400E-018 ) ) ;
#126 = CIRCLE ( 'NONE', #182, 2.294267544584638300 ) ;
#127 = CLOSED_SHELL ( 'NONE', ( #232, #149, #49, #68, #97, #200, #31, #17, #183 ) ) ;
#128 = CIRCLE ( 'NONE', #112, 2.499999999999999600 ) ;
#129 = ORIENTED_EDGE ( 'NONE', *, *, #14, .F. ) ;
#130 = AXIS2_PLACEMENT_3D ( 'NONE', #231, #172, #214 ) ;
#131 = CARTESIAN_POINT ( 'NONE',  ( 0.5214050597978159300, -2.294267544584639700, 0.0000000000000000000 ) ) ;
#132 = PRODUCT ( '4267-E0W', '4267-E0W', '', ( #119 ) ) ;
#133 = DIRECTION ( 'NONE',  ( 1.000000000000000000, 0.0000000000000000000, 0.0000000000000000000 ) ) ;
#134 = CC_DESIGN_PERSON_AND_ORGANIZATION_ASSIGNMENT ( #189, #116, ( #132 ) ) ;
#135 = AXIS2_PLACEMENT_3D ( 'NONE', #52, #267, #73 ) ;
#136 = PERSON_AND_ORGANIZATION ( #244, #169 ) ;
#137 = DIRECTION ( 'NONE',  ( 6.160239616394908500E-017, 1.000000000000000000, 0.0000000000000000000 ) ) ;
#138 = CC_DESIGN_APPROVAL ( #94, ( #253 ) ) ;
#139 = CONICAL_SURFACE ( 'NONE', #76, 2.499999999999999600, 0.5058555817516513500 ) ;
#140 = MANIFOLD_SOLID_BREP ( '4267-001-1-solid1', #127 ) ;
#141 = APPLICATION_CONTEXT ( 'configuration controlled 3d designs of mechanical parts and assemblies' ) ;
#142 = COORDINATED_UNIVERSAL_TIME_OFFSET ( 5, 0, .BEHIND. ) ;
#143 = ORIENTED_EDGE ( 'NONE', *, *, #275, .F. ) ;
#144 = PRODUCT_RELATED_PRODUCT_CATEGORY ( 'detail', '', ( #132 ) ) ;
#145 = ORIENTED_EDGE ( 'NONE', *, *, #104, .F. ) ;
#146 = CARTESIAN_POINT ( 'NONE',  ( -1.100000000000000800, -2.250000000000001300, 2.908536147974964200E-016 ) ) ;
#147 = VECTOR ( 'NONE', #159, 999.9999999999998900 ) ;
#148 = CARTESIAN_POINT ( 'NONE',  ( 0.1500000000000009900, 2.499999999999999600, 3.061616997868382600E-016 ) ) ;
#149 = ADVANCED_FACE ( 'NONE', ( #58 ), #139, .T. ) ;
#150 = PLANE ( 'NONE',  #89 ) ;
#151 = CARTESIAN_POINT ( 'NONE',  ( 0.1500000000000008300, -7.574675251884337600E-017, 0.0000000000000000000 ) ) ;
#152 = APPLICATION_PROTOCOL_DEFINITION ( 'international standard', 'config_control_design', 1994, #13 ) ;
#153 = DIRECTION ( 'NONE',  ( -6.160239616394908500E-017, -1.000000000000000000, 0.0000000000000000000 ) ) ;
#154 = ORIENTED_EDGE ( 'NONE', *, *, #63, .T. ) ;
#155 = TOROIDAL_SURFACE ( 'NONE', #195, 0.06010997191683668800, 4.599999999999998800 ) ;
#156 = DIRECTION ( 'NONE',  ( 0.7071067811865482400, -0.7071067811865469100, 8.659560562354926700E-017 ) ) ;
#157 = CARTESIAN_POINT ( 'NONE',  ( 0.1500000000000006600, -2.499999999999999600, 0.0000000000000000000 ) ) ;
#158 = CARTESIAN_POINT ( 'NONE',  ( -1.100000000000000300, 2.499999999999999600, 3.061616997868382600E-016 ) ) ;
#159 = DIRECTION ( 'NONE',  ( 0.7071067811865482400, 0.7071067811865469100, 0.0000000000000000000 ) ) ;
#160 = EDGE_LOOP ( 'NONE', ( #181, #7, #263, #221 ) ) ;
#161 = ORIENTED_EDGE ( 'NONE', *, *, #211, .F. ) ;
#162 = CARTESIAN_POINT ( 'NONE',  ( -3.499607243154152900, -0.06010997191683653500, 0.0000000000000000000 ) ) ;
#163 = VECTOR ( 'NONE', #99, 1000.000000000000000 ) ;
#164 = PRODUCT_DEFINITION ( 'UNKNOWN', '', #170, #53 ) ;
#165 = EDGE_CURVE ( 'NONE', #86, #167, #25, .T. ) ;
#166 = CALENDAR_DATE ( 2015, 29, 5 ) ;
#167 = VERTEX_POINT ( 'NONE', #36 ) ;
#168 = CYLINDRICAL_SURFACE ( 'NONE', #24, 2.499999999999999600 ) ;
#169 = ORGANIZATION ( 'UNSPECIFIED', 'UNSPECIFIED', '' ) ;
#170 = PRODUCT_DEFINITION_FORMATION_WITH_SPECIFIED_SOURCE ( 'ANY', '', #132, .NOT_KNOWN. ) ;
#171 = VERTEX_POINT ( 'NONE', #193 ) ;
#172 = DIRECTION ( 'NONE',  ( 1.000000000000000000, -6.160239616394908500E-017, 0.0000000000000000000 ) ) ;
#173 = CONICAL_SURFACE ( 'NONE', #259, 2.250000000000001300, 0.7853981633974473900 ) ;
#174 = FACE_OUTER_BOUND ( 'NONE', #283, .T. ) ;
#175 = CC_DESIGN_DATE_AND_TIME_ASSIGNMENT ( #100, #203, ( #253 ) ) ;
#176 = EDGE_CURVE ( 'NONE', #251, #167, #62, .T. ) ;
#177 = LOCAL_TIME ( 10, 18, 24.00000000000000000, #142 ) ;
#178 = DATE_AND_TIME ( #166, #177 ) ;
#179 = ORIENTED_EDGE ( 'NONE', *, *, #122, .F. ) ;
#180 =( GEOMETRIC_REPRESENTATION_CONTEXT ( 3 ) GLOBAL_UNCERTAINTY_ASSIGNED_CONTEXT ( ( #217 ) ) GLOBAL_UNIT_ASSIGNED_CONTEXT ( ( #271, #3, #55 ) ) REPRESENTATION_CONTEXT ( 'NONE', 'WORKASPACE' ) );
#181 = ORIENTED_EDGE ( 'NONE', *, *, #165, .F. ) ;
#182 = AXIS2_PLACEMENT_3D ( 'NONE', #194, #184, #257 ) ;
#183 = ADVANCED_FACE ( 'NONE', ( #85 ), #69, .T. ) ;
#184 = DIRECTION ( 'NONE',  ( 1.000000000000000000, -6.160239616394912200E-017, 0.0000000000000000000 ) ) ;
#185 = AXIS2_PLACEMENT_3D ( 'NONE', #87, #117, #56 ) ;
#186 = CC_DESIGN_APPROVAL ( #191, ( #164 ) ) ;
#187 = CALENDAR_DATE ( 2015, 29, 5 ) ;
#188 = COORDINATED_UNIVERSAL_TIME_OFFSET ( 5, 0, .BEHIND. ) ;
#189 = PERSON_AND_ORGANIZATION ( #244, #169 ) ;
#190 = APPROVAL_ROLE ( '' ) ;
#191 = APPROVAL ( #61, 'UNSPECIFIED' ) ;
#192 = DIRECTION ( 'NONE',  ( 9.637352644315589100E-017, 1.000000000000000000, 0.0000000000000000000 ) ) ;
#193 = CARTESIAN_POINT ( 'NONE',  ( 0.5214050597978159300, 2.294267544584639700, 2.809667404863236300E-016 ) ) ;
#194 = CARTESIAN_POINT ( 'NONE',  ( 0.5214050597978159300, -9.862619414980374900E-017, 0.0000000000000000000 ) ) ;
#195 = AXIS2_PLACEMENT_3D ( 'NONE', #81, #26, #153 ) ;
#196 = PERSON_AND_ORGANIZATION ( #244, #169 ) ;
#197 = APPROVAL_DATE_TIME ( #178, #191 ) ;
#198 = CIRCLE ( 'NONE', #246, 2.250000000000001300 ) ;
#199 = EDGE_LOOP ( 'NONE', ( #218, #42, #103, #65 ) ) ;
#200 = ADVANCED_FACE ( 'NONE', ( #54 ), #64, .T. ) ;
#201 = CC_DESIGN_PERSON_AND_ORGANIZATION_ASSIGNMENT ( #196, #96, ( #164 ) ) ;
#202 = CONICAL_SURFACE ( 'NONE', #278, 2.499999999999999600, 0.5058555817516513500 ) ;
#203 = DATE_TIME_ROLE ( 'classification_date' ) ;
#204 = DIRECTION ( 'NONE',  ( -1.000000000000000000, 6.160239616394912200E-017, -0.0000000000000000000 ) ) ;
#205 = DATE_AND_TIME ( #187, #262 ) ;
#206 = LINE ( 'NONE', #157, #41 ) ;
#207 = CARTESIAN_POINT ( 'NONE',  ( 1.100000000000000500, 0.0000000000000000000, -4.731842306639729600E-031 ) ) ;
#208 = APPROVAL_PERSON_ORGANIZATION ( #223, #222, #190 ) ;
#209 = EDGE_CURVE ( 'NONE', #237, #260, #291, .T. ) ;
#210 = DIRECTION ( 'NONE',  ( 1.000000000000000000, -6.160239616394908500E-017, 0.0000000000000000000 ) ) ;
#211 = EDGE_CURVE ( 'NONE', #171, #86, #91, .T. ) ;
#212 = APPROVAL_ROLE ( '' ) ;
#213 = CARTESIAN_POINT ( 'NONE',  ( 0.1500000000000008300, -7.574675251884337600E-017, 0.0000000000000000000 ) ) ;
#214 = DIRECTION ( 'NONE',  ( 4.336808689942018400E-017, 1.000000000000000000, 0.0000000000000000000 ) ) ;
#215 = VERTEX_POINT ( 'NONE', #5 ) ;
#216 = CC_DESIGN_APPROVAL ( #222, ( #170 ) ) ;
#217 = UNCERTAINTY_MEASURE_WITH_UNIT (LENGTH_MEASURE( 1.000000000000000100E-005 ), #271, 'distance_accuracy_value', 'NONE');
#218 = ORIENTED_EDGE ( 'NONE', *, *, #14, .T. ) ;
#219 = CARTESIAN_POINT ( 'NONE',  ( -1.100000000000000500, 1.355252715606880500E-016, -4.731842306639727900E-031 ) ) ;
#220 = ORIENTED_EDGE ( 'NONE', *, *, #176, .T. ) ;
#221 = ORIENTED_EDGE ( 'NONE', *, *, #292, .T. ) ;
#222 = APPROVAL ( #19, 'UNSPECIFIED' ) ;
#223 = PERSON_AND_ORGANIZATION ( #244, #169 ) ;
#224 = CIRCLE ( 'NONE', #92, 2.250000000000001300 ) ;
#225 = DIRECTION ( 'NONE',  ( -7.544117728198744000E-033, -1.224646799147353200E-016, 1.000000000000000000 ) ) ;
#226 = DATE_AND_TIME ( #113, #70 ) ;
#227 = APPROVAL_PERSON_ORGANIZATION ( #136, #191, #212 ) ;
#228 = ORIENTED_EDGE ( 'NONE', *, *, #29, .F. ) ;
#229 = CC_DESIGN_PERSON_AND_ORGANIZATION_ASSIGNMENT ( #107, #266, ( #170 ) ) ;
#230 = ADVANCED_BREP_SHAPE_REPRESENTATION ( '4267-E0W', ( #140, #74 ), #180 ) ;
#231 = CARTESIAN_POINT ( 'NONE',  ( -0.8500000000000015300, -1.540059904098720400E-017, 0.0000000000000000000 ) ) ;
#232 = ADVANCED_FACE ( 'NONE', ( #101 ), #173, .T. ) ;
#233 = PERSON_AND_ORGANIZATION ( #244, #169 ) ;
#234 = AXIS2_PLACEMENT_3D ( 'NONE', #247, #33, #274 ) ;
#235 = CC_DESIGN_PERSON_AND_ORGANIZATION_ASSIGNMENT ( #233, #48, ( #170 ) ) ;
#236 = APPROVAL_DATE_TIME ( #226, #222 ) ;
#237 = VERTEX_POINT ( 'NONE', #207 ) ;
#238 = ORIENTED_EDGE ( 'NONE', *, *, #66, .T. ) ;
#239 = EDGE_CURVE ( 'NONE', #109, #251, #224, .T. ) ;
#240 = CARTESIAN_POINT ( 'NONE',  ( -1.100000000000000500, 0.0000000000000000000, 0.0000000000000000000 ) ) ;
#241 = CC_DESIGN_PERSON_AND_ORGANIZATION_ASSIGNMENT ( #95, #254, ( #253 ) ) ;
#242 = CARTESIAN_POINT ( 'NONE',  ( -1.100000000000000300, 2.250000000000001300, 0.0000000000000000000 ) ) ;
#243 = CIRCLE ( 'NONE', #46, 2.499999999999999600 ) ;
#244 = PERSON ( 'UNSPECIFIED', 'UNSPECIFIED', 'UNSPECIFIED', ('UNSPECIFIED'), ('UNSPECIFIED'), ('UNSPECIFIED') ) ;
#245 = DIRECTION ( 'NONE',  ( -6.505213034913027800E-017, -1.000000000000000000, 0.0000000000000000000 ) ) ;
#246 = AXIS2_PLACEMENT_3D ( 'NONE', #6, #59, #277 ) ;
#247 = CARTESIAN_POINT ( 'NONE',  ( 0.1500000000000008300, -7.700299520493644600E-017, 0.0000000000000000000 ) ) ;
#248 = DIRECTION ( 'NONE',  ( -0.8747602173368002100, -0.4845560464640533700, 0.0000000000000000000 ) ) ;
#249 = COORDINATED_UNIVERSAL_TIME_OFFSET ( 5, 0, .BEHIND. ) ;
#250 = FACE_OUTER_BOUND ( 'NONE', #2, .T. ) ;
#251 = VERTEX_POINT ( 'NONE', #242 ) ;
#252 = ORIENTED_EDGE ( 'NONE', *, *, #239, .F. ) ;
#253 = SECURITY_CLASSIFICATION ( '', '', #10 ) ;
#254 = PERSON_AND_ORGANIZATION_ROLE ( 'classification_officer' ) ;
#255 = ORIENTED_EDGE ( 'NONE', *, *, #66, .F. ) ;
#256 = CARTESIAN_POINT ( 'NONE',  ( 0.0000000000000000000, 0.0000000000000000000, 0.0000000000000000000 ) ) ;
#257 = DIRECTION ( 'NONE',  ( -4.725700692775096200E-017, -1.000000000000000000, 0.0000000000000000000 ) ) ;
#258 = CARTESIAN_POINT ( 'NONE',  ( -1.100000000000000500, 8.690218438090904000E-033, 0.0000000000000000000 ) ) ;
#259 = AXIS2_PLACEMENT_3D ( 'NONE', #279, #121, #192 ) ;
#260 = VERTEX_POINT ( 'NONE', #131 ) ;
#261 = CARTESIAN_POINT ( 'NONE',  ( -1.100000000000000800, -2.499999999999999600, 0.0000000000000000000 ) ) ;
#262 = LOCAL_TIME ( 10, 18, 24.00000000000000000, #57 ) ;
#263 = ORIENTED_EDGE ( 'NONE', *, *, #23, .T. ) ;
#264 = CARTESIAN_POINT ( 'NONE',  ( 0.5214050597978159300, -9.862619414980374900E-017, 0.0000000000000000000 ) ) ;
#265 = FACE_OUTER_BOUND ( 'NONE', #39, .T. ) ;
#266 = PERSON_AND_ORGANIZATION_ROLE ( 'design_supplier' ) ;
#267 = DIRECTION ( 'NONE',  ( -1.000000000000000000, 6.160239616394908500E-017, -0.0000000000000000000 ) ) ;
#268 = CARTESIAN_POINT ( 'NONE',  ( -1.100000000000000800, -2.250000000000001300, 2.755455298081546300E-016 ) ) ;
#269 = EDGE_LOOP ( 'NONE', ( #98, #154, #296 ) ) ;
#270 = ORIENTED_EDGE ( 'NONE', *, *, #63, .F. ) ;
#271 =( LENGTH_UNIT ( ) NAMED_UNIT ( * ) SI_UNIT ( .MILLI., .METRE. ) );
#272 = CALENDAR_DATE ( 2015, 29, 5 ) ;
#273 = FACE_OUTER_BOUND ( 'NONE', #199, .T. ) ;
#274 = DIRECTION ( 'NONE',  ( -6.505213034913027800E-017, -1.000000000000000000, 0.0000000000000000000 ) ) ;
#275 = EDGE_CURVE ( 'NONE', #86, #215, #20, .T. ) ;
#276 = CALENDAR_DATE ( 2015, 29, 5 ) ;
#277 = DIRECTION ( 'NONE',  ( 9.637352644315589100E-017, 1.000000000000000000, 0.0000000000000000000 ) ) ;
#278 = AXIS2_PLACEMENT_3D ( 'NONE', #213, #50, #9 ) ;
#279 = CARTESIAN_POINT ( 'NONE',  ( -1.100000000000000500, 5.142987832943087400E-049, 0.0000000000000000000 ) ) ;
#280 = DIRECTION ( 'NONE',  ( 4.336808689942018400E-017, 1.000000000000000000, 0.0000000000000000000 ) ) ;
#281 = DATE_AND_TIME ( #276, #90 ) ;
#282 = DIRECTION ( 'NONE',  ( 1.000000000000000000, -6.160239616394908500E-017, 0.0000000000000000000 ) ) ;
#283 = EDGE_LOOP ( 'NONE', ( #270, #102, #120 ) ) ;
#284 = CARTESIAN_POINT ( 'NONE',  ( -0.8500000000000015300, -1.540059904098720400E-017, 0.0000000000000000000 ) ) ;
#285 = VECTOR ( 'NONE', #156, 999.9999999999998900 ) ;
#286 = ORIENTED_EDGE ( 'NONE', *, *, #294, .F. ) ;
#287 = DIRECTION ( 'NONE',  ( -8.673617379884036700E-017, -1.000000000000000000, 0.0000000000000000000 ) ) ;
#288 = ORIENTED_EDGE ( 'NONE', *, *, #11, .T. ) ;
#289 = CIRCLE ( 'NONE', #30, 2.294267544584638300 ) ;
#290 = PRODUCT_DEFINITION_SHAPE ( 'NONE', 'NONE',  #164 ) ;
#291 = CIRCLE ( 'NONE', #4, 4.599999999999997900 ) ;
#292 = EDGE_CURVE ( 'NONE', #15, #167, #128, .T. ) ;
#293 = DIRECTION ( 'NONE',  ( 0.0000000000000000000, 0.0000000000000000000, 1.000000000000000000 ) ) ;
#294 = EDGE_CURVE ( 'NONE', #109, #15, #123, .T. ) ;
#295 = ORIENTED_EDGE ( 'NONE', *, *, #292, .F. ) ;
#296 = ORIENTED_EDGE ( 'NONE', *, *, #29, .T. ) ;
#297 = DIRECTION ( 'NONE',  ( 9.637352644315589100E-017, 1.000000000000000000, 0.0000000000000000000 ) ) ;
#298 = DIRECTION ( 'NONE',  ( -0.8747602173368002100, 0.4845560464640534200, 5.934100113096989800E-017 ) ) ;
#299 = AXIS2_PLACEMENT_3D ( 'NONE', #125, #225, #105 ) ;
#300 = CARTESIAN_POINT ( 'NONE',  ( -0.8500000000000016400, -2.499999999999999600, 0.0000000000000000000 ) ) ;
#301 = ORIENTED_EDGE ( 'NONE', *, *, #294, .T. ) ;
ENDSEC;
END-ISO-10303-21;
