ISO-10303-21;
HEADER;
FILE_DESCRIPTION (( 'STEP AP203' ),
    '1' );
FILE_NAME ('Web Model 17262_17262.step',
    '2021-05-18T18:52:18',
    ( '' ),
    ( '' ),
    'SwSTEP 2.0',
    'SolidWorks 2018',
    '' );
FILE_SCHEMA (( 'CONFIG_CONTROL_DESIGN' ));
ENDSEC;

DATA;
#1 = APPROVAL_PERSON_ORGANIZATION ( #114, #39, #182 ) ;
#2 = VECTOR ( 'NONE', #79, 39.37007874015748143 ) ;
#3 = ORIENTED_EDGE ( 'NONE', *, *, #71, .F. ) ;
#4 = PERSON_AND_ORGANIZATION ( #235, #12 ) ;
#5 = APPROVAL_DATE_TIME ( #215, #214 ) ;
#6 = PERSON_AND_ORGANIZATION_ROLE ( 'classification_officer' ) ;
#7 = VERTEX_POINT ( 'NONE', #102 ) ;
#8 = MECHANICAL_CONTEXT ( 'NONE', #147, 'mechanical' ) ;
#9 = CALENDAR_DATE ( 2021, 18, 5 ) ;
#10 = DIRECTION ( 'NONE',  ( 0.000000000000000000, -0.000000000000000000, 1.000000000000000000 ) ) ;
#11 = DIRECTION ( 'NONE',  ( -2.775557561562891351E-16, 1.000000000000000000, -0.000000000000000000 ) ) ;
#12 = ORGANIZATION ( 'UNSPECIFIED', 'UNSPECIFIED', '' ) ;
#13 = DIRECTION ( 'NONE',  ( -0.000000000000000000, -0.000000000000000000, -1.000000000000000000 ) ) ;
#14 = CC_DESIGN_DATE_AND_TIME_ASSIGNMENT ( #206, #148, ( #129 ) ) ;
#15 = LINE ( 'NONE', #120, #239 ) ;
#16 = VERTEX_POINT ( 'NONE', #62 ) ;
#17 = AXIS2_PLACEMENT_3D ( 'NONE', #110, #131, #223 ) ;
#18 = CARTESIAN_POINT ( 'NONE',  ( -0.9842519685039370358, 0.9842519685039370358, 0.04330708661417323468 ) ) ;
#19 = LENGTH_MEASURE_WITH_UNIT ( LENGTH_MEASURE( 0.02539999999999999897 ), #134 );
#20 = ORIENTED_EDGE ( 'NONE', *, *, #107, .T. ) ;
#21 = ORIENTED_EDGE ( 'NONE', *, *, #181, .T. ) ;
#22 = CC_DESIGN_APPROVAL ( #68, ( #129 ) ) ;
#23 = FACE_OUTER_BOUND ( 'NONE', #197, .T. ) ;
#24 = COORDINATED_UNIVERSAL_TIME_OFFSET ( 5, 0, .BEHIND. ) ;
#25 = ORIENTED_EDGE ( 'NONE', *, *, #135, .T. ) ;
#26 = AXIS2_PLACEMENT_3D ( 'NONE', #75, #76, #10 ) ;
#27 = ORIENTED_EDGE ( 'NONE', *, *, #107, .F. ) ;
#28 = VECTOR ( 'NONE', #58, 39.37007874015748143 ) ;
#29 = PERSON_AND_ORGANIZATION_ROLE ( 'creator' ) ;
#30 = PERSON_AND_ORGANIZATION ( #235, #12 ) ;
#31 = DIRECTION ( 'NONE',  ( 1.000000000000000000, 2.775557561562891351E-16, -0.000000000000000000 ) ) ;
#32 = ORIENTED_EDGE ( 'NONE', *, *, #164, .T. ) ;
#33 = DIRECTION ( 'NONE',  ( -1.000000000000000000, -0.000000000000000000, -0.000000000000000000 ) ) ;
#34 = DIRECTION ( 'NONE',  ( -1.000000000000000000, -0.000000000000000000, -0.000000000000000000 ) ) ;
#35 = CC_DESIGN_PERSON_AND_ORGANIZATION_ASSIGNMENT ( #41, #29, ( #94 ) ) ;
#36 = CARTESIAN_POINT ( 'NONE',  ( -0.9842519685039365918, -0.9842519685039370358, 0.04330708661417323468 ) ) ;
#37 = LINE ( 'NONE', #225, #156 ) ;
#38 = VERTEX_POINT ( 'NONE', #63 ) ;
#39 = APPROVAL ( #145, 'UNSPECIFIED' ) ;
#40 = LINE ( 'NONE', #118, #2 ) ;
#41 = PERSON_AND_ORGANIZATION ( #235, #12 ) ;
#42 = MANIFOLD_SOLID_BREP ( 'Boss-Extrude1', #81 ) ;
#43 = EDGE_LOOP ( 'NONE', ( #126, #3, #133, #25 ) ) ;
#44 = EDGE_CURVE ( 'NONE', #66, #38, #61, .T. ) ;
#45 = CC_DESIGN_PERSON_AND_ORGANIZATION_ASSIGNMENT ( #4, #47, ( #224 ) ) ;
#46 = CALENDAR_DATE ( 2021, 18, 5 ) ;
#47 = PERSON_AND_ORGANIZATION_ROLE ( 'design_owner' ) ;
#48 = COORDINATED_UNIVERSAL_TIME_OFFSET ( 5, 0, .BEHIND. ) ;
#49 =( NAMED_UNIT ( * ) SI_UNIT ( $, .STERADIAN. ) SOLID_ANGLE_UNIT ( ) );
#50 =( CONVERSION_BASED_UNIT ( 'INCH', #19 ) LENGTH_UNIT ( ) NAMED_UNIT ( #65 ) );
#51 = ORIENTED_EDGE ( 'NONE', *, *, #123, .T. ) ;
#52 = DIRECTION ( 'NONE',  ( -1.000000000000000000, -2.775557561562891351E-16, 0.000000000000000000 ) ) ;
#53 = FACE_OUTER_BOUND ( 'NONE', #125, .T. ) ;
#54 = APPROVAL_ROLE ( '' ) ;
#55 = PERSON_AND_ORGANIZATION ( #235, #12 ) ;
#56 = CARTESIAN_POINT ( 'NONE',  ( 0.9842519685039370358, 0.9842519685039370358, 0.000000000000000000 ) ) ;
#57 = PLANE ( 'NONE',  #176 ) ;
#58 = DIRECTION ( 'NONE',  ( -2.775557561562891351E-16, 1.000000000000000000, -0.000000000000000000 ) ) ;
#59 = DIRECTION ( 'NONE',  ( -0.000000000000000000, 0.000000000000000000, 1.000000000000000000 ) ) ;
#60 = EDGE_CURVE ( 'NONE', #101, #138, #221, .T. ) ;
#61 = LINE ( 'NONE', #139, #217 ) ;
#62 = CARTESIAN_POINT ( 'NONE',  ( -0.9842519685039370358, 0.9842519685039370358, 0.000000000000000000 ) ) ;
#63 = CARTESIAN_POINT ( 'NONE',  ( -0.9842519685039365918, -0.9842519685039370358, 0.04330708661417323468 ) ) ;
#64 = CALENDAR_DATE ( 2021, 18, 5 ) ;
#65 = DIMENSIONAL_EXPONENTS ( 1.000000000000000000, 0.000000000000000000, 0.000000000000000000, 0.000000000000000000, 0.000000000000000000, 0.000000000000000000, 0.000000000000000000 ) ;
#66 = VERTEX_POINT ( 'NONE', #18 ) ;
#67 = PERSON_AND_ORGANIZATION ( #235, #12 ) ;
#68 = APPROVAL ( #130, 'UNSPECIFIED' ) ;
#69 = SECURITY_CLASSIFICATION_LEVEL ( 'unclassified' ) ;
#70 = FACE_OUTER_BOUND ( 'NONE', #180, .T. ) ;
#71 = EDGE_CURVE ( 'NONE', #38, #101, #95, .T. ) ;
#72 = CARTESIAN_POINT ( 'NONE',  ( 0.9842519685039370358, 0.9842519685039370358, 0.04330708661417323468 ) ) ;
#73 = CARTESIAN_POINT ( 'NONE',  ( 0.000000000000000000, 0.000000000000000000, 0.000000000000000000 ) ) ;
#74 = ORIENTED_EDGE ( 'NONE', *, *, #181, .F. ) ;
#75 = CARTESIAN_POINT ( 'NONE',  ( -0.9842519685039365918, -0.9842519685039370358, 0.04330708661417323468 ) ) ;
#76 = DIRECTION ( 'NONE',  ( 0.000000000000000000, 1.000000000000000000, 0.000000000000000000 ) ) ;
#77 = VECTOR ( 'NONE', #13, 39.37007874015748143 ) ;
#78 = DIRECTION ( 'NONE',  ( 0.000000000000000000, -0.000000000000000000, -1.000000000000000000 ) ) ;
#79 = DIRECTION ( 'NONE',  ( -0.000000000000000000, -0.000000000000000000, -1.000000000000000000 ) ) ;
#80 = PERSON_AND_ORGANIZATION ( #235, #12 ) ;
#81 = CLOSED_SHELL ( 'NONE', ( #160, #196, #161, #199, #140, #127 ) ) ;
#82 = CARTESIAN_POINT ( 'NONE',  ( -0.9842519685039365918, -0.9842519685039370358, 0.000000000000000000 ) ) ;
#83 = CC_DESIGN_PERSON_AND_ORGANIZATION_ASSIGNMENT ( #80, #201, ( #94 ) ) ;
#84 = VECTOR ( 'NONE', #230, 39.37007874015748143 ) ;
#85 = COORDINATED_UNIVERSAL_TIME_OFFSET ( 5, 0, .BEHIND. ) ;
#86 = EDGE_CURVE ( 'NONE', #38, #7, #15, .T. ) ;
#87 = ORIENTED_EDGE ( 'NONE', *, *, #216, .F. ) ;
#88 = LINE ( 'NONE', #171, #77 ) ;
#89 = AXIS2_PLACEMENT_3D ( 'NONE', #150, #31, #115 ) ;
#90 = DATE_TIME_ROLE ( 'classification_date' ) ;
#91 = PLANE ( 'NONE',  #17 ) ;
#92 = LOCAL_TIME ( 14, 52, 18.00000000000000000, #85 ) ;
#93 = DIRECTION ( 'NONE',  ( 2.775557561562891351E-16, -1.000000000000000000, 0.000000000000000000 ) ) ;
#94 = PRODUCT_DEFINITION_FORMATION_WITH_SPECIFIED_SOURCE ( 'ANY', '', #224, .NOT_KNOWN. ) ;
#95 = LINE ( 'NONE', #36, #84 ) ;
#96 = AXIS2_PLACEMENT_3D ( 'NONE', #72, #52, #93 ) ;
#97 = DIRECTION ( 'NONE',  ( 0.000000000000000000, -1.000000000000000000, 0.000000000000000000 ) ) ;
#98 = PLANE ( 'NONE',  #203 ) ;
#99 = ORIENTED_EDGE ( 'NONE', *, *, #135, .F. ) ;
#100 = EDGE_LOOP ( 'NONE', ( #165, #27, #207, #21 ) ) ;
#101 = VERTEX_POINT ( 'NONE', #153 ) ;
#102 = CARTESIAN_POINT ( 'NONE',  ( 0.9842519685039375910, -0.9842519685039370358, 0.04330708661417323468 ) ) ;
#103 = CALENDAR_DATE ( 2021, 18, 5 ) ;
#104 = SECURITY_CLASSIFICATION ( '', '', #69 ) ;
#105 = ORIENTED_EDGE ( 'NONE', *, *, #164, .F. ) ;
#106 = VERTEX_POINT ( 'NONE', #238 ) ;
#107 = EDGE_CURVE ( 'NONE', #106, #128, #40, .T. ) ;
#108 = AXIS2_PLACEMENT_3D ( 'NONE', #73, #166, #222 ) ;
#109 = APPROVAL_ROLE ( '' ) ;
#110 = CARTESIAN_POINT ( 'NONE',  ( 0.000000000000000000, 0.000000000000000000, 0.04330708661417323468 ) ) ;
#111 = DATE_AND_TIME ( #64, #116 ) ;
#112 = PLANE ( 'NONE',  #89 ) ;
#113 = FACE_OUTER_BOUND ( 'NONE', #143, .T. ) ;
#114 = PERSON_AND_ORGANIZATION ( #235, #12 ) ;
#115 = DIRECTION ( 'NONE',  ( -2.775557561562891351E-16, 1.000000000000000000, 0.000000000000000000 ) ) ;
#116 = LOCAL_TIME ( 14, 52, 18.00000000000000000, #162 ) ;
#117 = DIRECTION ( 'NONE',  ( -0.000000000000000000, -0.000000000000000000, -1.000000000000000000 ) ) ;
#118 = CARTESIAN_POINT ( 'NONE',  ( 0.9842519685039370358, 0.9842519685039370358, 0.04330708661417323468 ) ) ;
#119 = LINE ( 'NONE', #173, #137 ) ;
#120 = CARTESIAN_POINT ( 'NONE',  ( -0.9842519685039365918, -0.9842519685039370358, 0.04330708661417323468 ) ) ;
#121 = PRODUCT_RELATED_PRODUCT_CATEGORY ( 'detail', '', ( #224 ) ) ;
#122 = PRODUCT_DEFINITION_SHAPE ( 'NONE', 'NONE',  #129 ) ;
#123 = EDGE_CURVE ( 'NONE', #7, #106, #172, .T. ) ;
#124 = CC_DESIGN_APPROVAL ( #39, ( #94 ) ) ;
#125 = EDGE_LOOP ( 'NONE', ( #228, #74, #158, #210 ) ) ;
#126 = ORIENTED_EDGE ( 'NONE', *, *, #200, .T. ) ;
#127 = ADVANCED_FACE ( 'NONE', ( #23 ), #98, .F. ) ;
#128 = VERTEX_POINT ( 'NONE', #136 ) ;
#129 = PRODUCT_DEFINITION ( 'UNKNOWN', '', #94, #192 ) ;
#130 = APPROVAL_STATUS ( 'not_yet_approved' ) ;
#131 = DIRECTION ( 'NONE',  ( -0.000000000000000000, 0.000000000000000000, 1.000000000000000000 ) ) ;
#132 = DIRECTION ( 'NONE',  ( 2.775557561562891351E-16, -1.000000000000000000, 0.000000000000000000 ) ) ;
#133 = ORIENTED_EDGE ( 'NONE', *, *, #44, .F. ) ;
#134 =( LENGTH_UNIT ( ) NAMED_UNIT ( * ) SI_UNIT ( $, .METRE. ) );
#135 = EDGE_CURVE ( 'NONE', #66, #16, #37, .T. ) ;
#136 = CARTESIAN_POINT ( 'NONE',  ( 0.9842519685039370358, 0.9842519685039370358, 0.000000000000000000 ) ) ;
#137 = VECTOR ( 'NONE', #34, 39.37007874015748143 ) ;
#138 = VERTEX_POINT ( 'NONE', #227 ) ;
#139 = CARTESIAN_POINT ( 'NONE',  ( -0.9842519685039370358, 0.9842519685039370358, 0.04330708661417323468 ) ) ;
#140 = ADVANCED_FACE ( 'NONE', ( #113 ), #91, .T. ) ;
#141 = ORIENTED_EDGE ( 'NONE', *, *, #216, .T. ) ;
#142 = LOCAL_TIME ( 14, 52, 18.00000000000000000, #24 ) ;
#143 = EDGE_LOOP ( 'NONE', ( #51, #32, #218, #194 ) ) ;
#144 = ORIENTED_EDGE ( 'NONE', *, *, #226, .F. ) ;
#145 = APPROVAL_STATUS ( 'not_yet_approved' ) ;
#146 = DATE_AND_TIME ( #103, #151 ) ;
#147 = APPLICATION_CONTEXT ( 'configuration controlled 3d designs of mechanical parts and assemblies' ) ;
#148 = DATE_TIME_ROLE ( 'creation_date' ) ;
#149 = LINE ( 'NONE', #56, #184 ) ;
#150 = CARTESIAN_POINT ( 'NONE',  ( -0.9842519685039370358, 0.9842519685039370358, 0.04330708661417323468 ) ) ;
#151 = LOCAL_TIME ( 14, 52, 18.00000000000000000, #202 ) ;
#152 = CC_DESIGN_APPROVAL ( #214, ( #104 ) ) ;
#153 = CARTESIAN_POINT ( 'NONE',  ( -0.9842519685039365918, -0.9842519685039370358, 0.000000000000000000 ) ) ;
#154 = APPROVAL_DATE_TIME ( #146, #39 ) ;
#155 = APPROVAL_DATE_TIME ( #111, #68 ) ;
#156 = VECTOR ( 'NONE', #117, 39.37007874015748143 ) ;
#157 = DATE_AND_TIME ( #46, #236 ) ;
#158 = ORIENTED_EDGE ( 'NONE', *, *, #86, .F. ) ;
#159 = UNCERTAINTY_MEASURE_WITH_UNIT (LENGTH_MEASURE( 1.000000000000000082E-05 ), #50, 'distance_accuracy_value', 'NONE');
#160 = ADVANCED_FACE ( 'NONE', ( #231 ), #185, .F. ) ;
#161 = ADVANCED_FACE ( 'NONE', ( #178 ), #112, .F. ) ;
#162 = COORDINATED_UNIVERSAL_TIME_OFFSET ( 5, 0, .BEHIND. ) ;
#163 = CC_DESIGN_SECURITY_CLASSIFICATION ( #104, ( #94 ) ) ;
#164 = EDGE_CURVE ( 'NONE', #106, #66, #193, .T. ) ;
#165 = ORIENTED_EDGE ( 'NONE', *, *, #226, .T. ) ;
#166 = DIRECTION ( 'NONE',  ( 0.000000000000000000, 0.000000000000000000, 1.000000000000000000 ) ) ;
#167 = ORIENTED_EDGE ( 'NONE', *, *, #60, .F. ) ;
#168 = PERSON_AND_ORGANIZATION_ROLE ( 'creator' ) ;
#169 = APPLICATION_PROTOCOL_DEFINITION ( 'international standard', 'config_control_design', 1994, #147 ) ;
#170 = CALENDAR_DATE ( 2021, 18, 5 ) ;
#171 = CARTESIAN_POINT ( 'NONE',  ( 0.9842519685039375910, -0.9842519685039370358, 0.04330708661417323468 ) ) ;
#172 = LINE ( 'NONE', #191, #28 ) ;
#173 = CARTESIAN_POINT ( 'NONE',  ( -0.9842519685039370358, 0.9842519685039370358, 0.000000000000000000 ) ) ;
#174 = SHAPE_DEFINITION_REPRESENTATION ( #122, #187 ) ;
#175 = CC_DESIGN_PERSON_AND_ORGANIZATION_ASSIGNMENT ( #209, #168, ( #129 ) ) ;
#176 = AXIS2_PLACEMENT_3D ( 'NONE', #237, #97, #78 ) ;
#177 = DIRECTION ( 'NONE',  ( 1.000000000000000000, 0.000000000000000000, 0.000000000000000000 ) ) ;
#178 = FACE_OUTER_BOUND ( 'NONE', #43, .T. ) ;
#179 =( GEOMETRIC_REPRESENTATION_CONTEXT ( 3 ) GLOBAL_UNCERTAINTY_ASSIGNED_CONTEXT ( ( #159 ) ) GLOBAL_UNIT_ASSIGNED_CONTEXT ( ( #50, #186, #49 ) ) REPRESENTATION_CONTEXT ( 'NONE', 'WORKASPACE' ) );
#180 = EDGE_LOOP ( 'NONE', ( #141, #99, #105, #20 ) ) ;
#181 = EDGE_CURVE ( 'NONE', #7, #138, #88, .T. ) ;
#182 = APPROVAL_ROLE ( '' ) ;
#183 = CC_DESIGN_PERSON_AND_ORGANIZATION_ASSIGNMENT ( #30, #6, ( #104 ) ) ;
#184 = VECTOR ( 'NONE', #11, 39.37007874015748143 ) ;
#185 = PLANE ( 'NONE',  #96 ) ;
#186 =( NAMED_UNIT ( * ) PLANE_ANGLE_UNIT ( ) SI_UNIT ( $, .RADIAN. ) );
#187 = ADVANCED_BREP_SHAPE_REPRESENTATION ( 'Web Model 17262_17262', ( #42, #108 ), #179 ) ;
#188 = VECTOR ( 'NONE', #212, 39.37007874015748143 ) ;
#189 = PLANE ( 'NONE',  #26 ) ;
#190 = DIRECTION ( 'NONE',  ( 1.000000000000000000, 0.000000000000000000, 0.000000000000000000 ) ) ;
#191 = CARTESIAN_POINT ( 'NONE',  ( 0.9842519685039370358, 0.9842519685039370358, 0.04330708661417323468 ) ) ;
#192 = DESIGN_CONTEXT ( 'detailed design', #233, 'design' ) ;
#193 = LINE ( 'NONE', #205, #204 ) ;
#194 = ORIENTED_EDGE ( 'NONE', *, *, #86, .T. ) ;
#195 = APPROVAL_PERSON_ORGANIZATION ( #55, #214, #109 ) ;
#196 = ADVANCED_FACE ( 'NONE', ( #70 ), #57, .F. ) ;
#197 = EDGE_LOOP ( 'NONE', ( #144, #167, #219, #87 ) ) ;
#198 = VECTOR ( 'NONE', #132, 39.37007874015748143 ) ;
#199 = ADVANCED_FACE ( 'NONE', ( #53 ), #189, .F. ) ;
#200 = EDGE_CURVE ( 'NONE', #16, #101, #229, .T. ) ;
#201 = PERSON_AND_ORGANIZATION_ROLE ( 'design_supplier' ) ;
#202 = COORDINATED_UNIVERSAL_TIME_OFFSET ( 5, 0, .BEHIND. ) ;
#203 = AXIS2_PLACEMENT_3D ( 'NONE', #208, #59, #190 ) ;
#204 = VECTOR ( 'NONE', #33, 39.37007874015748143 ) ;
#205 = CARTESIAN_POINT ( 'NONE',  ( -0.9842519685039370358, 0.9842519685039370358, 0.04330708661417323468 ) ) ;
#206 = DATE_AND_TIME ( #170, #92 ) ;
#207 = ORIENTED_EDGE ( 'NONE', *, *, #123, .F. ) ;
#208 = CARTESIAN_POINT ( 'NONE',  ( 0.000000000000000000, 0.000000000000000000, 0.000000000000000000 ) ) ;
#209 = PERSON_AND_ORGANIZATION ( #235, #12 ) ;
#210 = ORIENTED_EDGE ( 'NONE', *, *, #71, .T. ) ;
#211 = DIRECTION ( 'NONE',  ( 2.775557561562891351E-16, -1.000000000000000000, 0.000000000000000000 ) ) ;
#212 = DIRECTION ( 'NONE',  ( 1.000000000000000000, 0.000000000000000000, 0.000000000000000000 ) ) ;
#213 = APPROVAL_PERSON_ORGANIZATION ( #67, #68, #54 ) ;
#214 = APPROVAL ( #220, 'UNSPECIFIED' ) ;
#215 = DATE_AND_TIME ( #9, #142 ) ;
#216 = EDGE_CURVE ( 'NONE', #128, #16, #119, .T. ) ;
#217 = VECTOR ( 'NONE', #211, 39.37007874015748143 ) ;
#218 = ORIENTED_EDGE ( 'NONE', *, *, #44, .T. ) ;
#219 = ORIENTED_EDGE ( 'NONE', *, *, #200, .F. ) ;
#220 = APPROVAL_STATUS ( 'not_yet_approved' ) ;
#221 = LINE ( 'NONE', #82, #188 ) ;
#222 = DIRECTION ( 'NONE',  ( 1.000000000000000000, 0.000000000000000000, 0.000000000000000000 ) ) ;
#223 = DIRECTION ( 'NONE',  ( 1.000000000000000000, 0.000000000000000000, 0.000000000000000000 ) ) ;
#224 = PRODUCT ( 'Web Model 17262_17262', 'Web Model 17262_17262', '', ( #8 ) ) ;
#225 = CARTESIAN_POINT ( 'NONE',  ( -0.9842519685039370358, 0.9842519685039370358, 0.04330708661417323468 ) ) ;
#226 = EDGE_CURVE ( 'NONE', #138, #128, #149, .T. ) ;
#227 = CARTESIAN_POINT ( 'NONE',  ( 0.9842519685039375910, -0.9842519685039370358, 0.000000000000000000 ) ) ;
#228 = ORIENTED_EDGE ( 'NONE', *, *, #60, .T. ) ;
#229 = LINE ( 'NONE', #234, #198 ) ;
#230 = DIRECTION ( 'NONE',  ( -0.000000000000000000, -0.000000000000000000, -1.000000000000000000 ) ) ;
#231 = FACE_OUTER_BOUND ( 'NONE', #100, .T. ) ;
#232 = APPLICATION_PROTOCOL_DEFINITION ( 'international standard', 'config_control_design', 1994, #233 ) ;
#233 = APPLICATION_CONTEXT ( 'configuration controlled 3d designs of mechanical parts and assemblies' ) ;
#234 = CARTESIAN_POINT ( 'NONE',  ( -0.9842519685039370358, 0.9842519685039370358, 0.000000000000000000 ) ) ;
#235 = PERSON ( 'UNSPECIFIED', 'UNSPECIFIED', 'UNSPECIFIED', ('UNSPECIFIED'), ('UNSPECIFIED'), ('UNSPECIFIED') ) ;
#236 = LOCAL_TIME ( 14, 52, 18.00000000000000000, #48 ) ;
#237 = CARTESIAN_POINT ( 'NONE',  ( -0.9842519685039370358, 0.9842519685039370358, 0.04330708661417323468 ) ) ;
#238 = CARTESIAN_POINT ( 'NONE',  ( 0.9842519685039370358, 0.9842519685039370358, 0.04330708661417323468 ) ) ;
#239 = VECTOR ( 'NONE', #177, 39.37007874015748143 ) ;
#240 = CC_DESIGN_DATE_AND_TIME_ASSIGNMENT ( #157, #90, ( #104 ) ) ;
ENDSEC;
END-ISO-10303-21;
