ISO-10303-21;
HEADER;
FILE_DESCRIPTION (( 'STEP AP214' ),
    '1' );
FILE_NAME ('3079-E0W.STEP',
    '2009-12-23T16:29:11',
    ( 'Admin' ),
    ( 'Thorlabs, Inc.' ),
    'SwSTEP 2.0',
    'SolidWorks 2009',
    '' );
FILE_SCHEMA (( 'AUTOMOTIVE_DESIGN' ));
ENDSEC;

DATA;
#1 = EDGE_LOOP ( 'NONE', ( #4, #9 ) ) ;
#2 = ORIENTED_EDGE ( 'NONE', *, *, #8, .T. ) ;
#3 = EDGE_CURVE ( 'NONE', #12, #47, #70, .T. ) ;
#4 = ORIENTED_EDGE ( 'NONE', *, *, #46, .F. ) ;
#5 = CLOSED_SHELL ( 'NONE', ( #24, #34, #25, #16, #15 ) ) ;
#6 = ORIENTED_EDGE ( 'NONE', *, *, #3, .T. ) ;
#7 = EDGE_LOOP ( 'NONE', ( #31, #6, #73, #56, #55 ) ) ;
#8 = EDGE_CURVE ( 'NONE', #43, #20, #61, .T. ) ;
#9 = ORIENTED_EDGE ( 'NONE', *, *, #3, .F. ) ;
#10 = ORIENTED_EDGE ( 'NONE', *, *, #42, .F. ) ;
#11 = MANIFOLD_SOLID_BREP ( 'NONE', #5 ) ;
#12 = VERTEX_POINT ( 'NONE', #76 ) ;
#13 = ORIENTED_EDGE ( 'NONE', *, *, #14, .F. ) ;
#14 = EDGE_CURVE ( 'NONE', #37, #43, #111, .T. ) ;
#15 = ADVANCED_FACE ( 'NONE', ( #96 ), #93, .T. ) ;
#16 = ADVANCED_FACE ( 'NONE', ( #95 ), #121, .F. ) ;
#17 = ORIENTED_EDGE ( 'NONE', *, *, #42, .T. ) ;
#18 = EDGE_LOOP ( 'NONE', ( #27, #26, #28, #2 ) ) ;
#19 = ORIENTED_EDGE ( 'NONE', *, *, #33, .F. ) ;
#20 = VERTEX_POINT ( 'NONE', #148 ) ;
#21 = EDGE_LOOP ( 'NONE', ( #41, #39, #22, #17 ) ) ;
#22 = ORIENTED_EDGE ( 'NONE', *, *, #38, .T. ) ;
#23 = VERTEX_POINT ( 'NONE', #139 ) ;
#24 = ADVANCED_FACE ( 'NONE', ( #147 ), #166, .T. ) ;
#25 = ADVANCED_FACE ( 'NONE', ( #158 ), #199, .F. ) ;
#26 = ORIENTED_EDGE ( 'NONE', *, *, #35, .T. ) ;
#27 = ORIENTED_EDGE ( 'NONE', *, *, #40, .F. ) ;
#28 = ORIENTED_EDGE ( 'NONE', *, *, #14, .T. ) ;
#29 = VERTEX_POINT ( 'NONE', #196 ) ;
#30 = ORIENTED_EDGE ( 'NONE', *, *, #44, .T. ) ;
#31 = ORIENTED_EDGE ( 'NONE', *, *, #44, .F. ) ;
#32 =( GEOMETRIC_REPRESENTATION_CONTEXT ( 3 ) GLOBAL_UNCERTAINTY_ASSIGNED_CONTEXT ( ( #235 ) ) GLOBAL_UNIT_ASSIGNED_CONTEXT ( ( #247, #237, #236 ) ) REPRESENTATION_CONTEXT ( 'NONE', 'WORKASPACE' ) );
#33 = EDGE_CURVE ( 'NONE', #47, #23, #194, .T. ) ;
#34 = ADVANCED_FACE ( 'NONE', ( #178 ), #246, .F. ) ;
#35 = EDGE_CURVE ( 'NONE', #29, #37, #251, .T. ) ;
#36 = EDGE_LOOP ( 'NONE', ( #45, #30, #13, #10, #19 ) ) ;
#37 = VERTEX_POINT ( 'NONE', #213 ) ;
#38 = EDGE_CURVE ( 'NONE', #20, #23, #227, .T. ) ;
#39 = ORIENTED_EDGE ( 'NONE', *, *, #40, .T. ) ;
#40 = EDGE_CURVE ( 'NONE', #29, #20, #202, .T. ) ;
#41 = ORIENTED_EDGE ( 'NONE', *, *, #35, .F. ) ;
#42 = EDGE_CURVE ( 'NONE', #23, #37, #206, .T. ) ;
#43 = VERTEX_POINT ( 'NONE', #222 ) ;
#44 = EDGE_CURVE ( 'NONE', #12, #43, #232, .T. ) ;
#45 = ORIENTED_EDGE ( 'NONE', *, *, #46, .T. ) ;
#46 = EDGE_CURVE ( 'NONE', #47, #12, #233, .T. ) ;
#47 = VERTEX_POINT ( 'NONE', #241 ) ;
#48 = CARTESIAN_POINT ( 'NONE',  ( 0.0000000000000000000, 0.0000000000000000000, -0.02952755905511813800 ) ) ;
#49 = AXIS2_PLACEMENT_3D ( 'NONE', #48, #69, #68 ) ;
#50 = CARTESIAN_POINT ( 'NONE',  ( 0.0000000000000000000, 0.0000000000000000000, 0.07248219052450259600 ) ) ;
#51 = SURFACE_STYLE_USAGE ( .BOTH. , #52 ) ;
#52 = SURFACE_SIDE_STYLE ('',( #53 ) ) ;
#53 = SURFACE_STYLE_FILL_AREA ( #72 ) ;
#54 = ADVANCED_BREP_SHAPE_REPRESENTATION ( '3079-E0W', ( #11, #258 ), #32 ) ;
#55 = ORIENTED_EDGE ( 'NONE', *, *, #8, .F. ) ;
#56 = ORIENTED_EDGE ( 'NONE', *, *, #38, .F. ) ;
#57 = FILL_AREA_STYLE_COLOUR ( '', #71 ) ;
#58 = DIRECTION ( 'NONE',  ( 1.000000000000000000, 0.0000000000000000000, 0.0000000000000000000 ) ) ;
#59 = DIRECTION ( 'NONE',  ( -0.0000000000000000000, -0.0000000000000000000, 1.000000000000000000 ) ) ;
#60 = AXIS2_PLACEMENT_3D ( 'NONE', #50, #59, #58 ) ;
#61 = CIRCLE ( 'NONE', #60, 0.1181102362204724100 ) ;
#62 = DIMENSIONAL_EXPONENTS ( 1.000000000000000000, 0.0000000000000000000, 0.0000000000000000000, 0.0000000000000000000, 0.0000000000000000000, 0.0000000000000000000, 0.0000000000000000000 ) ;
#63 =( LENGTH_UNIT ( ) NAMED_UNIT ( * ) SI_UNIT ( $, .METRE. ) );
#64 = MECHANICAL_DESIGN_GEOMETRIC_PRESENTATION_REPRESENTATION (  '', ( #66 ), #77 ) ;
#65 = PRESENTATION_LAYER_ASSIGNMENT (  '', '', ( #66 ) ) ;
#66 = STYLED_ITEM ( 'NONE', ( #67 ), #11 ) ;
#67 = PRESENTATION_STYLE_ASSIGNMENT (( #51 ) ) ;
#68 = DIRECTION ( 'NONE',  ( 1.000000000000000000, 0.0000000000000000000, 0.0000000000000000000 ) ) ;
#69 = DIRECTION ( 'NONE',  ( -0.0000000000000000000, -0.0000000000000000000, 1.000000000000000000 ) ) ;
#70 = CIRCLE ( 'NONE', #49, 0.1181102362204724500 ) ;
#71 = COLOUR_RGB ( '',0.7529411764705882200, 0.7529411764705882200, 0.7529411764705882200 ) ;
#72 = FILL_AREA_STYLE ('',( #57 ) ) ;
#73 = ORIENTED_EDGE ( 'NONE', *, *, #33, .T. ) ;
#74 = UNCERTAINTY_MEASURE_WITH_UNIT (LENGTH_MEASURE( 1.000000000000000100E-005 ), #80, 'distance_accuracy_value', 'NONE');
#75 =( NAMED_UNIT ( * ) PLANE_ANGLE_UNIT ( ) SI_UNIT ( $, .RADIAN. ) );
#76 = CARTESIAN_POINT ( 'NONE',  ( -0.1181102362204724700, 1.446385457270524600E-017, -0.02952755905511813800 ) ) ;
#77 =( GEOMETRIC_REPRESENTATION_CONTEXT ( 3 ) GLOBAL_UNCERTAINTY_ASSIGNED_CONTEXT ( ( #74 ) ) GLOBAL_UNIT_ASSIGNED_CONTEXT ( ( #80, #75, #78 ) ) REPRESENTATION_CONTEXT ( 'NONE', 'WORKASPACE' ) );
#78 =( NAMED_UNIT ( * ) SI_UNIT ( $, .STERADIAN. ) SOLID_ANGLE_UNIT ( ) );
#79 = LENGTH_MEASURE_WITH_UNIT ( LENGTH_MEASURE( 0.02539999999999999900 ), #63 );
#80 =( CONVERSION_BASED_UNIT ( 'INCH', #79 ) LENGTH_UNIT ( ) NAMED_UNIT ( #62 ) );
#81 = DIRECTION ( 'NONE',  ( -0.0000000000000000000, -0.0000000000000000000, 1.000000000000000000 ) ) ;
#82 =( LENGTH_UNIT ( ) NAMED_UNIT ( * ) SI_UNIT ( $, .METRE. ) );
#83 = MECHANICAL_DESIGN_GEOMETRIC_PRESENTATION_REPRESENTATION (  '', ( #85 ), #133 ) ;
#84 = PRESENTATION_LAYER_ASSIGNMENT (  '', '', ( #85 ) ) ;
#85 = STYLED_ITEM ( 'NONE', ( #102 ), #16 ) ;
#86 = MECHANICAL_DESIGN_GEOMETRIC_PRESENTATION_REPRESENTATION (  '', ( #122 ), #89 ) ;
#87 = PRESENTATION_LAYER_ASSIGNMENT (  '', '', ( #122 ) ) ;
#88 =( NAMED_UNIT ( * ) PLANE_ANGLE_UNIT ( ) SI_UNIT ( $, .RADIAN. ) );
#89 =( GEOMETRIC_REPRESENTATION_CONTEXT ( 3 ) GLOBAL_UNCERTAINTY_ASSIGNED_CONTEXT ( ( #92 ) ) GLOBAL_UNIT_ASSIGNED_CONTEXT ( ( #113, #88, #98 ) ) REPRESENTATION_CONTEXT ( 'NONE', 'WORKASPACE' ) );
#90 = COLOUR_RGB ( '',1.000000000000000000, 1.000000000000000000, 1.000000000000000000 ) ;
#91 = DIRECTION ( 'NONE',  ( 1.000000000000000000, 0.0000000000000000000, 0.0000000000000000000 ) ) ;
#92 = UNCERTAINTY_MEASURE_WITH_UNIT (LENGTH_MEASURE( 1.000000000000000100E-005 ), #113, 'distance_accuracy_value', 'NONE');
#93 = CYLINDRICAL_SURFACE ( 'NONE', #128, 0.1181102362204724300 ) ;
#94 = COLOUR_RGB ( '',1.000000000000000000, 1.000000000000000000, 1.000000000000000000 ) ;
#95 = FACE_OUTER_BOUND ( 'NONE', #1, .T. ) ;
#96 = FACE_OUTER_BOUND ( 'NONE', #7, .T. ) ;
#97 = FILL_AREA_STYLE ('',( #115 ) ) ;
#98 =( NAMED_UNIT ( * ) SI_UNIT ( $, .STERADIAN. ) SOLID_ANGLE_UNIT ( ) );
#99 = CARTESIAN_POINT ( 'NONE',  ( 0.0000000000000000000, 0.0000000000000000000, 0.07248219052450259600 ) ) ;
#100 = SURFACE_STYLE_USAGE ( .BOTH. , #101 ) ;
#101 = SURFACE_SIDE_STYLE ('',( #130 ) ) ;
#102 = PRESENTATION_STYLE_ASSIGNMENT (( #103 ) ) ;
#103 = SURFACE_STYLE_USAGE ( .BOTH. , #104 ) ;
#104 = SURFACE_SIDE_STYLE ('',( #105 ) ) ;
#105 = SURFACE_STYLE_FILL_AREA ( #106 ) ;
#106 = FILL_AREA_STYLE ('',( #107 ) ) ;
#107 = FILL_AREA_STYLE_COLOUR ( '', #94 ) ;
#108 = DIRECTION ( 'NONE',  ( 1.000000000000000000, 0.0000000000000000000, 0.0000000000000000000 ) ) ;
#109 = DIRECTION ( 'NONE',  ( -0.0000000000000000000, -0.0000000000000000000, 1.000000000000000000 ) ) ;
#110 = AXIS2_PLACEMENT_3D ( 'NONE', #99, #81, #91 ) ;
#111 = CIRCLE ( 'NONE', #110, 0.1181102362204724100 ) ;
#112 = DIMENSIONAL_EXPONENTS ( 1.000000000000000000, 0.0000000000000000000, 0.0000000000000000000, 0.0000000000000000000, 0.0000000000000000000, 0.0000000000000000000, 0.0000000000000000000 ) ;
#113 =( CONVERSION_BASED_UNIT ( 'INCH', #114 ) LENGTH_UNIT ( ) NAMED_UNIT ( #112 ) );
#114 = LENGTH_MEASURE_WITH_UNIT ( LENGTH_MEASURE( 0.02539999999999999900 ), #129 );
#115 = FILL_AREA_STYLE_COLOUR ( '', #90 ) ;
#116 = DIRECTION ( 'NONE',  ( 1.000000000000000000, 0.0000000000000000000, 0.0000000000000000000 ) ) ;
#117 = DIRECTION ( 'NONE',  ( 0.0000000000000000000, -0.0000000000000000000, 1.000000000000000000 ) ) ;
#118 = CARTESIAN_POINT ( 'NONE',  ( 0.0000000000000000000, 1.084824920504545000E-017, -0.02952755905511811300 ) ) ;
#119 = AXIS2_PLACEMENT_3D ( 'NONE', #118, #117, #116 ) ;
#120 = DIMENSIONAL_EXPONENTS ( 1.000000000000000000, 0.0000000000000000000, 0.0000000000000000000, 0.0000000000000000000, 0.0000000000000000000, 0.0000000000000000000, 0.0000000000000000000 ) ;
#121 = PLANE ( 'NONE',  #119 ) ;
#122 = STYLED_ITEM ( 'NONE', ( #123 ), #15 ) ;
#123 = PRESENTATION_STYLE_ASSIGNMENT (( #100 ) ) ;
#124 =( CONVERSION_BASED_UNIT ( 'INCH', #125 ) LENGTH_UNIT ( ) NAMED_UNIT ( #126 ) );
#125 = LENGTH_MEASURE_WITH_UNIT ( LENGTH_MEASURE( 0.02539999999999999900 ), #82 );
#126 = DIMENSIONAL_EXPONENTS ( 1.000000000000000000, 0.0000000000000000000, 0.0000000000000000000, 0.0000000000000000000, 0.0000000000000000000, 0.0000000000000000000, 0.0000000000000000000 ) ;
#127 = CARTESIAN_POINT ( 'NONE',  ( 0.0000000000000000000, 0.0000000000000000000, 0.3550060342688710600 ) ) ;
#128 = AXIS2_PLACEMENT_3D ( 'NONE', #127, #109, #108 ) ;
#129 =( LENGTH_UNIT ( ) NAMED_UNIT ( * ) SI_UNIT ( $, .METRE. ) );
#130 = SURFACE_STYLE_FILL_AREA ( #97 ) ;
#131 =( NAMED_UNIT ( * ) SI_UNIT ( $, .STERADIAN. ) SOLID_ANGLE_UNIT ( ) );
#132 =( NAMED_UNIT ( * ) PLANE_ANGLE_UNIT ( ) SI_UNIT ( $, .RADIAN. ) );
#133 =( GEOMETRIC_REPRESENTATION_CONTEXT ( 3 ) GLOBAL_UNCERTAINTY_ASSIGNED_CONTEXT ( ( #134 ) ) GLOBAL_UNIT_ASSIGNED_CONTEXT ( ( #124, #132, #131 ) ) REPRESENTATION_CONTEXT ( 'NONE', 'WORKASPACE' ) );
#134 = UNCERTAINTY_MEASURE_WITH_UNIT (LENGTH_MEASURE( 1.000000000000000100E-005 ), #124, 'distance_accuracy_value', 'NONE');
#135 = SURFACE_SIDE_STYLE ('',( #136 ) ) ;
#136 = SURFACE_STYLE_FILL_AREA ( #137 ) ;
#137 = FILL_AREA_STYLE ('',( #138 ) ) ;
#138 = FILL_AREA_STYLE_COLOUR ( '', #146 ) ;
#139 = CARTESIAN_POINT ( 'NONE',  ( 0.1181102362204724100, 0.0000000000000000000, 0.07248219052450259600 ) ) ;
#140 = PRESENTATION_LAYER_ASSIGNMENT (  '', '', ( #141 ) ) ;
#141 = STYLED_ITEM ( 'NONE', ( #142 ), #24 ) ;
#142 = PRESENTATION_STYLE_ASSIGNMENT (( #143 ) ) ;
#143 = SURFACE_STYLE_USAGE ( .BOTH. , #135 ) ;
#144 =( LENGTH_UNIT ( ) NAMED_UNIT ( * ) SI_UNIT ( $, .METRE. ) );
#145 = MECHANICAL_DESIGN_GEOMETRIC_PRESENTATION_REPRESENTATION (  '', ( #141 ), #167 ) ;
#146 = COLOUR_RGB ( '',1.000000000000000000, 1.000000000000000000, 1.000000000000000000 ) ;
#147 = FACE_OUTER_BOUND ( 'NONE', #36, .T. ) ;
#148 = CARTESIAN_POINT ( 'NONE',  ( -1.446385457270523900E-017, -0.1181102362204724100, 0.07248219052450261000 ) ) ;
#149 = LENGTH_MEASURE_WITH_UNIT ( LENGTH_MEASURE( 0.02539999999999999900 ), #144 );
#150 = DIRECTION ( 'NONE',  ( -0.0000000000000000000, -0.0000000000000000000, 1.000000000000000000 ) ) ;
#151 = CARTESIAN_POINT ( 'NONE',  ( 0.0000000000000000000, 0.0000000000000000000, 0.3550060342688710600 ) ) ;
#152 = AXIS2_PLACEMENT_3D ( 'NONE', #151, #150, #159 ) ;
#153 =( NAMED_UNIT ( * ) SI_UNIT ( $, .STERADIAN. ) SOLID_ANGLE_UNIT ( ) );
#154 = SURFACE_STYLE_FILL_AREA ( #155 ) ;
#155 = FILL_AREA_STYLE ('',( #156 ) ) ;
#156 = FILL_AREA_STYLE_COLOUR ( '', #157 ) ;
#157 = COLOUR_RGB ( '',1.000000000000000000, 1.000000000000000000, 1.000000000000000000 ) ;
#158 = FACE_OUTER_BOUND ( 'NONE', #18, .T. ) ;
#159 = DIRECTION ( 'NONE',  ( 1.000000000000000000, 0.0000000000000000000, 0.0000000000000000000 ) ) ;
#160 =( CONVERSION_BASED_UNIT ( 'INCH', #149 ) LENGTH_UNIT ( ) NAMED_UNIT ( #120 ) );
#161 =( NAMED_UNIT ( * ) PLANE_ANGLE_UNIT ( ) SI_UNIT ( $, .RADIAN. ) );
#162 = STYLED_ITEM ( 'NONE', ( #163 ), #25 ) ;
#163 = PRESENTATION_STYLE_ASSIGNMENT (( #164 ) ) ;
#164 = SURFACE_STYLE_USAGE ( .BOTH. , #165 ) ;
#165 = SURFACE_SIDE_STYLE ('',( #154 ) ) ;
#166 = CYLINDRICAL_SURFACE ( 'NONE', #152, 0.1181102362204724300 ) ;
#167 =( GEOMETRIC_REPRESENTATION_CONTEXT ( 3 ) GLOBAL_UNCERTAINTY_ASSIGNED_CONTEXT ( ( #173 ) ) GLOBAL_UNIT_ASSIGNED_CONTEXT ( ( #160, #161, #153 ) ) REPRESENTATION_CONTEXT ( 'NONE', 'WORKASPACE' ) );
#168 =( NAMED_UNIT ( * ) SI_UNIT ( $, .STERADIAN. ) SOLID_ANGLE_UNIT ( ) );
#169 =( NAMED_UNIT ( * ) PLANE_ANGLE_UNIT ( ) SI_UNIT ( $, .RADIAN. ) );
#170 =( CONVERSION_BASED_UNIT ( 'INCH', #171 ) LENGTH_UNIT ( ) NAMED_UNIT ( #172 ) );
#171 = LENGTH_MEASURE_WITH_UNIT ( LENGTH_MEASURE( 0.02539999999999999900 ), #174 );
#172 = DIMENSIONAL_EXPONENTS ( 1.000000000000000000, 0.0000000000000000000, 0.0000000000000000000, 0.0000000000000000000, 0.0000000000000000000, 0.0000000000000000000, 0.0000000000000000000 ) ;
#173 = UNCERTAINTY_MEASURE_WITH_UNIT (LENGTH_MEASURE( 1.000000000000000100E-005 ), #160, 'distance_accuracy_value', 'NONE');
#174 =( LENGTH_UNIT ( ) NAMED_UNIT ( * ) SI_UNIT ( $, .METRE. ) );
#175 = MECHANICAL_DESIGN_GEOMETRIC_PRESENTATION_REPRESENTATION (  '', ( #162 ), #197 ) ;
#176 = PRESENTATION_LAYER_ASSIGNMENT (  '', '', ( #162 ) ) ;
#177 = COLOUR_RGB ( '',1.000000000000000000, 1.000000000000000000, 1.000000000000000000 ) ;
#178 = FACE_OUTER_BOUND ( 'NONE', #21, .T. ) ;
#179 = DIRECTION ( 'NONE',  ( -0.0000000000000000000, -0.0000000000000000000, 1.000000000000000000 ) ) ;
#180 = VECTOR ( 'NONE', #179, 39.37007874015748100 ) ;
#181 = CARTESIAN_POINT ( 'NONE',  ( 0.1181102362204724300, 0.0000000000000000000, 0.3550060342688710600 ) ) ;
#182 =( LENGTH_UNIT ( ) NAMED_UNIT ( * ) SI_UNIT ( $, .METRE. ) );
#183 = MECHANICAL_DESIGN_GEOMETRIC_PRESENTATION_REPRESENTATION (  '', ( #185 ), #216 ) ;
#184 = PRESENTATION_LAYER_ASSIGNMENT (  '', '', ( #185 ) ) ;
#185 = STYLED_ITEM ( 'NONE', ( #186 ), #34 ) ;
#186 = PRESENTATION_STYLE_ASSIGNMENT (( #187 ) ) ;
#187 = SURFACE_STYLE_USAGE ( .BOTH. , #188 ) ;
#188 = SURFACE_SIDE_STYLE ('',( #189 ) ) ;
#189 = SURFACE_STYLE_FILL_AREA ( #190 ) ;
#190 = FILL_AREA_STYLE ('',( #195 ) ) ;
#191 = DIRECTION ( 'NONE',  ( 0.0000000000000000000, 1.000000000000000000, 0.0000000000000000000 ) ) ;
#192 = DIRECTION ( 'NONE',  ( -1.000000000000000000, 0.0000000000000000000, 0.0000000000000000000 ) ) ;
#193 = CARTESIAN_POINT ( 'NONE',  ( 0.0000000000000000000, 0.0000000000000000000, 0.2133858267716535200 ) ) ;
#194 = LINE ( 'NONE', #181, #180 ) ;
#195 = FILL_AREA_STYLE_COLOUR ( '', #177 ) ;
#196 = CARTESIAN_POINT ( 'NONE',  ( 0.0000000000000000000, 1.125770014242224600E-017, 0.02952755905511810300 ) ) ;
#197 =( GEOMETRIC_REPRESENTATION_CONTEXT ( 3 ) GLOBAL_UNCERTAINTY_ASSIGNED_CONTEXT ( ( #200 ) ) GLOBAL_UNIT_ASSIGNED_CONTEXT ( ( #170, #169, #168 ) ) REPRESENTATION_CONTEXT ( 'NONE', 'WORKASPACE' ) );
#198 = AXIS2_PLACEMENT_3D ( 'NONE', #193, #192, #191 ) ;
#199 = SPHERICAL_SURFACE ( 'NONE', #198, 0.1838582677165354300 ) ;
#200 = UNCERTAINTY_MEASURE_WITH_UNIT (LENGTH_MEASURE( 1.000000000000000100E-005 ), #170, 'distance_accuracy_value', 'NONE');
#201 = CARTESIAN_POINT ( 'NONE',  ( 0.0000000000000000000, 0.0000000000000000000, 0.07248219052450259600 ) ) ;
#202 = CIRCLE ( 'NONE', #221, 0.1838582677165354300 ) ;
#203 = DIRECTION ( 'NONE',  ( -0.0000000000000000000, -0.0000000000000000000, 1.000000000000000000 ) ) ;
#204 = CARTESIAN_POINT ( 'NONE',  ( 0.0000000000000000000, 0.0000000000000000000, 0.07248219052450259600 ) ) ;
#205 = AXIS2_PLACEMENT_3D ( 'NONE', #204, #203, #223 ) ;
#206 = CIRCLE ( 'NONE', #205, 0.1181102362204724100 ) ;
#207 =( NAMED_UNIT ( * ) PLANE_ANGLE_UNIT ( ) SI_UNIT ( $, .RADIAN. ) );
#208 = DIRECTION ( 'NONE',  ( 0.0000000000000000000, 1.000000000000000000, 0.0000000000000000000 ) ) ;
#209 = DIRECTION ( 'NONE',  ( -1.000000000000000000, 0.0000000000000000000, 0.0000000000000000000 ) ) ;
#210 = AXIS2_PLACEMENT_3D ( 'NONE', #212, #209, #208 ) ;
#211 =( LENGTH_UNIT ( ) NAMED_UNIT ( * ) SI_UNIT ( $, .METRE. ) );
#212 = CARTESIAN_POINT ( 'NONE',  ( 0.0000000000000000000, 0.0000000000000000000, 0.2133858267716535200 ) ) ;
#213 = CARTESIAN_POINT ( 'NONE',  ( 0.0000000000000000000, 0.1181102362204724100, 0.07248219052450261000 ) ) ;
#214 = DIRECTION ( 'NONE',  ( 0.0000000000000000000, 0.0000000000000000000, -1.000000000000000000 ) ) ;
#215 = DIRECTION ( 'NONE',  ( 1.000000000000000000, 0.0000000000000000000, 0.0000000000000000000 ) ) ;
#216 =( GEOMETRIC_REPRESENTATION_CONTEXT ( 3 ) GLOBAL_UNCERTAINTY_ASSIGNED_CONTEXT ( ( #217 ) ) GLOBAL_UNIT_ASSIGNED_CONTEXT ( ( #224, #207, #240 ) ) REPRESENTATION_CONTEXT ( 'NONE', 'WORKASPACE' ) );
#217 = UNCERTAINTY_MEASURE_WITH_UNIT (LENGTH_MEASURE( 1.000000000000000100E-005 ), #224, 'distance_accuracy_value', 'NONE');
#218 = CARTESIAN_POINT ( 'NONE',  ( 0.0000000000000000000, 0.0000000000000000000, 0.2133858267716535200 ) ) ;
#219 = DIRECTION ( 'NONE',  ( -1.224606353822377000E-016, -1.000000000000000000, 0.0000000000000000000 ) ) ;
#220 = DIRECTION ( 'NONE',  ( -1.000000000000000000, 1.224606353822377300E-016, 0.0000000000000000000 ) ) ;
#221 = AXIS2_PLACEMENT_3D ( 'NONE', #228, #220, #219 ) ;
#222 = CARTESIAN_POINT ( 'NONE',  ( -0.1181102362204724100, 1.446385457270524200E-017, 0.07248219052450259600 ) ) ;
#223 = DIRECTION ( 'NONE',  ( 1.000000000000000000, 0.0000000000000000000, 0.0000000000000000000 ) ) ;
#224 =( CONVERSION_BASED_UNIT ( 'INCH', #225 ) LENGTH_UNIT ( ) NAMED_UNIT ( #234 ) );
#225 = LENGTH_MEASURE_WITH_UNIT ( LENGTH_MEASURE( 0.02539999999999999900 ), #182 );
#226 = AXIS2_PLACEMENT_3D ( 'NONE', #201, #239, #238 ) ;
#227 = CIRCLE ( 'NONE', #226, 0.1181102362204724100 ) ;
#228 = CARTESIAN_POINT ( 'NONE',  ( 0.0000000000000000000, 0.0000000000000000000, 0.2133858267716535200 ) ) ;
#229 = DIRECTION ( 'NONE',  ( -0.0000000000000000000, -0.0000000000000000000, 1.000000000000000000 ) ) ;
#230 = VECTOR ( 'NONE', #229, 39.37007874015748100 ) ;
#231 = CARTESIAN_POINT ( 'NONE',  ( -0.1181102362204724300, 1.446385457270524200E-017, 0.3550060342688710600 ) ) ;
#232 = LINE ( 'NONE', #231, #230 ) ;
#233 = CIRCLE ( 'NONE', #245, 0.1181102362204724500 ) ;
#234 = DIMENSIONAL_EXPONENTS ( 1.000000000000000000, 0.0000000000000000000, 0.0000000000000000000, 0.0000000000000000000, 0.0000000000000000000, 0.0000000000000000000, 0.0000000000000000000 ) ;
#235 = UNCERTAINTY_MEASURE_WITH_UNIT (LENGTH_MEASURE( 1.000000000000000100E-005 ), #247, 'distance_accuracy_value', 'NONE');
#236 =( NAMED_UNIT ( * ) SI_UNIT ( $, .STERADIAN. ) SOLID_ANGLE_UNIT ( ) );
#237 =( NAMED_UNIT ( * ) PLANE_ANGLE_UNIT ( ) SI_UNIT ( $, .RADIAN. ) );
#238 = DIRECTION ( 'NONE',  ( 1.000000000000000000, 0.0000000000000000000, 0.0000000000000000000 ) ) ;
#239 = DIRECTION ( 'NONE',  ( -0.0000000000000000000, -0.0000000000000000000, 1.000000000000000000 ) ) ;
#240 =( NAMED_UNIT ( * ) SI_UNIT ( $, .STERADIAN. ) SOLID_ANGLE_UNIT ( ) );
#241 = CARTESIAN_POINT ( 'NONE',  ( 0.1181102362204724500, 0.0000000000000000000, -0.02952755905511813800 ) ) ;
#242 = DIRECTION ( 'NONE',  ( 1.000000000000000000, 0.0000000000000000000, 0.0000000000000000000 ) ) ;
#243 = DIRECTION ( 'NONE',  ( -0.0000000000000000000, -0.0000000000000000000, 1.000000000000000000 ) ) ;
#244 = CARTESIAN_POINT ( 'NONE',  ( 0.0000000000000000000, 0.0000000000000000000, -0.02952755905511813800 ) ) ;
#245 = AXIS2_PLACEMENT_3D ( 'NONE', #244, #243, #242 ) ;
#246 = SPHERICAL_SURFACE ( 'NONE', #210, 0.1838582677165354300 ) ;
#247 =( CONVERSION_BASED_UNIT ( 'INCH', #248 ) LENGTH_UNIT ( ) NAMED_UNIT ( #249 ) );
#248 = LENGTH_MEASURE_WITH_UNIT ( LENGTH_MEASURE( 0.02539999999999999900 ), #211 );
#249 = DIMENSIONAL_EXPONENTS ( 1.000000000000000000, 0.0000000000000000000, 0.0000000000000000000, 0.0000000000000000000, 0.0000000000000000000, 0.0000000000000000000, 0.0000000000000000000 ) ;
#250 = AXIS2_PLACEMENT_3D ( 'NONE', #218, #215, #214 ) ;
#251 = CIRCLE ( 'NONE', #250, 0.1838582677165354300 ) ;
#252 = UNCERTAINTY_MEASURE_WITH_UNIT (LENGTH_MEASURE( 1.000000000000000100E-005 ), #255, 'distance_accuracy_value', 'NONE');
#253 =( NAMED_UNIT ( * ) SI_UNIT ( $, .STERADIAN. ) SOLID_ANGLE_UNIT ( ) );
#254 =( NAMED_UNIT ( * ) PLANE_ANGLE_UNIT ( ) SI_UNIT ( $, .RADIAN. ) );
#255 =( CONVERSION_BASED_UNIT ( 'INCH', #256 ) LENGTH_UNIT ( ) NAMED_UNIT ( #257 ) );
#256 = LENGTH_MEASURE_WITH_UNIT ( LENGTH_MEASURE( 0.02539999999999999900 ), #268 );
#257 = DIMENSIONAL_EXPONENTS ( 1.000000000000000000, 0.0000000000000000000, 0.0000000000000000000, 0.0000000000000000000, 0.0000000000000000000, 0.0000000000000000000, 0.0000000000000000000 ) ;
#258 = AXIS2_PLACEMENT_3D ( 'NONE', #261, #259, #260 ) ;
#259 = DIRECTION ( 'NONE',  ( 0.0000000000000000000, 0.0000000000000000000, 1.000000000000000000 ) ) ;
#260 = DIRECTION ( 'NONE',  ( 1.000000000000000000, 0.0000000000000000000, 0.0000000000000000000 ) ) ;
#261 = CARTESIAN_POINT ( 'NONE',  ( 0.0000000000000000000, 0.0000000000000000000, 0.0000000000000000000 ) ) ;
#262 =( GEOMETRIC_REPRESENTATION_CONTEXT ( 3 ) GLOBAL_UNCERTAINTY_ASSIGNED_CONTEXT ( ( #252 ) ) GLOBAL_UNIT_ASSIGNED_CONTEXT ( ( #255, #254, #253 ) ) REPRESENTATION_CONTEXT ( 'NONE', 'WORKASPACE' ) );
#263 = SURFACE_SIDE_STYLE ('',( #264 ) ) ;
#264 = SURFACE_STYLE_FILL_AREA ( #265 ) ;
#265 = FILL_AREA_STYLE ('',( #266 ) ) ;
#266 = FILL_AREA_STYLE_COLOUR ( '', #267 ) ;
#267 = COLOUR_RGB ( '',0.7529411764705882200, 0.7529411764705882200, 0.7529411764705882200 ) ;
#268 =( LENGTH_UNIT ( ) NAMED_UNIT ( * ) SI_UNIT ( $, .METRE. ) );
#269 = MECHANICAL_DESIGN_GEOMETRIC_PRESENTATION_REPRESENTATION (  '', ( #271 ), #262 ) ;
#270 = PRESENTATION_LAYER_ASSIGNMENT (  '', '', ( #271 ) ) ;
#271 = STYLED_ITEM ( 'NONE', ( #272 ), #54 ) ;
#272 = PRESENTATION_STYLE_ASSIGNMENT (( #273 ) ) ;
#273 = SURFACE_STYLE_USAGE ( .BOTH. , #263 ) ;
#274 = PRODUCT_RELATED_PRODUCT_CATEGORY ( 'part', '', ( #281 ) ) ;
#275 = PRODUCT_DEFINITION_FORMATION_WITH_SPECIFIED_SOURCE ( 'ANY', '', #281, .NOT_KNOWN. ) ;
#276 = PRODUCT_DEFINITION_SHAPE ( 'NONE', 'NONE',  #277 ) ;
#277 = PRODUCT_DEFINITION ( 'UNKNOWN', '', #275, #278 ) ;
#278 = PRODUCT_DEFINITION_CONTEXT ( 'detailed design', #280, 'design' ) ;
#279 = APPLICATION_PROTOCOL_DEFINITION ( 'draft international standard', 'automotive_design', 1998, #280 ) ;
#280 = APPLICATION_CONTEXT ( 'automotive_design' ) ;
#281 = PRODUCT ( '3079-E0W', '3079-E0W', '', ( #282 ) ) ;
#282 = PRODUCT_CONTEXT ( 'NONE', #284, 'mechanical' ) ;
#283 = APPLICATION_PROTOCOL_DEFINITION ( 'draft international standard', 'automotive_design', 1998, #284 ) ;
#284 = APPLICATION_CONTEXT ( 'automotive_design' ) ;
#285 = SHAPE_DEFINITION_REPRESENTATION ( #276, #54 ) ;
ENDSEC;
END-ISO-10303-21;
