ISO-10303-21;
HEADER;
FILE_DESCRIPTION (( 'STEP AP203' ),
    '1' );
FILE_NAME ('Web Model 36656MX_36658.step',
    '2017-10-31T14:04:27',
    ( '' ),
    ( '' ),
    'SwSTEP 2.0',
    'SolidWorks 2016',
    '' );
FILE_SCHEMA (( 'CONFIG_CONTROL_DESIGN' ));
ENDSEC;

DATA;
#1 = VERTEX_POINT ( 'NONE', #130 ) ;
#2 = CARTESIAN_POINT ( 'NONE',  ( -12.50000000000000000, 0.0000000000000000000, 1.000000000000000000 ) ) ;
#3 = LOCAL_TIME ( 10, 4, 27.00000000000000000, #84 ) ;
#4 = CIRCLE ( 'NONE', #135, 12.50000000000000000 ) ;
#5 = PRODUCT_DEFINITION_FORMATION_WITH_SPECIFIED_SOURCE ( 'ANY', '', #100, .NOT_KNOWN. ) ;
#6 = AXIS2_PLACEMENT_3D ( 'NONE', #155, #170, #116 ) ;
#7 = PERSON_AND_ORGANIZATION_ROLE ( 'classification_officer' ) ;
#8 = CYLINDRICAL_SURFACE ( 'NONE', #161, 12.50000000000000000 ) ;
#9 = CARTESIAN_POINT ( 'NONE',  ( 12.50000000000000000, 1.530808498934191500E-015, -1.000000000000000000 ) ) ;
#10 = CC_DESIGN_DATE_AND_TIME_ASSIGNMENT ( #101, #145, ( #138 ) ) ;
#11 = DIRECTION ( 'NONE',  ( -1.000000000000000000, 0.0000000000000000000, 0.0000000000000000000 ) ) ;
#12 = EDGE_LOOP ( 'NONE', ( #41, #16 ) ) ;
#13 = PRODUCT_RELATED_PRODUCT_CATEGORY ( 'detail', '', ( #100 ) ) ;
#14 = DATE_AND_TIME ( #54, #173 ) ;
#15 = ORIENTED_EDGE ( 'NONE', *, *, #92, .F. ) ;
#16 = ORIENTED_EDGE ( 'NONE', *, *, #92, .T. ) ;
#17 = APPROVAL_PERSON_ORGANIZATION ( #125, #29, #35 ) ;
#18 = APPROVAL_STATUS ( 'not_yet_approved' ) ;
#19 = ADVANCED_BREP_SHAPE_REPRESENTATION ( 'Web Model 36656MX_36658', ( #126, #156 ), #99 ) ;
#20 = APPLICATION_PROTOCOL_DEFINITION ( 'international standard', 'config_control_design', 1994, #61 ) ;
#21 = ORIENTED_EDGE ( 'NONE', *, *, #103, .F. ) ;
#22 = DIRECTION ( 'NONE',  ( 1.000000000000000000, 0.0000000000000000000, 0.0000000000000000000 ) ) ;
#23 = CLOSED_SHELL ( 'NONE', ( #30, #72, #45, #69 ) ) ;
#24 = DIRECTION ( 'NONE',  ( 0.0000000000000000000, 0.0000000000000000000, 1.000000000000000000 ) ) ;
#25 = PRODUCT_DEFINITION_SHAPE ( 'NONE', 'NONE',  #138 ) ;
#26 = CALENDAR_DATE ( 2017, 31, 10 ) ;
#27 = CIRCLE ( 'NONE', #167, 12.50000000000000000 ) ;
#28 = SHAPE_DEFINITION_REPRESENTATION ( #25, #19 ) ;
#29 = APPROVAL ( #159, 'UNSPECIFIED' ) ;
#30 = ADVANCED_FACE ( 'NONE', ( #63 ), #81, .T. ) ;
#31 = PERSON_AND_ORGANIZATION ( #39, #117 ) ;
#32 = PLANE ( 'NONE',  #164 ) ;
#33 = APPROVAL_ROLE ( '' ) ;
#34 = CARTESIAN_POINT ( 'NONE',  ( 0.0000000000000000000, 0.0000000000000000000, 1.000000000000000000 ) ) ;
#35 = APPROVAL_ROLE ( '' ) ;
#36 =( NAMED_UNIT ( * ) SI_UNIT ( $, .STERADIAN. ) SOLID_ANGLE_UNIT ( ) );
#37 = CC_DESIGN_APPROVAL ( #82, ( #5 ) ) ;
#38 = APPLICATION_PROTOCOL_DEFINITION ( 'international standard', 'config_control_design', 1994, #143 ) ;
#39 = PERSON ( 'UNSPECIFIED', 'UNSPECIFIED', 'UNSPECIFIED', ('UNSPECIFIED'), ('UNSPECIFIED'), ('UNSPECIFIED') ) ;
#40 = APPROVAL_PERSON_ORGANIZATION ( #42, #148, #33 ) ;
#41 = ORIENTED_EDGE ( 'NONE', *, *, #60, .T. ) ;
#42 = PERSON_AND_ORGANIZATION ( #39, #117 ) ;
#43 = FACE_OUTER_BOUND ( 'NONE', #154, .T. ) ;
#44 = CARTESIAN_POINT ( 'NONE',  ( -12.50000000000000000, 0.0000000000000000000, -1.000000000000000000 ) ) ;
#45 = ADVANCED_FACE ( 'NONE', ( #152 ), #32, .T. ) ;
#46 = CC_DESIGN_PERSON_AND_ORGANIZATION_ASSIGNMENT ( #127, #136, ( #5 ) ) ;
#47 = ORIENTED_EDGE ( 'NONE', *, *, #70, .F. ) ;
#48 = CARTESIAN_POINT ( 'NONE',  ( 0.0000000000000000000, 0.0000000000000000000, 1.000000000000000000 ) ) ;
#49 = CARTESIAN_POINT ( 'NONE',  ( 0.0000000000000000000, 0.0000000000000000000, 0.0000000000000000000 ) ) ;
#50 =( LENGTH_UNIT ( ) NAMED_UNIT ( * ) SI_UNIT ( .MILLI., .METRE. ) );
#51 = LOCAL_TIME ( 10, 4, 27.00000000000000000, #122 ) ;
#52 = PERSON_AND_ORGANIZATION_ROLE ( 'design_supplier' ) ;
#53 = DIRECTION ( 'NONE',  ( -0.0000000000000000000, -0.0000000000000000000, -1.000000000000000000 ) ) ;
#54 = CALENDAR_DATE ( 2017, 31, 10 ) ;
#55 = DATE_AND_TIME ( #93, #3 ) ;
#56 = CC_DESIGN_PERSON_AND_ORGANIZATION_ASSIGNMENT ( #65, #89, ( #100 ) ) ;
#57 = LOCAL_TIME ( 10, 4, 27.00000000000000000, #80 ) ;
#58 = ORIENTED_EDGE ( 'NONE', *, *, #60, .F. ) ;
#59 = DIRECTION ( 'NONE',  ( 1.000000000000000000, 0.0000000000000000000, -0.0000000000000000000 ) ) ;
#60 = EDGE_CURVE ( 'NONE', #150, #1, #27, .T. ) ;
#61 = APPLICATION_CONTEXT ( 'configuration controlled 3d designs of mechanical parts and assemblies' ) ;
#62 = DIRECTION ( 'NONE',  ( 1.000000000000000000, 0.0000000000000000000, 0.0000000000000000000 ) ) ;
#63 = FACE_OUTER_BOUND ( 'NONE', #98, .T. ) ;
#64 = DIRECTION ( 'NONE',  ( 1.000000000000000000, 0.0000000000000000000, 0.0000000000000000000 ) ) ;
#65 = PERSON_AND_ORGANIZATION ( #39, #117 ) ;
#66 = VECTOR ( 'NONE', #75, 1000.000000000000000 ) ;
#67 = ORIENTED_EDGE ( 'NONE', *, *, #149, .F. ) ;
#68 = ORIENTED_EDGE ( 'NONE', *, *, #79, .T. ) ;
#69 = ADVANCED_FACE ( 'NONE', ( #43 ), #96, .F. ) ;
#70 = EDGE_CURVE ( 'NONE', #150, #71, #102, .T. ) ;
#71 = VERTEX_POINT ( 'NONE', #44 ) ;
#72 = ADVANCED_FACE ( 'NONE', ( #140 ), #8, .T. ) ;
#73 = COORDINATED_UNIVERSAL_TIME_OFFSET ( 5, 0, .BEHIND. ) ;
#74 = CIRCLE ( 'NONE', #124, 12.50000000000000000 ) ;
#75 = DIRECTION ( 'NONE',  ( -0.0000000000000000000, -0.0000000000000000000, -1.000000000000000000 ) ) ;
#76 = CIRCLE ( 'NONE', #169, 12.50000000000000000 ) ;
#77 =( NAMED_UNIT ( * ) PLANE_ANGLE_UNIT ( ) SI_UNIT ( $, .RADIAN. ) );
#78 = DIRECTION ( 'NONE',  ( -0.0000000000000000000, -0.0000000000000000000, -1.000000000000000000 ) ) ;
#79 = EDGE_CURVE ( 'NONE', #134, #71, #76, .T. ) ;
#80 = COORDINATED_UNIVERSAL_TIME_OFFSET ( 5, 0, .BEHIND. ) ;
#81 = CYLINDRICAL_SURFACE ( 'NONE', #6, 12.50000000000000000 ) ;
#82 = APPROVAL ( #144, 'UNSPECIFIED' ) ;
#83 = PERSON_AND_ORGANIZATION ( #39, #117 ) ;
#84 = COORDINATED_UNIVERSAL_TIME_OFFSET ( 5, 0, .BEHIND. ) ;
#85 = CC_DESIGN_DATE_AND_TIME_ASSIGNMENT ( #14, #104, ( #87 ) ) ;
#86 = LOCAL_TIME ( 10, 4, 27.00000000000000000, #114 ) ;
#87 = SECURITY_CLASSIFICATION ( '', '', #131 ) ;
#88 = PERSON_AND_ORGANIZATION ( #39, #117 ) ;
#89 = PERSON_AND_ORGANIZATION_ROLE ( 'design_owner' ) ;
#90 = CARTESIAN_POINT ( 'NONE',  ( 0.0000000000000000000, 0.0000000000000000000, 1.000000000000000000 ) ) ;
#91 = DIRECTION ( 'NONE',  ( 1.000000000000000000, 0.0000000000000000000, 0.0000000000000000000 ) ) ;
#92 = EDGE_CURVE ( 'NONE', #1, #150, #4, .T. ) ;
#93 = CALENDAR_DATE ( 2017, 31, 10 ) ;
#94 = DIRECTION ( 'NONE',  ( 0.0000000000000000000, 0.0000000000000000000, 1.000000000000000000 ) ) ;
#95 = ORIENTED_EDGE ( 'NONE', *, *, #149, .T. ) ;
#96 = PLANE ( 'NONE',  #151 ) ;
#97 = CALENDAR_DATE ( 2017, 31, 10 ) ;
#98 = EDGE_LOOP ( 'NONE', ( #15, #95, #68, #47 ) ) ;
#99 =( GEOMETRIC_REPRESENTATION_CONTEXT ( 3 ) GLOBAL_UNCERTAINTY_ASSIGNED_CONTEXT ( ( #172 ) ) GLOBAL_UNIT_ASSIGNED_CONTEXT ( ( #50, #77, #36 ) ) REPRESENTATION_CONTEXT ( 'NONE', 'WORKASPACE' ) );
#100 = PRODUCT ( 'Web Model 36656MX_36658', 'Web Model 36656MX_36658', '', ( #132 ) ) ;
#101 = DATE_AND_TIME ( #97, #51 ) ;
#102 = LINE ( 'NONE', #2, #168 ) ;
#103 = EDGE_CURVE ( 'NONE', #71, #134, #74, .T. ) ;
#104 = DATE_TIME_ROLE ( 'classification_date' ) ;
#105 = DIRECTION ( 'NONE',  ( 1.000000000000000000, 0.0000000000000000000, -0.0000000000000000000 ) ) ;
#106 = ORIENTED_EDGE ( 'NONE', *, *, #103, .T. ) ;
#107 = DIRECTION ( 'NONE',  ( 0.0000000000000000000, 0.0000000000000000000, 1.000000000000000000 ) ) ;
#108 = DESIGN_CONTEXT ( 'detailed design', #143, 'design' ) ;
#109 = CC_DESIGN_SECURITY_CLASSIFICATION ( #87, ( #5 ) ) ;
#110 = CARTESIAN_POINT ( 'NONE',  ( -12.50000000000000000, 0.0000000000000000000, 1.000000000000000000 ) ) ;
#111 = CC_DESIGN_PERSON_AND_ORGANIZATION_ASSIGNMENT ( #88, #7, ( #87 ) ) ;
#112 = APPROVAL_DATE_TIME ( #128, #82 ) ;
#113 = APPROVAL_DATE_TIME ( #146, #29 ) ;
#114 = COORDINATED_UNIVERSAL_TIME_OFFSET ( 5, 0, .BEHIND. ) ;
#115 = LINE ( 'NONE', #162, #66 ) ;
#116 = DIRECTION ( 'NONE',  ( -1.000000000000000000, 0.0000000000000000000, 0.0000000000000000000 ) ) ;
#117 = ORGANIZATION ( 'UNSPECIFIED', 'UNSPECIFIED', '' ) ;
#118 = DIRECTION ( 'NONE',  ( 0.0000000000000000000, 0.0000000000000000000, 1.000000000000000000 ) ) ;
#119 = CC_DESIGN_PERSON_AND_ORGANIZATION_ASSIGNMENT ( #166, #52, ( #5 ) ) ;
#120 = DIRECTION ( 'NONE',  ( 0.0000000000000000000, 0.0000000000000000000, 1.000000000000000000 ) ) ;
#121 = CARTESIAN_POINT ( 'NONE',  ( 0.0000000000000000000, 0.0000000000000000000, -1.000000000000000000 ) ) ;
#122 = COORDINATED_UNIVERSAL_TIME_OFFSET ( 5, 0, .BEHIND. ) ;
#123 = DIRECTION ( 'NONE',  ( 1.000000000000000000, 0.0000000000000000000, 0.0000000000000000000 ) ) ;
#124 = AXIS2_PLACEMENT_3D ( 'NONE', #121, #118, #64 ) ;
#125 = PERSON_AND_ORGANIZATION ( #39, #117 ) ;
#126 = MANIFOLD_SOLID_BREP ( 'Boss-Extrude1', #23 ) ;
#127 = PERSON_AND_ORGANIZATION ( #39, #117 ) ;
#128 = DATE_AND_TIME ( #137, #57 ) ;
#129 = ORIENTED_EDGE ( 'NONE', *, *, #70, .T. ) ;
#130 = CARTESIAN_POINT ( 'NONE',  ( 12.50000000000000000, 1.530808498934191500E-015, 1.000000000000000000 ) ) ;
#131 = SECURITY_CLASSIFICATION_LEVEL ( 'unclassified' ) ;
#132 = MECHANICAL_CONTEXT ( 'NONE', #61, 'mechanical' ) ;
#133 = CARTESIAN_POINT ( 'NONE',  ( 0.0000000000000000000, 0.0000000000000000000, -1.000000000000000000 ) ) ;
#134 = VERTEX_POINT ( 'NONE', #9 ) ;
#135 = AXIS2_PLACEMENT_3D ( 'NONE', #90, #24, #22 ) ;
#136 = PERSON_AND_ORGANIZATION_ROLE ( 'creator' ) ;
#137 = CALENDAR_DATE ( 2017, 31, 10 ) ;
#138 = PRODUCT_DEFINITION ( 'UNKNOWN', '', #5, #108 ) ;
#139 = ORIENTED_EDGE ( 'NONE', *, *, #79, .F. ) ;
#140 = FACE_OUTER_BOUND ( 'NONE', #175, .T. ) ;
#141 = APPROVAL_DATE_TIME ( #55, #148 ) ;
#142 = DIRECTION ( 'NONE',  ( 0.0000000000000000000, 0.0000000000000000000, 1.000000000000000000 ) ) ;
#143 = APPLICATION_CONTEXT ( 'configuration controlled 3d designs of mechanical parts and assemblies' ) ;
#144 = APPROVAL_STATUS ( 'not_yet_approved' ) ;
#145 = DATE_TIME_ROLE ( 'creation_date' ) ;
#146 = DATE_AND_TIME ( #26, #86 ) ;
#147 = PERSON_AND_ORGANIZATION_ROLE ( 'creator' ) ;
#148 = APPROVAL ( #18, 'UNSPECIFIED' ) ;
#149 = EDGE_CURVE ( 'NONE', #1, #134, #115, .T. ) ;
#150 = VERTEX_POINT ( 'NONE', #110 ) ;
#151 = AXIS2_PLACEMENT_3D ( 'NONE', #158, #120, #105 ) ;
#152 = FACE_OUTER_BOUND ( 'NONE', #12, .T. ) ;
#153 = CC_DESIGN_APPROVAL ( #148, ( #87 ) ) ;
#154 = EDGE_LOOP ( 'NONE', ( #21, #139 ) ) ;
#155 = CARTESIAN_POINT ( 'NONE',  ( 0.0000000000000000000, 0.0000000000000000000, 1.000000000000000000 ) ) ;
#156 = AXIS2_PLACEMENT_3D ( 'NONE', #49, #94, #123 ) ;
#157 = DIRECTION ( 'NONE',  ( 0.0000000000000000000, 0.0000000000000000000, 1.000000000000000000 ) ) ;
#158 = CARTESIAN_POINT ( 'NONE',  ( 0.0000000000000000000, 0.0000000000000000000, -1.000000000000000000 ) ) ;
#159 = APPROVAL_STATUS ( 'not_yet_approved' ) ;
#160 = CARTESIAN_POINT ( 'NONE',  ( 0.0000000000000000000, 0.0000000000000000000, 1.000000000000000000 ) ) ;
#161 = AXIS2_PLACEMENT_3D ( 'NONE', #34, #53, #11 ) ;
#162 = CARTESIAN_POINT ( 'NONE',  ( 12.50000000000000000, 1.530808498934191500E-015, 1.000000000000000000 ) ) ;
#163 = APPROVAL_PERSON_ORGANIZATION ( #31, #82, #171 ) ;
#164 = AXIS2_PLACEMENT_3D ( 'NONE', #48, #142, #59 ) ;
#165 = CC_DESIGN_APPROVAL ( #29, ( #138 ) ) ;
#166 = PERSON_AND_ORGANIZATION ( #39, #117 ) ;
#167 = AXIS2_PLACEMENT_3D ( 'NONE', #160, #157, #91 ) ;
#168 = VECTOR ( 'NONE', #78, 1000.000000000000000 ) ;
#169 = AXIS2_PLACEMENT_3D ( 'NONE', #133, #107, #62 ) ;
#170 = DIRECTION ( 'NONE',  ( -0.0000000000000000000, -0.0000000000000000000, -1.000000000000000000 ) ) ;
#171 = APPROVAL_ROLE ( '' ) ;
#172 = UNCERTAINTY_MEASURE_WITH_UNIT (LENGTH_MEASURE( 1.000000000000000100E-005 ), #50, 'distance_accuracy_value', 'NONE');
#173 = LOCAL_TIME ( 10, 4, 27.00000000000000000, #73 ) ;
#174 = CC_DESIGN_PERSON_AND_ORGANIZATION_ASSIGNMENT ( #83, #147, ( #138 ) ) ;
#175 = EDGE_LOOP ( 'NONE', ( #67, #58, #129, #106 ) ) ;
ENDSEC;
END-ISO-10303-21;
