ISO-10303-21;
HEADER;
FILE_DESCRIPTION (( 'STEP AP203' ),
    '1' );
FILE_NAME ('Web Model 87705_14835.step',
    '2020-10-07T17:41:46',
    ( '' ),
    ( '' ),
    'SwSTEP 2.0',
    'SolidWorks 2018',
    '' );
FILE_SCHEMA (( 'CONFIG_CONTROL_DESIGN' ));
ENDSEC;

DATA;
#1 =( GEOMETRIC_REPRESENTATION_CONTEXT ( 3 ) GLOBAL_UNCERTAINTY_ASSIGNED_CONTEXT ( ( #49 ) ) GLOBAL_UNIT_ASSIGNED_CONTEXT ( ( #9, #152, #113 ) ) REPRESENTATION_CONTEXT ( 'NONE', 'WORKASPACE' ) );
#2 = VERTEX_POINT ( 'NONE', #146 ) ;
#3 = ADVANCED_FACE ( 'NONE', ( #86 ), #51, .T. ) ;
#4 = APPLICATION_CONTEXT ( 'configuration controlled 3d designs of mechanical parts and assemblies' ) ;
#5 = PERSON_AND_ORGANIZATION_ROLE ( 'creator' ) ;
#6 = COORDINATED_UNIVERSAL_TIME_OFFSET ( 5, 0, .BEHIND. ) ;
#7 = APPROVAL_STATUS ( 'not_yet_approved' ) ;
#8 = ADVANCED_FACE ( 'NONE', ( #103 ), #14, .T. ) ;
#9 =( LENGTH_UNIT ( ) NAMED_UNIT ( * ) SI_UNIT ( .MILLI., .METRE. ) );
#10 = COORDINATED_UNIVERSAL_TIME_OFFSET ( 5, 0, .BEHIND. ) ;
#11 = VERTEX_POINT ( 'NONE', #105 ) ;
#12 = APPROVAL ( #54, 'UNSPECIFIED' ) ;
#13 = EDGE_CURVE ( 'NONE', #11, #2, #57, .T. ) ;
#14 = PLANE ( 'NONE',  #22 ) ;
#15 = PERSON_AND_ORGANIZATION ( #95, #47 ) ;
#16 = DIRECTION ( 'NONE',  ( -1.000000000000000000, 0.0000000000000000000, 0.0000000000000000000 ) ) ;
#17 = EDGE_LOOP ( 'NONE', ( #128, #155, #31, #61 ) ) ;
#18 = CARTESIAN_POINT ( 'NONE',  ( 37.50000000000000711, 4.592425496802575156E-15, 5.000000000000000000 ) ) ;
#19 = DIRECTION ( 'NONE',  ( -0.0000000000000000000, -0.0000000000000000000, -1.000000000000000000 ) ) ;
#20 = CARTESIAN_POINT ( 'NONE',  ( 0.0000000000000000000, 0.0000000000000000000, 0.0000000000000000000 ) ) ;
#21 = AXIS2_PLACEMENT_3D ( 'NONE', #172, #91, #42 ) ;
#22 = AXIS2_PLACEMENT_3D ( 'NONE', #117, #171, #88 ) ;
#23 = PERSON_AND_ORGANIZATION_ROLE ( 'creator' ) ;
#24 = MECHANICAL_CONTEXT ( 'NONE', #4, 'mechanical' ) ;
#25 = COORDINATED_UNIVERSAL_TIME_OFFSET ( 5, 0, .BEHIND. ) ;
#26 = DESIGN_CONTEXT ( 'detailed design', #36, 'design' ) ;
#27 = CC_DESIGN_PERSON_AND_ORGANIZATION_ASSIGNMENT ( #52, #98, ( #143 ) ) ;
#28 = CARTESIAN_POINT ( 'NONE',  ( 0.0000000000000000000, 0.0000000000000000000, 5.000000000000000000 ) ) ;
#29 = PERSON_AND_ORGANIZATION ( #95, #47 ) ;
#30 = ADVANCED_FACE ( 'NONE', ( #38 ), #40, .T. ) ;
#31 = ORIENTED_EDGE ( 'NONE', *, *, #151, .T. ) ;
#32 = APPROVAL_ROLE ( '' ) ;
#33 = APPLICATION_PROTOCOL_DEFINITION ( 'international standard', 'config_control_design', 1994, #4 ) ;
#34 = AXIS2_PLACEMENT_3D ( 'NONE', #104, #160, #73 ) ;
#35 = LINE ( 'NONE', #149, #45 ) ;
#36 = APPLICATION_CONTEXT ( 'configuration controlled 3d designs of mechanical parts and assemblies' ) ;
#37 = PERSON_AND_ORGANIZATION ( #95, #47 ) ;
#38 = FACE_OUTER_BOUND ( 'NONE', #17, .T. ) ;
#39 = COORDINATED_UNIVERSAL_TIME_OFFSET ( 5, 0, .BEHIND. ) ;
#40 = CYLINDRICAL_SURFACE ( 'NONE', #34, 37.50000000000000711 ) ;
#41 = DIRECTION ( 'NONE',  ( 1.000000000000000000, 0.0000000000000000000, 0.0000000000000000000 ) ) ;
#42 = DIRECTION ( 'NONE',  ( 1.000000000000000000, 0.0000000000000000000, 0.0000000000000000000 ) ) ;
#43 = AXIS2_PLACEMENT_3D ( 'NONE', #136, #164, #80 ) ;
#44 = DATE_AND_TIME ( #106, #96 ) ;
#45 = VECTOR ( 'NONE', #162, 1000.000000000000000 ) ;
#46 = SECURITY_CLASSIFICATION_LEVEL ( 'unclassified' ) ;
#47 = ORGANIZATION ( 'UNSPECIFIED', 'UNSPECIFIED', '' ) ;
#48 = CARTESIAN_POINT ( 'NONE',  ( 0.0000000000000000000, 0.0000000000000000000, 5.000000000000000000 ) ) ;
#49 = UNCERTAINTY_MEASURE_WITH_UNIT (LENGTH_MEASURE( 1.000000000000000082E-05 ), #9, 'distance_accuracy_value', 'NONE');
#50 = DIRECTION ( 'NONE',  ( 0.0000000000000000000, 0.0000000000000000000, 1.000000000000000000 ) ) ;
#51 = CYLINDRICAL_SURFACE ( 'NONE', #131, 37.50000000000000711 ) ;
#52 = PERSON_AND_ORGANIZATION ( #95, #47 ) ;
#53 = DIRECTION ( 'NONE',  ( 0.0000000000000000000, 0.0000000000000000000, 1.000000000000000000 ) ) ;
#54 = APPROVAL_STATUS ( 'not_yet_approved' ) ;
#55 = AXIS2_PLACEMENT_3D ( 'NONE', #20, #66, #101 ) ;
#56 = CALENDAR_DATE ( 2020, 7, 10 ) ;
#57 = CIRCLE ( 'NONE', #21, 37.50000000000000711 ) ;
#58 = PRODUCT_DEFINITION ( 'UNKNOWN', '', #84, #26 ) ;
#59 = APPROVAL_DATE_TIME ( #125, #79 ) ;
#60 = AXIS2_PLACEMENT_3D ( 'NONE', #121, #53, #111 ) ;
#61 = ORIENTED_EDGE ( 'NONE', *, *, #175, .F. ) ;
#62 = CC_DESIGN_PERSON_AND_ORGANIZATION_ASSIGNMENT ( #15, #67, ( #94 ) ) ;
#63 = CARTESIAN_POINT ( 'NONE',  ( -37.50000000000000711, 0.0000000000000000000, 0.0000000000000000000 ) ) ;
#64 = PERSON_AND_ORGANIZATION ( #95, #47 ) ;
#65 = ORIENTED_EDGE ( 'NONE', *, *, #92, .T. ) ;
#66 = DIRECTION ( 'NONE',  ( 0.0000000000000000000, 0.0000000000000000000, 1.000000000000000000 ) ) ;
#67 = PERSON_AND_ORGANIZATION_ROLE ( 'design_owner' ) ;
#68 = APPROVAL_PERSON_ORGANIZATION ( #127, #79, #167 ) ;
#69 = DATE_TIME_ROLE ( 'classification_date' ) ;
#70 = ORIENTED_EDGE ( 'NONE', *, *, #151, .F. ) ;
#71 = FACE_OUTER_BOUND ( 'NONE', #120, .T. ) ;
#72 = CC_DESIGN_PERSON_AND_ORGANIZATION_ASSIGNMENT ( #150, #23, ( #58 ) ) ;
#73 = DIRECTION ( 'NONE',  ( -1.000000000000000000, 0.0000000000000000000, 0.0000000000000000000 ) ) ;
#74 = LINE ( 'NONE', #18, #158 ) ;
#75 = CARTESIAN_POINT ( 'NONE',  ( 0.0000000000000000000, 0.0000000000000000000, 0.0000000000000000000 ) ) ;
#76 = PLANE ( 'NONE',  #43 ) ;
#77 = APPROVAL_PERSON_ORGANIZATION ( #64, #12, #129 ) ;
#78 = ADVANCED_BREP_SHAPE_REPRESENTATION ( 'Web Model 87705_14835', ( #161, #55 ), #1 ) ;
#79 = APPROVAL ( #7, 'UNSPECIFIED' ) ;
#80 = DIRECTION ( 'NONE',  ( 1.000000000000000000, 0.0000000000000000000, -0.0000000000000000000 ) ) ;
#81 = CIRCLE ( 'NONE', #60, 37.50000000000000711 ) ;
#82 = EDGE_LOOP ( 'NONE', ( #142, #169 ) ) ;
#83 = APPLICATION_PROTOCOL_DEFINITION ( 'international standard', 'config_control_design', 1994, #36 ) ;
#84 = PRODUCT_DEFINITION_FORMATION_WITH_SPECIFIED_SOURCE ( 'ANY', '', #94, .NOT_KNOWN. ) ;
#85 = APPROVAL_PERSON_ORGANIZATION ( #29, #102, #32 ) ;
#86 = FACE_OUTER_BOUND ( 'NONE', #107, .T. ) ;
#87 = EDGE_CURVE ( 'NONE', #2, #126, #74, .T. ) ;
#88 = DIRECTION ( 'NONE',  ( 1.000000000000000000, 0.0000000000000000000, -0.0000000000000000000 ) ) ;
#89 = CC_DESIGN_APPROVAL ( #79, ( #143 ) ) ;
#90 = PERSON_AND_ORGANIZATION ( #95, #47 ) ;
#91 = DIRECTION ( 'NONE',  ( 0.0000000000000000000, 0.0000000000000000000, 1.000000000000000000 ) ) ;
#92 = EDGE_CURVE ( 'NONE', #159, #126, #81, .T. ) ;
#93 = CARTESIAN_POINT ( 'NONE',  ( 37.50000000000000711, 4.592425496802575156E-15, 0.0000000000000000000 ) ) ;
#94 = PRODUCT ( 'Web Model 87705_14835', 'Web Model 87705_14835', '', ( #24 ) ) ;
#95 = PERSON ( 'UNSPECIFIED', 'UNSPECIFIED', 'UNSPECIFIED', ('UNSPECIFIED'), ('UNSPECIFIED'), ('UNSPECIFIED') ) ;
#96 = LOCAL_TIME ( 13, 41, 46.00000000000000000, #119 ) ;
#97 = ORIENTED_EDGE ( 'NONE', *, *, #87, .F. ) ;
#98 = PERSON_AND_ORGANIZATION_ROLE ( 'classification_officer' ) ;
#99 = CALENDAR_DATE ( 2020, 7, 10 ) ;
#100 = APPROVAL_STATUS ( 'not_yet_approved' ) ;
#101 = DIRECTION ( 'NONE',  ( 1.000000000000000000, 0.0000000000000000000, 0.0000000000000000000 ) ) ;
#102 = APPROVAL ( #100, 'UNSPECIFIED' ) ;
#103 = FACE_OUTER_BOUND ( 'NONE', #82, .T. ) ;
#104 = CARTESIAN_POINT ( 'NONE',  ( 0.0000000000000000000, 0.0000000000000000000, 5.000000000000000000 ) ) ;
#105 = CARTESIAN_POINT ( 'NONE',  ( -37.50000000000000711, 0.0000000000000000000, 5.000000000000000000 ) ) ;
#106 = CALENDAR_DATE ( 2020, 7, 10 ) ;
#107 = EDGE_LOOP ( 'NONE', ( #97, #135, #148, #65 ) ) ;
#108 = CALENDAR_DATE ( 2020, 7, 10 ) ;
#109 = ADVANCED_FACE ( 'NONE', ( #71 ), #76, .F. ) ;
#110 = LOCAL_TIME ( 13, 41, 46.00000000000000000, #10 ) ;
#111 = DIRECTION ( 'NONE',  ( 1.000000000000000000, 0.0000000000000000000, 0.0000000000000000000 ) ) ;
#112 = CC_DESIGN_APPROVAL ( #102, ( #58 ) ) ;
#113 =( NAMED_UNIT ( * ) SI_UNIT ( $, .STERADIAN. ) SOLID_ANGLE_UNIT ( ) );
#114 = LOCAL_TIME ( 13, 41, 46.00000000000000000, #25 ) ;
#115 = PERSON_AND_ORGANIZATION_ROLE ( 'design_supplier' ) ;
#116 = DATE_AND_TIME ( #153, #110 ) ;
#117 = CARTESIAN_POINT ( 'NONE',  ( 0.0000000000000000000, 0.0000000000000000000, 5.000000000000000000 ) ) ;
#118 = PRODUCT_DEFINITION_SHAPE ( 'NONE', 'NONE',  #58 ) ;
#119 = COORDINATED_UNIVERSAL_TIME_OFFSET ( 5, 0, .BEHIND. ) ;
#120 = EDGE_LOOP ( 'NONE', ( #166, #70 ) ) ;
#121 = CARTESIAN_POINT ( 'NONE',  ( 0.0000000000000000000, 0.0000000000000000000, 0.0000000000000000000 ) ) ;
#122 = DIRECTION ( 'NONE',  ( 1.000000000000000000, 0.0000000000000000000, 0.0000000000000000000 ) ) ;
#123 = AXIS2_PLACEMENT_3D ( 'NONE', #28, #50, #122 ) ;
#124 = CIRCLE ( 'NONE', #168, 37.50000000000000711 ) ;
#125 = DATE_AND_TIME ( #99, #137 ) ;
#126 = VERTEX_POINT ( 'NONE', #93 ) ;
#127 = PERSON_AND_ORGANIZATION ( #95, #47 ) ;
#128 = ORIENTED_EDGE ( 'NONE', *, *, #157, .F. ) ;
#129 = APPROVAL_ROLE ( '' ) ;
#130 = CC_DESIGN_APPROVAL ( #12, ( #84 ) ) ;
#131 = AXIS2_PLACEMENT_3D ( 'NONE', #48, #133, #16 ) ;
#132 = CC_DESIGN_DATE_AND_TIME_ASSIGNMENT ( #170, #69, ( #143 ) ) ;
#133 = DIRECTION ( 'NONE',  ( -0.0000000000000000000, -0.0000000000000000000, -1.000000000000000000 ) ) ;
#134 = SHAPE_DEFINITION_REPRESENTATION ( #118, #78 ) ;
#135 = ORIENTED_EDGE ( 'NONE', *, *, #13, .F. ) ;
#136 = CARTESIAN_POINT ( 'NONE',  ( 0.0000000000000000000, 0.0000000000000000000, 0.0000000000000000000 ) ) ;
#137 = LOCAL_TIME ( 13, 41, 46.00000000000000000, #39 ) ;
#138 = CIRCLE ( 'NONE', #123, 37.50000000000000711 ) ;
#139 = CC_DESIGN_DATE_AND_TIME_ASSIGNMENT ( #44, #165, ( #58 ) ) ;
#140 = CC_DESIGN_SECURITY_CLASSIFICATION ( #143, ( #84 ) ) ;
#141 = APPROVAL_DATE_TIME ( #147, #12 ) ;
#142 = ORIENTED_EDGE ( 'NONE', *, *, #13, .T. ) ;
#143 = SECURITY_CLASSIFICATION ( '', '', #46 ) ;
#144 = LOCAL_TIME ( 13, 41, 46.00000000000000000, #6 ) ;
#145 = CC_DESIGN_PERSON_AND_ORGANIZATION_ASSIGNMENT ( #37, #115, ( #84 ) ) ;
#146 = CARTESIAN_POINT ( 'NONE',  ( 37.50000000000000711, 4.592425496802575156E-15, 5.000000000000000000 ) ) ;
#147 = DATE_AND_TIME ( #56, #114 ) ;
#148 = ORIENTED_EDGE ( 'NONE', *, *, #175, .T. ) ;
#149 = CARTESIAN_POINT ( 'NONE',  ( -37.50000000000000711, 0.0000000000000000000, 5.000000000000000000 ) ) ;
#150 = PERSON_AND_ORGANIZATION ( #95, #47 ) ;
#151 = EDGE_CURVE ( 'NONE', #126, #159, #124, .T. ) ;
#152 =( NAMED_UNIT ( * ) PLANE_ANGLE_UNIT ( ) SI_UNIT ( $, .RADIAN. ) );
#153 = CALENDAR_DATE ( 2020, 7, 10 ) ;
#154 = APPROVAL_DATE_TIME ( #116, #102 ) ;
#155 = ORIENTED_EDGE ( 'NONE', *, *, #87, .T. ) ;
#156 = PRODUCT_RELATED_PRODUCT_CATEGORY ( 'detail', '', ( #94 ) ) ;
#157 = EDGE_CURVE ( 'NONE', #2, #11, #138, .T. ) ;
#158 = VECTOR ( 'NONE', #19, 1000.000000000000000 ) ;
#159 = VERTEX_POINT ( 'NONE', #63 ) ;
#160 = DIRECTION ( 'NONE',  ( -0.0000000000000000000, -0.0000000000000000000, -1.000000000000000000 ) ) ;
#161 = MANIFOLD_SOLID_BREP ( 'Extrude1', #173 ) ;
#162 = DIRECTION ( 'NONE',  ( -0.0000000000000000000, -0.0000000000000000000, -1.000000000000000000 ) ) ;
#163 = CC_DESIGN_PERSON_AND_ORGANIZATION_ASSIGNMENT ( #90, #5, ( #84 ) ) ;
#164 = DIRECTION ( 'NONE',  ( 0.0000000000000000000, 0.0000000000000000000, 1.000000000000000000 ) ) ;
#165 = DATE_TIME_ROLE ( 'creation_date' ) ;
#166 = ORIENTED_EDGE ( 'NONE', *, *, #92, .F. ) ;
#167 = APPROVAL_ROLE ( '' ) ;
#168 = AXIS2_PLACEMENT_3D ( 'NONE', #75, #174, #41 ) ;
#169 = ORIENTED_EDGE ( 'NONE', *, *, #157, .T. ) ;
#170 = DATE_AND_TIME ( #108, #144 ) ;
#171 = DIRECTION ( 'NONE',  ( 0.0000000000000000000, 0.0000000000000000000, 1.000000000000000000 ) ) ;
#172 = CARTESIAN_POINT ( 'NONE',  ( 0.0000000000000000000, 0.0000000000000000000, 5.000000000000000000 ) ) ;
#173 = CLOSED_SHELL ( 'NONE', ( #30, #3, #8, #109 ) ) ;
#174 = DIRECTION ( 'NONE',  ( 0.0000000000000000000, 0.0000000000000000000, 1.000000000000000000 ) ) ;
#175 = EDGE_CURVE ( 'NONE', #11, #159, #35, .T. ) ;
ENDSEC;
END-ISO-10303-21;
