ISO-10303-21;
HEADER;
FILE_DESCRIPTION (( 'STEP AP203' ),
    '1' );
FILE_NAME ('Web Model 43818_43358.step',
    '2017-04-10T18:03:37',
    ( '' ),
    ( '' ),
    'SwSTEP 2.0',
    'SolidWorks 2016',
    '' );
FILE_SCHEMA (( 'CONFIG_CONTROL_DESIGN' ));
ENDSEC;

DATA;
#1 = ORIENTED_EDGE ( 'NONE', *, *, #94, .T. ) ;
#2 = LINE ( 'NONE', #52, #207 ) ;
#3 = PERSON_AND_ORGANIZATION_ROLE ( 'design_supplier' ) ;
#4 = ADVANCED_FACE ( 'NONE', ( #185 ), #120, .F. ) ;
#5 = CARTESIAN_POINT ( 'NONE',  ( -25.00000000000000000, -25.00000000000000000, 0.5000000000000000000 ) ) ;
#6 = DIRECTION ( 'NONE',  ( -0.0000000000000000000, 0.0000000000000000000, 1.000000000000000000 ) ) ;
#7 = DATE_AND_TIME ( #50, #186 ) ;
#8 = LINE ( 'NONE', #16, #64 ) ;
#9 = APPROVAL ( #190, 'UNSPECIFIED' ) ;
#10 = ORIENTED_EDGE ( 'NONE', *, *, #124, .T. ) ;
#11 = CARTESIAN_POINT ( 'NONE',  ( -25.00000000000000000, -25.00000000000000000, 0.5000000000000000000 ) ) ;
#12 = PLANE ( 'NONE',  #155 ) ;
#13 = DIRECTION ( 'NONE',  ( -0.0000000000000000000, -0.0000000000000000000, -1.000000000000000000 ) ) ;
#14 = ORIENTED_EDGE ( 'NONE', *, *, #209, .T. ) ;
#15 = FACE_OUTER_BOUND ( 'NONE', #235, .T. ) ;
#16 = CARTESIAN_POINT ( 'NONE',  ( -25.00000000000000000, 25.00000000000000000, 0.5000000000000000000 ) ) ;
#17 = CARTESIAN_POINT ( 'NONE',  ( 0.0000000000000000000, 0.0000000000000000000, -0.5000000000000000000 ) ) ;
#18 = VECTOR ( 'NONE', #13, 1000.000000000000000 ) ;
#19 = PLANE ( 'NONE',  #59 ) ;
#20 = CARTESIAN_POINT ( 'NONE',  ( -25.00000000000000000, 25.00000000000000000, -0.5000000000000000000 ) ) ;
#21 = ORIENTED_EDGE ( 'NONE', *, *, #221, .F. ) ;
#22 = PERSON_AND_ORGANIZATION ( #83, #34 ) ;
#23 = APPLICATION_PROTOCOL_DEFINITION ( 'international standard', 'config_control_design', 1994, #173 ) ;
#24 = ADVANCED_FACE ( 'NONE', ( #102 ), #12, .F. ) ;
#25 = ORIENTED_EDGE ( 'NONE', *, *, #221, .T. ) ;
#26 = CARTESIAN_POINT ( 'NONE',  ( -25.00000000000000000, -25.00000000000000000, -0.5000000000000000000 ) ) ;
#27 = ORIENTED_EDGE ( 'NONE', *, *, #169, .T. ) ;
#28 = ORIENTED_EDGE ( 'NONE', *, *, #124, .F. ) ;
#29 = APPROVAL_ROLE ( '' ) ;
#30 = CARTESIAN_POINT ( 'NONE',  ( 25.00000000000000000, -25.00000000000000000, 0.5000000000000000000 ) ) ;
#31 = DIRECTION ( 'NONE',  ( 1.000000000000000000, 0.0000000000000000000, -0.0000000000000000000 ) ) ;
#32 = LOCAL_TIME ( 14, 3, 37.00000000000000000, #213 ) ;
#33 = ADVANCED_FACE ( 'NONE', ( #139 ), #218, .F. ) ;
#34 = ORGANIZATION ( 'UNSPECIFIED', 'UNSPECIFIED', '' ) ;
#35 = APPROVAL ( #56, 'UNSPECIFIED' ) ;
#36 = ORIENTED_EDGE ( 'NONE', *, *, #57, .T. ) ;
#37 = PERSON_AND_ORGANIZATION_ROLE ( 'creator' ) ;
#38 = VERTEX_POINT ( 'NONE', #229 ) ;
#39 = COORDINATED_UNIVERSAL_TIME_OFFSET ( 5, 0, .BEHIND. ) ;
#40 = ADVANCED_FACE ( 'NONE', ( #60 ), #19, .F. ) ;
#41 = SHAPE_DEFINITION_REPRESENTATION ( #87, #156 ) ;
#42 = CC_DESIGN_PERSON_AND_ORGANIZATION_ASSIGNMENT ( #112, #37, ( #65 ) ) ;
#43 = CALENDAR_DATE ( 2017, 10, 4 ) ;
#44 = ORIENTED_EDGE ( 'NONE', *, *, #135, .F. ) ;
#45 = DIRECTION ( 'NONE',  ( 0.0000000000000000000, -1.000000000000000000, 0.0000000000000000000 ) ) ;
#46 = CC_DESIGN_APPROVAL ( #178, ( #172 ) ) ;
#47 = DIRECTION ( 'NONE',  ( -0.0000000000000000000, 0.0000000000000000000, -1.000000000000000000 ) ) ;
#48 = CALENDAR_DATE ( 2017, 10, 4 ) ;
#49 = COORDINATED_UNIVERSAL_TIME_OFFSET ( 5, 0, .BEHIND. ) ;
#50 = CALENDAR_DATE ( 2017, 10, 4 ) ;
#51 = ORIENTED_EDGE ( 'NONE', *, *, #152, .T. ) ;
#52 = CARTESIAN_POINT ( 'NONE',  ( -25.00000000000000000, -25.00000000000000000, 0.5000000000000000000 ) ) ;
#53 = EDGE_LOOP ( 'NONE', ( #71, #237, #28, #228 ) ) ;
#54 = CARTESIAN_POINT ( 'NONE',  ( -25.00000000000000000, 25.00000000000000000, 0.5000000000000000000 ) ) ;
#55 = CC_DESIGN_APPROVAL ( #9, ( #65 ) ) ;
#56 = APPROVAL_STATUS ( 'not_yet_approved' ) ;
#57 = EDGE_CURVE ( 'NONE', #198, #188, #162, .T. ) ;
#58 = VECTOR ( 'NONE', #153, 1000.000000000000000 ) ;
#59 = AXIS2_PLACEMENT_3D ( 'NONE', #54, #45, #210 ) ;
#60 = FACE_OUTER_BOUND ( 'NONE', #53, .T. ) ;
#61 = DATE_AND_TIME ( #130, #118 ) ;
#62 = EDGE_CURVE ( 'NONE', #76, #100, #180, .T. ) ;
#63 = DIRECTION ( 'NONE',  ( 1.000000000000000000, 0.0000000000000000000, 0.0000000000000000000 ) ) ;
#64 = VECTOR ( 'NONE', #170, 1000.000000000000000 ) ;
#65 = PRODUCT_DEFINITION ( 'UNKNOWN', '', #172, #193 ) ;
#66 = LINE ( 'NONE', #197, #140 ) ;
#67 = PERSON_AND_ORGANIZATION ( #83, #34 ) ;
#68 = VECTOR ( 'NONE', #168, 1000.000000000000000 ) ;
#69 = ORIENTED_EDGE ( 'NONE', *, *, #121, .F. ) ;
#70 = VECTOR ( 'NONE', #208, 1000.000000000000000 ) ;
#71 = ORIENTED_EDGE ( 'NONE', *, *, #133, .T. ) ;
#72 = APPROVAL_DATE_TIME ( #91, #178 ) ;
#73 = VECTOR ( 'NONE', #116, 1000.000000000000000 ) ;
#74 = DIRECTION ( 'NONE',  ( 0.0000000000000000000, -0.0000000000000000000, 1.000000000000000000 ) ) ;
#75 = PERSON_AND_ORGANIZATION ( #83, #34 ) ;
#76 = VERTEX_POINT ( 'NONE', #166 ) ;
#77 = DIRECTION ( 'NONE',  ( 1.000000000000000000, 0.0000000000000000000, 0.0000000000000000000 ) ) ;
#78 = DIRECTION ( 'NONE',  ( -0.0000000000000000000, -0.0000000000000000000, -1.000000000000000000 ) ) ;
#79 = ORIENTED_EDGE ( 'NONE', *, *, #62, .F. ) ;
#80 = VECTOR ( 'NONE', #154, 1000.000000000000000 ) ;
#81 = APPLICATION_PROTOCOL_DEFINITION ( 'international standard', 'config_control_design', 1994, #109 ) ;
#82 = FACE_OUTER_BOUND ( 'NONE', #179, .T. ) ;
#83 = PERSON ( 'UNSPECIFIED', 'UNSPECIFIED', 'UNSPECIFIED', ('UNSPECIFIED'), ('UNSPECIFIED'), ('UNSPECIFIED') ) ;
#84 =( NAMED_UNIT ( * ) PLANE_ANGLE_UNIT ( ) SI_UNIT ( $, .RADIAN. ) );
#85 = CARTESIAN_POINT ( 'NONE',  ( 25.00000000000000000, 25.00000000000000000, -0.5000000000000000000 ) ) ;
#86 = AXIS2_PLACEMENT_3D ( 'NONE', #97, #103, #74 ) ;
#87 = PRODUCT_DEFINITION_SHAPE ( 'NONE', 'NONE',  #65 ) ;
#88 = CARTESIAN_POINT ( 'NONE',  ( 25.00000000000000000, 25.00000000000000000, 0.5000000000000000000 ) ) ;
#89 = APPROVAL_DATE_TIME ( #7, #35 ) ;
#90 = COORDINATED_UNIVERSAL_TIME_OFFSET ( 5, 0, .BEHIND. ) ;
#91 = DATE_AND_TIME ( #223, #187 ) ;
#92 = MANIFOLD_SOLID_BREP ( 'Boss-Extrude1', #99 ) ;
#93 = PERSON_AND_ORGANIZATION ( #83, #34 ) ;
#94 = EDGE_CURVE ( 'NONE', #188, #38, #113, .T. ) ;
#95 = CARTESIAN_POINT ( 'NONE',  ( 0.0000000000000000000, 0.0000000000000000000, 0.5000000000000000000 ) ) ;
#96 = PERSON_AND_ORGANIZATION ( #83, #34 ) ;
#97 = CARTESIAN_POINT ( 'NONE',  ( -25.00000000000000000, -25.00000000000000000, 0.5000000000000000000 ) ) ;
#98 = CARTESIAN_POINT ( 'NONE',  ( -25.00000000000000000, 25.00000000000000000, 0.5000000000000000000 ) ) ;
#99 = CLOSED_SHELL ( 'NONE', ( #4, #40, #24, #33, #204, #129 ) ) ;
#100 = VERTEX_POINT ( 'NONE', #85 ) ;
#101 = CC_DESIGN_SECURITY_CLASSIFICATION ( #236, ( #172 ) ) ;
#102 = FACE_OUTER_BOUND ( 'NONE', #105, .T. ) ;
#103 = DIRECTION ( 'NONE',  ( 0.0000000000000000000, 1.000000000000000000, 0.0000000000000000000 ) ) ;
#104 = VERTEX_POINT ( 'NONE', #30 ) ;
#105 = EDGE_LOOP ( 'NONE', ( #1, #21, #181, #36 ) ) ;
#106 =( LENGTH_UNIT ( ) NAMED_UNIT ( * ) SI_UNIT ( .MILLI., .METRE. ) );
#107 = DATE_TIME_ROLE ( 'classification_date' ) ;
#108 = CARTESIAN_POINT ( 'NONE',  ( 25.00000000000000000, 25.00000000000000000, 0.5000000000000000000 ) ) ;
#109 = APPLICATION_CONTEXT ( 'configuration controlled 3d designs of mechanical parts and assemblies' ) ;
#110 = CARTESIAN_POINT ( 'NONE',  ( -25.00000000000000000, 25.00000000000000000, 0.5000000000000000000 ) ) ;
#111 = DIRECTION ( 'NONE',  ( -1.000000000000000000, 0.0000000000000000000, 0.0000000000000000000 ) ) ;
#112 = PERSON_AND_ORGANIZATION ( #83, #34 ) ;
#113 = LINE ( 'NONE', #151, #70 ) ;
#114 = PERSON_AND_ORGANIZATION_ROLE ( 'design_owner' ) ;
#115 = PRODUCT_RELATED_PRODUCT_CATEGORY ( 'detail', '', ( #225 ) ) ;
#116 = DIRECTION ( 'NONE',  ( 1.000000000000000000, 0.0000000000000000000, 0.0000000000000000000 ) ) ;
#117 = DIRECTION ( 'NONE',  ( 0.0000000000000000000, 0.0000000000000000000, 1.000000000000000000 ) ) ;
#118 = LOCAL_TIME ( 14, 3, 37.00000000000000000, #90 ) ;
#119 = APPROVAL_ROLE ( '' ) ;
#120 = PLANE ( 'NONE',  #147 ) ;
#121 = EDGE_CURVE ( 'NONE', #192, #100, #158, .T. ) ;
#122 = EDGE_CURVE ( 'NONE', #38, #76, #206, .T. ) ;
#123 = VECTOR ( 'NONE', #214, 1000.000000000000000 ) ;
#124 = EDGE_CURVE ( 'NONE', #192, #198, #8, .T. ) ;
#125 = ORIENTED_EDGE ( 'NONE', *, *, #94, .F. ) ;
#126 = PERSON_AND_ORGANIZATION_ROLE ( 'classification_officer' ) ;
#127 = ORIENTED_EDGE ( 'NONE', *, *, #209, .F. ) ;
#128 = DIRECTION ( 'NONE',  ( -0.0000000000000000000, -0.0000000000000000000, -1.000000000000000000 ) ) ;
#129 = ADVANCED_FACE ( 'NONE', ( #82 ), #189, .F. ) ;
#130 = CALENDAR_DATE ( 2017, 10, 4 ) ;
#131 = SECURITY_CLASSIFICATION_LEVEL ( 'unclassified' ) ;
#132 = CC_DESIGN_DATE_AND_TIME_ASSIGNMENT ( #61, #134, ( #65 ) ) ;
#133 = EDGE_CURVE ( 'NONE', #100, #188, #222, .T. ) ;
#134 = DATE_TIME_ROLE ( 'creation_date' ) ;
#135 = EDGE_CURVE ( 'NONE', #104, #192, #220, .T. ) ;
#136 = ORIENTED_EDGE ( 'NONE', *, *, #62, .T. ) ;
#137 = VECTOR ( 'NONE', #128, 1000.000000000000000 ) ;
#138 = ORIENTED_EDGE ( 'NONE', *, *, #122, .T. ) ;
#139 = FACE_OUTER_BOUND ( 'NONE', #157, .T. ) ;
#140 = VECTOR ( 'NONE', #78, 1000.000000000000000 ) ;
#141 = UNCERTAINTY_MEASURE_WITH_UNIT (LENGTH_MEASURE( 1.000000000000000100E-005 ), #106, 'distance_accuracy_value', 'NONE');
#142 = DIRECTION ( 'NONE',  ( -0.0000000000000000000, -0.0000000000000000000, -1.000000000000000000 ) ) ;
#143 = CC_DESIGN_PERSON_AND_ORGANIZATION_ASSIGNMENT ( #196, #201, ( #172 ) ) ;
#144 = LOCAL_TIME ( 14, 3, 37.00000000000000000, #149 ) ;
#145 = DIRECTION ( 'NONE',  ( 1.000000000000000000, 0.0000000000000000000, 0.0000000000000000000 ) ) ;
#146 = APPROVAL_STATUS ( 'not_yet_approved' ) ;
#147 = AXIS2_PLACEMENT_3D ( 'NONE', #202, #111, #117 ) ;
#148 = CARTESIAN_POINT ( 'NONE',  ( 0.0000000000000000000, 0.0000000000000000000, 0.0000000000000000000 ) ) ;
#149 = COORDINATED_UNIVERSAL_TIME_OFFSET ( 5, 0, .BEHIND. ) ;
#150 = VECTOR ( 'NONE', #145, 1000.000000000000000 ) ;
#151 = CARTESIAN_POINT ( 'NONE',  ( -25.00000000000000000, 25.00000000000000000, -0.5000000000000000000 ) ) ;
#152 = EDGE_CURVE ( 'NONE', #163, #104, #160, .T. ) ;
#153 = DIRECTION ( 'NONE',  ( 0.0000000000000000000, -1.000000000000000000, 0.0000000000000000000 ) ) ;
#154 = DIRECTION ( 'NONE',  ( -0.0000000000000000000, 1.000000000000000000, -0.0000000000000000000 ) ) ;
#155 = AXIS2_PLACEMENT_3D ( 'NONE', #200, #31, #47 ) ;
#156 = ADVANCED_BREP_SHAPE_REPRESENTATION ( 'Web Model 43818_43358', ( #92, #199 ), #195 ) ;
#157 = EDGE_LOOP ( 'NONE', ( #138, #127, #177, #25 ) ) ;
#158 = LINE ( 'NONE', #171, #18 ) ;
#159 = CC_DESIGN_PERSON_AND_ORGANIZATION_ASSIGNMENT ( #67, #3, ( #172 ) ) ;
#160 = LINE ( 'NONE', #11, #150 ) ;
#161 = CC_DESIGN_PERSON_AND_ORGANIZATION_ASSIGNMENT ( #22, #126, ( #236 ) ) ;
#162 = LINE ( 'NONE', #98, #137 ) ;
#163 = VERTEX_POINT ( 'NONE', #5 ) ;
#164 =( NAMED_UNIT ( * ) SI_UNIT ( $, .STERADIAN. ) SOLID_ANGLE_UNIT ( ) );
#165 = ORIENTED_EDGE ( 'NONE', *, *, #133, .F. ) ;
#166 = CARTESIAN_POINT ( 'NONE',  ( 25.00000000000000000, -25.00000000000000000, -0.5000000000000000000 ) ) ;
#167 = PERSON_AND_ORGANIZATION ( #83, #34 ) ;
#168 = DIRECTION ( 'NONE',  ( -0.0000000000000000000, 1.000000000000000000, -0.0000000000000000000 ) ) ;
#169 = EDGE_CURVE ( 'NONE', #198, #163, #182, .T. ) ;
#170 = DIRECTION ( 'NONE',  ( -1.000000000000000000, -0.0000000000000000000, -0.0000000000000000000 ) ) ;
#171 = CARTESIAN_POINT ( 'NONE',  ( 25.00000000000000000, 25.00000000000000000, 0.5000000000000000000 ) ) ;
#172 = PRODUCT_DEFINITION_FORMATION_WITH_SPECIFIED_SOURCE ( 'ANY', '', #225, .NOT_KNOWN. ) ;
#173 = APPLICATION_CONTEXT ( 'configuration controlled 3d designs of mechanical parts and assemblies' ) ;
#174 = ORIENTED_EDGE ( 'NONE', *, *, #122, .F. ) ;
#175 = CARTESIAN_POINT ( 'NONE',  ( -25.00000000000000000, 25.00000000000000000, -0.5000000000000000000 ) ) ;
#176 = APPROVAL_PERSON_ORGANIZATION ( #167, #9, #29 ) ;
#177 = ORIENTED_EDGE ( 'NONE', *, *, #152, .F. ) ;
#178 = APPROVAL ( #146, 'UNSPECIFIED' ) ;
#179 = EDGE_LOOP ( 'NONE', ( #79, #174, #125, #165 ) ) ;
#180 = LINE ( 'NONE', #224, #80 ) ;
#181 = ORIENTED_EDGE ( 'NONE', *, *, #169, .F. ) ;
#182 = LINE ( 'NONE', #226, #58 ) ;
#183 = AXIS2_PLACEMENT_3D ( 'NONE', #95, #6, #63 ) ;
#184 = DATE_AND_TIME ( #48, #144 ) ;
#185 = FACE_OUTER_BOUND ( 'NONE', #227, .T. ) ;
#186 = LOCAL_TIME ( 14, 3, 37.00000000000000000, #39 ) ;
#187 = LOCAL_TIME ( 14, 3, 37.00000000000000000, #49 ) ;
#188 = VERTEX_POINT ( 'NONE', #175 ) ;
#189 = PLANE ( 'NONE',  #203 ) ;
#190 = APPROVAL_STATUS ( 'not_yet_approved' ) ;
#191 = MECHANICAL_CONTEXT ( 'NONE', #109, 'mechanical' ) ;
#192 = VERTEX_POINT ( 'NONE', #108 ) ;
#193 = DESIGN_CONTEXT ( 'detailed design', #173, 'design' ) ;
#194 = APPROVAL_DATE_TIME ( #219, #9 ) ;
#195 =( GEOMETRIC_REPRESENTATION_CONTEXT ( 3 ) GLOBAL_UNCERTAINTY_ASSIGNED_CONTEXT ( ( #141 ) ) GLOBAL_UNIT_ASSIGNED_CONTEXT ( ( #106, #84, #164 ) ) REPRESENTATION_CONTEXT ( 'NONE', 'WORKASPACE' ) );
#196 = PERSON_AND_ORGANIZATION ( #83, #34 ) ;
#197 = CARTESIAN_POINT ( 'NONE',  ( 25.00000000000000000, -25.00000000000000000, 0.5000000000000000000 ) ) ;
#198 = VERTEX_POINT ( 'NONE', #110 ) ;
#199 = AXIS2_PLACEMENT_3D ( 'NONE', #148, #234, #217 ) ;
#200 = CARTESIAN_POINT ( 'NONE',  ( -25.00000000000000000, 25.00000000000000000, 0.5000000000000000000 ) ) ;
#201 = PERSON_AND_ORGANIZATION_ROLE ( 'creator' ) ;
#202 = CARTESIAN_POINT ( 'NONE',  ( 25.00000000000000000, 25.00000000000000000, 0.5000000000000000000 ) ) ;
#203 = AXIS2_PLACEMENT_3D ( 'NONE', #17, #205, #77 ) ;
#204 = ADVANCED_FACE ( 'NONE', ( #15 ), #233, .T. ) ;
#205 = DIRECTION ( 'NONE',  ( -0.0000000000000000000, 0.0000000000000000000, 1.000000000000000000 ) ) ;
#206 = LINE ( 'NONE', #26, #73 ) ;
#207 = VECTOR ( 'NONE', #142, 1000.000000000000000 ) ;
#208 = DIRECTION ( 'NONE',  ( 0.0000000000000000000, -1.000000000000000000, 0.0000000000000000000 ) ) ;
#209 = EDGE_CURVE ( 'NONE', #104, #76, #66, .T. ) ;
#210 = DIRECTION ( 'NONE',  ( 0.0000000000000000000, -0.0000000000000000000, -1.000000000000000000 ) ) ;
#211 = APPROVAL_PERSON_ORGANIZATION ( #93, #35, #119 ) ;
#212 = APPROVAL_PERSON_ORGANIZATION ( #96, #178, #232 ) ;
#213 = COORDINATED_UNIVERSAL_TIME_OFFSET ( 5, 0, .BEHIND. ) ;
#214 = DIRECTION ( 'NONE',  ( -1.000000000000000000, -0.0000000000000000000, -0.0000000000000000000 ) ) ;
#215 = CC_DESIGN_PERSON_AND_ORGANIZATION_ASSIGNMENT ( #75, #114, ( #225 ) ) ;
#216 = CC_DESIGN_APPROVAL ( #35, ( #236 ) ) ;
#217 = DIRECTION ( 'NONE',  ( 1.000000000000000000, 0.0000000000000000000, 0.0000000000000000000 ) ) ;
#218 = PLANE ( 'NONE',  #86 ) ;
#219 = DATE_AND_TIME ( #43, #32 ) ;
#220 = LINE ( 'NONE', #88, #68 ) ;
#221 = EDGE_CURVE ( 'NONE', #163, #38, #2, .T. ) ;
#222 = LINE ( 'NONE', #20, #123 ) ;
#223 = CALENDAR_DATE ( 2017, 10, 4 ) ;
#224 = CARTESIAN_POINT ( 'NONE',  ( 25.00000000000000000, 25.00000000000000000, -0.5000000000000000000 ) ) ;
#225 = PRODUCT ( 'Web Model 43818_43358', 'Web Model 43818_43358', '', ( #191 ) ) ;
#226 = CARTESIAN_POINT ( 'NONE',  ( -25.00000000000000000, 25.00000000000000000, 0.5000000000000000000 ) ) ;
#227 = EDGE_LOOP ( 'NONE', ( #136, #69, #44, #14 ) ) ;
#228 = ORIENTED_EDGE ( 'NONE', *, *, #121, .T. ) ;
#229 = CARTESIAN_POINT ( 'NONE',  ( -25.00000000000000000, -25.00000000000000000, -0.5000000000000000000 ) ) ;
#230 = ORIENTED_EDGE ( 'NONE', *, *, #135, .T. ) ;
#231 = CC_DESIGN_DATE_AND_TIME_ASSIGNMENT ( #184, #107, ( #236 ) ) ;
#232 = APPROVAL_ROLE ( '' ) ;
#233 = PLANE ( 'NONE',  #183 ) ;
#234 = DIRECTION ( 'NONE',  ( 0.0000000000000000000, 0.0000000000000000000, 1.000000000000000000 ) ) ;
#235 = EDGE_LOOP ( 'NONE', ( #230, #10, #27, #51 ) ) ;
#236 = SECURITY_CLASSIFICATION ( '', '', #131 ) ;
#237 = ORIENTED_EDGE ( 'NONE', *, *, #57, .F. ) ;
ENDSEC;
END-ISO-10303-21;
