ISO-10303-21;
HEADER;
FILE_DESCRIPTION (( 'STEP AP203' ),
    '1' );
FILE_NAME ('Web Model 45567_20627.step',
    '2022-03-15T17:10:06',
    ( '' ),
    ( '' ),
    'SwSTEP 2.0',
    'SolidWorks 2021',
    '' );
FILE_SCHEMA (( 'CONFIG_CONTROL_DESIGN' ));
ENDSEC;

DATA;
#1 = APPLICATION_CONTEXT ( 'configuration controlled 3d designs of mechanical parts and assemblies' ) ;
#2 = CARTESIAN_POINT ( 'NONE',  ( 0.000000000000000000, 0.000000000000000000, 1.000000000000000000 ) ) ;
#3 = PLANE ( 'NONE',  #138 ) ;
#4 = CARTESIAN_POINT ( 'NONE',  ( 3.175000000000001155, 3.888253587292847561E-16, 1.000000000000000000 ) ) ;
#5 =( GEOMETRIC_REPRESENTATION_CONTEXT ( 3 ) GLOBAL_UNCERTAINTY_ASSIGNED_CONTEXT ( ( #12 ) ) GLOBAL_UNIT_ASSIGNED_CONTEXT ( ( #72, #110, #84 ) ) REPRESENTATION_CONTEXT ( 'NONE', 'WORKASPACE' ) );
#6 = PERSON_AND_ORGANIZATION ( #148, #122 ) ;
#7 = ADVANCED_FACE ( 'NONE', ( #97 ), #3, .F. ) ;
#8 = PERSON_AND_ORGANIZATION ( #148, #122 ) ;
#9 = COORDINATED_UNIVERSAL_TIME_OFFSET ( 5, 0, .BEHIND. ) ;
#10 = PERSON_AND_ORGANIZATION_ROLE ( 'classification_officer' ) ;
#11 = VECTOR ( 'NONE', #60, 1000.000000000000000 ) ;
#12 = UNCERTAINTY_MEASURE_WITH_UNIT (LENGTH_MEASURE( 1.000000000000000082E-05 ), #72, 'distance_accuracy_value', 'NONE');
#13 = DIRECTION ( 'NONE',  ( 0.000000000000000000, 0.000000000000000000, 1.000000000000000000 ) ) ;
#14 = ORIENTED_EDGE ( 'NONE', *, *, #158, .F. ) ;
#15 = ADVANCED_FACE ( 'NONE', ( #70 ), #151, .T. ) ;
#16 = CIRCLE ( 'NONE', #160, 3.175000000000001155 ) ;
#17 = DIRECTION ( 'NONE',  ( 0.000000000000000000, 0.000000000000000000, 1.000000000000000000 ) ) ;
#18 = CC_DESIGN_PERSON_AND_ORGANIZATION_ASSIGNMENT ( #8, #133, ( #106 ) ) ;
#19 = CARTESIAN_POINT ( 'NONE',  ( -3.175000000000001155, 0.000000000000000000, 1.000000000000000000 ) ) ;
#20 = APPROVAL_ROLE ( '' ) ;
#21 = PERSON_AND_ORGANIZATION ( #148, #122 ) ;
#22 = CC_DESIGN_APPROVAL ( #145, ( #137 ) ) ;
#23 = APPROVAL_STATUS ( 'not_yet_approved' ) ;
#24 = AXIS2_PLACEMENT_3D ( 'NONE', #96, #152, #88 ) ;
#25 = MANIFOLD_SOLID_BREP ( 'Boss-Extrude1', #38 ) ;
#26 = EDGE_LOOP ( 'NONE', ( #125, #87, #171, #153 ) ) ;
#27 = CARTESIAN_POINT ( 'NONE',  ( 3.175000000000001155, 3.888253587292847561E-16, 1.000000000000000000 ) ) ;
#28 = LOCAL_TIME ( 13, 10, 6.000000000000000000, #120 ) ;
#29 = CARTESIAN_POINT ( 'NONE',  ( 0.000000000000000000, 0.000000000000000000, 1.000000000000000000 ) ) ;
#30 = COORDINATED_UNIVERSAL_TIME_OFFSET ( 5, 0, .BEHIND. ) ;
#31 = CALENDAR_DATE ( 2022, 15, 3 ) ;
#32 = COORDINATED_UNIVERSAL_TIME_OFFSET ( 5, 0, .BEHIND. ) ;
#33 = VECTOR ( 'NONE', #101, 1000.000000000000000 ) ;
#34 = APPROVAL_STATUS ( 'not_yet_approved' ) ;
#35 = ORIENTED_EDGE ( 'NONE', *, *, #86, .F. ) ;
#36 = APPLICATION_PROTOCOL_DEFINITION ( 'international standard', 'config_control_design', 1994, #98 ) ;
#37 = AXIS2_PLACEMENT_3D ( 'NONE', #75, #146, #128 ) ;
#38 = CLOSED_SHELL ( 'NONE', ( #15, #140, #81, #7 ) ) ;
#39 = EDGE_LOOP ( 'NONE', ( #94, #35 ) ) ;
#40 = APPROVAL_PERSON_ORGANIZATION ( #144, #124, #63 ) ;
#41 = DIRECTION ( 'NONE',  ( 1.000000000000000000, 0.000000000000000000, 0.000000000000000000 ) ) ;
#42 = AXIS2_PLACEMENT_3D ( 'NONE', #69, #161, #164 ) ;
#43 = PLANE ( 'NONE',  #130 ) ;
#44 = CARTESIAN_POINT ( 'NONE',  ( -3.175000000000001155, 0.000000000000000000, 1.000000000000000000 ) ) ;
#45 = APPROVAL_PERSON_ORGANIZATION ( #66, #145, #20 ) ;
#46 = LINE ( 'NONE', #19, #33 ) ;
#47 = DIRECTION ( 'NONE',  ( 1.000000000000000000, 0.000000000000000000, 0.000000000000000000 ) ) ;
#48 = PERSON_AND_ORGANIZATION ( #148, #122 ) ;
#49 = MECHANICAL_CONTEXT ( 'NONE', #98, 'mechanical' ) ;
#50 = VERTEX_POINT ( 'NONE', #123 ) ;
#51 = PERSON_AND_ORGANIZATION_ROLE ( 'creator' ) ;
#52 = APPROVAL ( #23, 'UNSPECIFIED' ) ;
#53 = SHAPE_DEFINITION_REPRESENTATION ( #54, #74 ) ;
#54 = PRODUCT_DEFINITION_SHAPE ( 'NONE', 'NONE',  #108 ) ;
#55 = CIRCLE ( 'NONE', #67, 3.175000000000001155 ) ;
#56 = FACE_OUTER_BOUND ( 'NONE', #117, .T. ) ;
#57 = ORIENTED_EDGE ( 'NONE', *, *, #127, .F. ) ;
#58 = CC_DESIGN_PERSON_AND_ORGANIZATION_ASSIGNMENT ( #6, #129, ( #108 ) ) ;
#59 = CC_DESIGN_SECURITY_CLASSIFICATION ( #137, ( #92 ) ) ;
#60 = DIRECTION ( 'NONE',  ( -0.000000000000000000, -0.000000000000000000, -1.000000000000000000 ) ) ;
#61 = CARTESIAN_POINT ( 'NONE',  ( 3.175000000000001155, 3.888253587292847561E-16, 0.000000000000000000 ) ) ;
#62 = VERTEX_POINT ( 'NONE', #4 ) ;
#63 = APPROVAL_ROLE ( '' ) ;
#64 = APPROVAL_DATE_TIME ( #154, #52 ) ;
#65 = CALENDAR_DATE ( 2022, 15, 3 ) ;
#66 = PERSON_AND_ORGANIZATION ( #148, #122 ) ;
#67 = AXIS2_PLACEMENT_3D ( 'NONE', #166, #13, #47 ) ;
#68 = CYLINDRICAL_SURFACE ( 'NONE', #131, 3.175000000000001155 ) ;
#69 = CARTESIAN_POINT ( 'NONE',  ( 0.000000000000000000, 0.000000000000000000, 1.000000000000000000 ) ) ;
#70 = FACE_OUTER_BOUND ( 'NONE', #147, .T. ) ;
#71 = VERTEX_POINT ( 'NONE', #61 ) ;
#72 =( LENGTH_UNIT ( ) NAMED_UNIT ( * ) SI_UNIT ( .MILLI., .METRE. ) );
#73 = CC_DESIGN_PERSON_AND_ORGANIZATION_ASSIGNMENT ( #48, #51, ( #92 ) ) ;
#74 = ADVANCED_BREP_SHAPE_REPRESENTATION ( 'Web Model 45567_20627', ( #25, #37 ), #5 ) ;
#75 = CARTESIAN_POINT ( 'NONE',  ( 0.000000000000000000, 0.000000000000000000, 0.000000000000000000 ) ) ;
#76 = APPROVAL_DATE_TIME ( #132, #124 ) ;
#77 = APPROVAL_PERSON_ORGANIZATION ( #21, #52, #90 ) ;
#78 = DATE_AND_TIME ( #31, #157 ) ;
#79 = ORIENTED_EDGE ( 'NONE', *, *, #158, .T. ) ;
#80 = PERSON_AND_ORGANIZATION ( #148, #122 ) ;
#81 = ADVANCED_FACE ( 'NONE', ( #56 ), #43, .T. ) ;
#82 = CIRCLE ( 'NONE', #24, 3.175000000000001155 ) ;
#83 = FACE_OUTER_BOUND ( 'NONE', #26, .T. ) ;
#84 =( NAMED_UNIT ( * ) SI_UNIT ( $, .STERADIAN. ) SOLID_ANGLE_UNIT ( ) );
#85 = PRODUCT_RELATED_PRODUCT_CATEGORY ( 'detail', '', ( #106 ) ) ;
#86 = EDGE_CURVE ( 'NONE', #71, #50, #55, .T. ) ;
#87 = ORIENTED_EDGE ( 'NONE', *, *, #114, .F. ) ;
#88 = DIRECTION ( 'NONE',  ( 1.000000000000000000, 0.000000000000000000, 0.000000000000000000 ) ) ;
#89 = CALENDAR_DATE ( 2022, 15, 3 ) ;
#90 = APPROVAL_ROLE ( '' ) ;
#91 = ORIENTED_EDGE ( 'NONE', *, *, #114, .T. ) ;
#92 = PRODUCT_DEFINITION_FORMATION_WITH_SPECIFIED_SOURCE ( 'ANY', '', #106, .NOT_KNOWN. ) ;
#93 = PERSON_AND_ORGANIZATION_ROLE ( 'design_supplier' ) ;
#94 = ORIENTED_EDGE ( 'NONE', *, *, #172, .F. ) ;
#95 = LOCAL_TIME ( 13, 10, 6.000000000000000000, #30 ) ;
#96 = CARTESIAN_POINT ( 'NONE',  ( 0.000000000000000000, 0.000000000000000000, 0.000000000000000000 ) ) ;
#97 = FACE_OUTER_BOUND ( 'NONE', #39, .T. ) ;
#98 = APPLICATION_CONTEXT ( 'configuration controlled 3d designs of mechanical parts and assemblies' ) ;
#99 = CC_DESIGN_APPROVAL ( #52, ( #108 ) ) ;
#100 = DIRECTION ( 'NONE',  ( -0.000000000000000000, -0.000000000000000000, -1.000000000000000000 ) ) ;
#101 = DIRECTION ( 'NONE',  ( -0.000000000000000000, -0.000000000000000000, -1.000000000000000000 ) ) ;
#102 = APPLICATION_PROTOCOL_DEFINITION ( 'international standard', 'config_control_design', 1994, #1 ) ;
#103 = DATE_TIME_ROLE ( 'creation_date' ) ;
#104 = COORDINATED_UNIVERSAL_TIME_OFFSET ( 5, 0, .BEHIND. ) ;
#105 = APPROVAL_DATE_TIME ( #173, #145 ) ;
#106 = PRODUCT ( 'Web Model 45567_20627', 'Web Model 45567_20627', '', ( #49 ) ) ;
#107 = ORIENTED_EDGE ( 'NONE', *, *, #142, .T. ) ;
#108 = PRODUCT_DEFINITION ( 'UNKNOWN', '', #92, #165 ) ;
#109 = CARTESIAN_POINT ( 'NONE',  ( 0.000000000000000000, 0.000000000000000000, 1.000000000000000000 ) ) ;
#110 =( NAMED_UNIT ( * ) PLANE_ANGLE_UNIT ( ) SI_UNIT ( $, .RADIAN. ) );
#111 = LINE ( 'NONE', #27, #11 ) ;
#112 = DIRECTION ( 'NONE',  ( 1.000000000000000000, 0.000000000000000000, -0.000000000000000000 ) ) ;
#113 = DIRECTION ( 'NONE',  ( 1.000000000000000000, 0.000000000000000000, -0.000000000000000000 ) ) ;
#114 = EDGE_CURVE ( 'NONE', #174, #62, #119, .T. ) ;
#115 = CALENDAR_DATE ( 2022, 15, 3 ) ;
#116 = LOCAL_TIME ( 13, 10, 6.000000000000000000, #104 ) ;
#117 = EDGE_LOOP ( 'NONE', ( #91, #79 ) ) ;
#118 = APPROVAL_STATUS ( 'not_yet_approved' ) ;
#119 = CIRCLE ( 'NONE', #42, 3.175000000000001155 ) ;
#120 = COORDINATED_UNIVERSAL_TIME_OFFSET ( 5, 0, .BEHIND. ) ;
#121 = CARTESIAN_POINT ( 'NONE',  ( 0.000000000000000000, 0.000000000000000000, 0.000000000000000000 ) ) ;
#122 = ORGANIZATION ( 'UNSPECIFIED', 'UNSPECIFIED', '' ) ;
#123 = CARTESIAN_POINT ( 'NONE',  ( -3.175000000000001155, 0.000000000000000000, 0.000000000000000000 ) ) ;
#124 = APPROVAL ( #118, 'UNSPECIFIED' ) ;
#125 = ORIENTED_EDGE ( 'NONE', *, *, #142, .F. ) ;
#126 = CARTESIAN_POINT ( 'NONE',  ( 0.000000000000000000, 0.000000000000000000, 1.000000000000000000 ) ) ;
#127 = EDGE_CURVE ( 'NONE', #174, #50, #46, .T. ) ;
#128 = DIRECTION ( 'NONE',  ( 1.000000000000000000, 0.000000000000000000, 0.000000000000000000 ) ) ;
#129 = PERSON_AND_ORGANIZATION_ROLE ( 'creator' ) ;
#130 = AXIS2_PLACEMENT_3D ( 'NONE', #2, #141, #113 ) ;
#131 = AXIS2_PLACEMENT_3D ( 'NONE', #109, #100, #175 ) ;
#132 = DATE_AND_TIME ( #168, #95 ) ;
#133 = PERSON_AND_ORGANIZATION_ROLE ( 'design_owner' ) ;
#134 = CC_DESIGN_DATE_AND_TIME_ASSIGNMENT ( #155, #156, ( #137 ) ) ;
#135 = PERSON_AND_ORGANIZATION ( #148, #122 ) ;
#136 = DIRECTION ( 'NONE',  ( -0.000000000000000000, -0.000000000000000000, -1.000000000000000000 ) ) ;
#137 = SECURITY_CLASSIFICATION ( '', '', #170 ) ;
#138 = AXIS2_PLACEMENT_3D ( 'NONE', #121, #17, #112 ) ;
#139 = CC_DESIGN_APPROVAL ( #124, ( #92 ) ) ;
#140 = ADVANCED_FACE ( 'NONE', ( #83 ), #68, .T. ) ;
#141 = DIRECTION ( 'NONE',  ( 0.000000000000000000, 0.000000000000000000, 1.000000000000000000 ) ) ;
#142 = EDGE_CURVE ( 'NONE', #62, #71, #111, .T. ) ;
#143 = ORIENTED_EDGE ( 'NONE', *, *, #86, .T. ) ;
#144 = PERSON_AND_ORGANIZATION ( #148, #122 ) ;
#145 = APPROVAL ( #34, 'UNSPECIFIED' ) ;
#146 = DIRECTION ( 'NONE',  ( 0.000000000000000000, 0.000000000000000000, 1.000000000000000000 ) ) ;
#147 = EDGE_LOOP ( 'NONE', ( #14, #107, #143, #57 ) ) ;
#148 = PERSON ( 'UNSPECIFIED', 'UNSPECIFIED', 'UNSPECIFIED', ('UNSPECIFIED'), ('UNSPECIFIED'), ('UNSPECIFIED') ) ;
#149 = DIRECTION ( 'NONE',  ( -1.000000000000000000, 0.000000000000000000, 0.000000000000000000 ) ) ;
#150 = CC_DESIGN_PERSON_AND_ORGANIZATION_ASSIGNMENT ( #135, #10, ( #137 ) ) ;
#151 = CYLINDRICAL_SURFACE ( 'NONE', #159, 3.175000000000001155 ) ;
#152 = DIRECTION ( 'NONE',  ( 0.000000000000000000, 0.000000000000000000, 1.000000000000000000 ) ) ;
#153 = ORIENTED_EDGE ( 'NONE', *, *, #172, .T. ) ;
#154 = DATE_AND_TIME ( #65, #169 ) ;
#155 = DATE_AND_TIME ( #89, #116 ) ;
#156 = DATE_TIME_ROLE ( 'classification_date' ) ;
#157 = LOCAL_TIME ( 13, 10, 6.000000000000000000, #9 ) ;
#158 = EDGE_CURVE ( 'NONE', #62, #174, #16, .T. ) ;
#159 = AXIS2_PLACEMENT_3D ( 'NONE', #126, #136, #149 ) ;
#160 = AXIS2_PLACEMENT_3D ( 'NONE', #29, #163, #41 ) ;
#161 = DIRECTION ( 'NONE',  ( 0.000000000000000000, 0.000000000000000000, 1.000000000000000000 ) ) ;
#162 = CC_DESIGN_DATE_AND_TIME_ASSIGNMENT ( #78, #103, ( #108 ) ) ;
#163 = DIRECTION ( 'NONE',  ( 0.000000000000000000, 0.000000000000000000, 1.000000000000000000 ) ) ;
#164 = DIRECTION ( 'NONE',  ( 1.000000000000000000, 0.000000000000000000, 0.000000000000000000 ) ) ;
#165 = DESIGN_CONTEXT ( 'detailed design', #1, 'design' ) ;
#166 = CARTESIAN_POINT ( 'NONE',  ( 0.000000000000000000, 0.000000000000000000, 0.000000000000000000 ) ) ;
#167 = CC_DESIGN_PERSON_AND_ORGANIZATION_ASSIGNMENT ( #80, #93, ( #92 ) ) ;
#168 = CALENDAR_DATE ( 2022, 15, 3 ) ;
#169 = LOCAL_TIME ( 13, 10, 6.000000000000000000, #32 ) ;
#170 = SECURITY_CLASSIFICATION_LEVEL ( 'unclassified' ) ;
#171 = ORIENTED_EDGE ( 'NONE', *, *, #127, .T. ) ;
#172 = EDGE_CURVE ( 'NONE', #50, #71, #82, .T. ) ;
#173 = DATE_AND_TIME ( #115, #28 ) ;
#174 = VERTEX_POINT ( 'NONE', #44 ) ;
#175 = DIRECTION ( 'NONE',  ( -1.000000000000000000, 0.000000000000000000, 0.000000000000000000 ) ) ;
ENDSEC;
END-ISO-10303-21;
