ISO-10303-21;
HEADER;
FILE_DESCRIPTION (( 'STEP AP203' ),
    '1' );
FILE_NAME ('Web Model 43368_20663.step',
    '2022-03-16T14:21:06',
    ( '' ),
    ( '' ),
    'SwSTEP 2.0',
    'SolidWorks 2021',
    '' );
FILE_SCHEMA (( 'CONFIG_CONTROL_DESIGN' ));
ENDSEC;

DATA;
#1 = CC_DESIGN_DATE_AND_TIME_ASSIGNMENT ( #74, #147, ( #55 ) ) ;
#2 = UNCERTAINTY_MEASURE_WITH_UNIT (LENGTH_MEASURE( 1.000000000000000082E-05 ), #110, 'distance_accuracy_value', 'NONE');
#3 = COORDINATED_UNIVERSAL_TIME_OFFSET ( 5, 0, .BEHIND. ) ;
#4 = DIRECTION ( 'NONE',  ( 1.000000000000000000, 0.000000000000000000, 0.000000000000000000 ) ) ;
#5 = COORDINATED_UNIVERSAL_TIME_OFFSET ( 5, 0, .BEHIND. ) ;
#6 = ADVANCED_BREP_SHAPE_REPRESENTATION ( 'Web Model 43368_20663', ( #52, #51 ), #76 ) ;
#7 = COORDINATED_UNIVERSAL_TIME_OFFSET ( 5, 0, .BEHIND. ) ;
#8 = APPROVAL_DATE_TIME ( #19, #60 ) ;
#9 = APPROVAL ( #10, 'UNSPECIFIED' ) ;
#10 = APPROVAL_STATUS ( 'not_yet_approved' ) ;
#11 = DIRECTION ( 'NONE',  ( -0.000000000000000000, -0.000000000000000000, -1.000000000000000000 ) ) ;
#12 = ADVANCED_FACE ( 'NONE', ( #173 ), #104, .T. ) ;
#13 = CARTESIAN_POINT ( 'NONE',  ( 10.00000000000000000, 1.224646799147353256E-15, 0.000000000000000000 ) ) ;
#14 = CC_DESIGN_APPROVAL ( #126, ( #46 ) ) ;
#15 = AXIS2_PLACEMENT_3D ( 'NONE', #144, #56, #97 ) ;
#16 = CARTESIAN_POINT ( 'NONE',  ( -10.00000000000000000, 0.000000000000000000, 1.000000000000000000 ) ) ;
#17 = CARTESIAN_POINT ( 'NONE',  ( 0.000000000000000000, 0.000000000000000000, 0.000000000000000000 ) ) ;
#18 = DIRECTION ( 'NONE',  ( -1.000000000000000000, 0.000000000000000000, 0.000000000000000000 ) ) ;
#19 = DATE_AND_TIME ( #171, #84 ) ;
#20 = EDGE_LOOP ( 'NONE', ( #141, #50 ) ) ;
#21 = CALENDAR_DATE ( 2022, 16, 3 ) ;
#22 = CARTESIAN_POINT ( 'NONE',  ( 0.000000000000000000, 0.000000000000000000, 1.000000000000000000 ) ) ;
#23 = APPROVAL_PERSON_ORGANIZATION ( #63, #9, #119 ) ;
#24 = DIRECTION ( 'NONE',  ( 0.000000000000000000, 0.000000000000000000, 1.000000000000000000 ) ) ;
#25 = CC_DESIGN_SECURITY_CLASSIFICATION ( #55, ( #163 ) ) ;
#26 = PERSON_AND_ORGANIZATION_ROLE ( 'creator' ) ;
#27 = EDGE_CURVE ( 'NONE', #132, #148, #43, .T. ) ;
#28 = PERSON ( 'UNSPECIFIED', 'UNSPECIFIED', 'UNSPECIFIED', ('UNSPECIFIED'), ('UNSPECIFIED'), ('UNSPECIFIED') ) ;
#29 = MECHANICAL_CONTEXT ( 'NONE', #122, 'mechanical' ) ;
#30 = PLANE ( 'NONE',  #58 ) ;
#31 = PERSON_AND_ORGANIZATION ( #28, #136 ) ;
#32 = CALENDAR_DATE ( 2022, 16, 3 ) ;
#33 = AXIS2_PLACEMENT_3D ( 'NONE', #53, #54, #146 ) ;
#34 = DATE_TIME_ROLE ( 'creation_date' ) ;
#35 = ORIENTED_EDGE ( 'NONE', *, *, #151, .F. ) ;
#36 = ADVANCED_FACE ( 'NONE', ( #37 ), #93, .T. ) ;
#37 = FACE_OUTER_BOUND ( 'NONE', #20, .T. ) ;
#38 = APPROVAL_PERSON_ORGANIZATION ( #174, #60, #48 ) ;
#39 = VERTEX_POINT ( 'NONE', #13 ) ;
#40 = DIRECTION ( 'NONE',  ( 0.000000000000000000, 0.000000000000000000, 1.000000000000000000 ) ) ;
#41 = LINE ( 'NONE', #165, #115 ) ;
#42 = PERSON_AND_ORGANIZATION ( #28, #136 ) ;
#43 = CIRCLE ( 'NONE', #68, 10.00000000000000000 ) ;
#44 = APPROVAL_STATUS ( 'not_yet_approved' ) ;
#45 = SECURITY_CLASSIFICATION_LEVEL ( 'unclassified' ) ;
#46 = PRODUCT_DEFINITION ( 'UNKNOWN', '', #163, #155 ) ;
#47 = EDGE_LOOP ( 'NONE', ( #106, #135 ) ) ;
#48 = APPROVAL_ROLE ( '' ) ;
#49 = DATE_AND_TIME ( #32, #159 ) ;
#50 = ORIENTED_EDGE ( 'NONE', *, *, #95, .T. ) ;
#51 = AXIS2_PLACEMENT_3D ( 'NONE', #112, #164, #114 ) ;
#52 = MANIFOLD_SOLID_BREP ( 'Boss-Extrude1', #129 ) ;
#53 = CARTESIAN_POINT ( 'NONE',  ( 0.000000000000000000, 0.000000000000000000, 0.000000000000000000 ) ) ;
#54 = DIRECTION ( 'NONE',  ( 0.000000000000000000, 0.000000000000000000, 1.000000000000000000 ) ) ;
#55 = SECURITY_CLASSIFICATION ( '', '', #45 ) ;
#56 = DIRECTION ( 'NONE',  ( 0.000000000000000000, 0.000000000000000000, 1.000000000000000000 ) ) ;
#57 = PERSON_AND_ORGANIZATION ( #28, #136 ) ;
#58 = AXIS2_PLACEMENT_3D ( 'NONE', #17, #40, #125 ) ;
#59 = PERSON_AND_ORGANIZATION ( #28, #136 ) ;
#60 = APPROVAL ( #172, 'UNSPECIFIED' ) ;
#61 = ORIENTED_EDGE ( 'NONE', *, *, #95, .F. ) ;
#62 = CC_DESIGN_PERSON_AND_ORGANIZATION_ASSIGNMENT ( #66, #75, ( #163 ) ) ;
#63 = PERSON_AND_ORGANIZATION ( #28, #136 ) ;
#64 = ADVANCED_FACE ( 'NONE', ( #128 ), #142, .T. ) ;
#65 = VERTEX_POINT ( 'NONE', #169 ) ;
#66 = PERSON_AND_ORGANIZATION ( #28, #136 ) ;
#67 = DIRECTION ( 'NONE',  ( 1.000000000000000000, 0.000000000000000000, 0.000000000000000000 ) ) ;
#68 = AXIS2_PLACEMENT_3D ( 'NONE', #22, #77, #67 ) ;
#69 = VECTOR ( 'NONE', #143, 1000.000000000000000 ) ;
#70 = CARTESIAN_POINT ( 'NONE',  ( 0.000000000000000000, 0.000000000000000000, 1.000000000000000000 ) ) ;
#71 =( NAMED_UNIT ( * ) PLANE_ANGLE_UNIT ( ) SI_UNIT ( $, .RADIAN. ) );
#72 = DIRECTION ( 'NONE',  ( 0.000000000000000000, 0.000000000000000000, 1.000000000000000000 ) ) ;
#73 = AXIS2_PLACEMENT_3D ( 'NONE', #78, #11, #161 ) ;
#74 = DATE_AND_TIME ( #134, #123 ) ;
#75 = PERSON_AND_ORGANIZATION_ROLE ( 'creator' ) ;
#76 =( GEOMETRIC_REPRESENTATION_CONTEXT ( 3 ) GLOBAL_UNCERTAINTY_ASSIGNED_CONTEXT ( ( #2 ) ) GLOBAL_UNIT_ASSIGNED_CONTEXT ( ( #110, #71, #127 ) ) REPRESENTATION_CONTEXT ( 'NONE', 'WORKASPACE' ) );
#77 = DIRECTION ( 'NONE',  ( 0.000000000000000000, 0.000000000000000000, 1.000000000000000000 ) ) ;
#78 = CARTESIAN_POINT ( 'NONE',  ( 0.000000000000000000, 0.000000000000000000, 1.000000000000000000 ) ) ;
#79 = PRODUCT_DEFINITION_SHAPE ( 'NONE', 'NONE',  #46 ) ;
#80 = APPROVAL_PERSON_ORGANIZATION ( #57, #126, #100 ) ;
#81 = ADVANCED_FACE ( 'NONE', ( #83 ), #30, .F. ) ;
#82 = ORIENTED_EDGE ( 'NONE', *, *, #151, .T. ) ;
#83 = FACE_OUTER_BOUND ( 'NONE', #47, .T. ) ;
#84 = LOCAL_TIME ( 10, 21, 6.000000000000000000, #7 ) ;
#85 = DATE_AND_TIME ( #99, #121 ) ;
#86 = CARTESIAN_POINT ( 'NONE',  ( 0.000000000000000000, 0.000000000000000000, 1.000000000000000000 ) ) ;
#87 = PERSON_AND_ORGANIZATION_ROLE ( 'design_owner' ) ;
#88 = DIRECTION ( 'NONE',  ( -0.000000000000000000, -0.000000000000000000, -1.000000000000000000 ) ) ;
#89 = PERSON_AND_ORGANIZATION_ROLE ( 'classification_officer' ) ;
#90 = CIRCLE ( 'NONE', #33, 10.00000000000000000 ) ;
#91 = ORIENTED_EDGE ( 'NONE', *, *, #149, .F. ) ;
#92 = PRODUCT ( 'Web Model 43368_20663', 'Web Model 43368_20663', '', ( #29 ) ) ;
#93 = PLANE ( 'NONE',  #170 ) ;
#94 = CC_DESIGN_PERSON_AND_ORGANIZATION_ASSIGNMENT ( #101, #26, ( #46 ) ) ;
#95 = EDGE_CURVE ( 'NONE', #148, #132, #98, .T. ) ;
#96 = EDGE_LOOP ( 'NONE', ( #61, #82, #138, #91 ) ) ;
#97 = DIRECTION ( 'NONE',  ( 1.000000000000000000, 0.000000000000000000, 0.000000000000000000 ) ) ;
#98 = CIRCLE ( 'NONE', #158, 10.00000000000000000 ) ;
#99 = CALENDAR_DATE ( 2022, 16, 3 ) ;
#100 = APPROVAL_ROLE ( '' ) ;
#101 = PERSON_AND_ORGANIZATION ( #28, #136 ) ;
#102 = COORDINATED_UNIVERSAL_TIME_OFFSET ( 5, 0, .BEHIND. ) ;
#103 = CC_DESIGN_APPROVAL ( #9, ( #55 ) ) ;
#104 = CYLINDRICAL_SURFACE ( 'NONE', #73, 10.00000000000000000 ) ;
#105 = APPLICATION_CONTEXT ( 'configuration controlled 3d designs of mechanical parts and assemblies' ) ;
#106 = ORIENTED_EDGE ( 'NONE', *, *, #113, .F. ) ;
#107 = CC_DESIGN_PERSON_AND_ORGANIZATION_ASSIGNMENT ( #59, #89, ( #55 ) ) ;
#108 = ORIENTED_EDGE ( 'NONE', *, *, #113, .T. ) ;
#109 = APPLICATION_PROTOCOL_DEFINITION ( 'international standard', 'config_control_design', 1994, #105 ) ;
#110 =( LENGTH_UNIT ( ) NAMED_UNIT ( * ) SI_UNIT ( .MILLI., .METRE. ) );
#111 = LOCAL_TIME ( 10, 21, 6.000000000000000000, #5 ) ;
#112 = CARTESIAN_POINT ( 'NONE',  ( 0.000000000000000000, 0.000000000000000000, 0.000000000000000000 ) ) ;
#113 = EDGE_CURVE ( 'NONE', #65, #39, #166, .T. ) ;
#114 = DIRECTION ( 'NONE',  ( 1.000000000000000000, 0.000000000000000000, 0.000000000000000000 ) ) ;
#115 = VECTOR ( 'NONE', #88, 1000.000000000000000 ) ;
#116 = APPROVAL_DATE_TIME ( #49, #9 ) ;
#117 = SHAPE_DEFINITION_REPRESENTATION ( #79, #6 ) ;
#118 = ORIENTED_EDGE ( 'NONE', *, *, #27, .F. ) ;
#119 = APPROVAL_ROLE ( '' ) ;
#120 = CC_DESIGN_PERSON_AND_ORGANIZATION_ASSIGNMENT ( #42, #87, ( #92 ) ) ;
#121 = LOCAL_TIME ( 10, 21, 6.000000000000000000, #3 ) ;
#122 = APPLICATION_CONTEXT ( 'configuration controlled 3d designs of mechanical parts and assemblies' ) ;
#123 = LOCAL_TIME ( 10, 21, 6.000000000000000000, #130 ) ;
#124 = CARTESIAN_POINT ( 'NONE',  ( -10.00000000000000000, 0.000000000000000000, 1.000000000000000000 ) ) ;
#125 = DIRECTION ( 'NONE',  ( 1.000000000000000000, 0.000000000000000000, -0.000000000000000000 ) ) ;
#126 = APPROVAL ( #44, 'UNSPECIFIED' ) ;
#127 =( NAMED_UNIT ( * ) SI_UNIT ( $, .STERADIAN. ) SOLID_ANGLE_UNIT ( ) );
#128 = FACE_OUTER_BOUND ( 'NONE', #162, .T. ) ;
#129 = CLOSED_SHELL ( 'NONE', ( #12, #64, #36, #81 ) ) ;
#130 = COORDINATED_UNIVERSAL_TIME_OFFSET ( 5, 0, .BEHIND. ) ;
#131 = DATE_AND_TIME ( #21, #111 ) ;
#132 = VERTEX_POINT ( 'NONE', #16 ) ;
#133 = CC_DESIGN_DATE_AND_TIME_ASSIGNMENT ( #131, #34, ( #46 ) ) ;
#134 = CALENDAR_DATE ( 2022, 16, 3 ) ;
#135 = ORIENTED_EDGE ( 'NONE', *, *, #175, .F. ) ;
#136 = ORGANIZATION ( 'UNSPECIFIED', 'UNSPECIFIED', '' ) ;
#137 = PERSON_AND_ORGANIZATION_ROLE ( 'design_supplier' ) ;
#138 = ORIENTED_EDGE ( 'NONE', *, *, #175, .T. ) ;
#139 = DIRECTION ( 'NONE',  ( 1.000000000000000000, 0.000000000000000000, -0.000000000000000000 ) ) ;
#140 = CC_DESIGN_APPROVAL ( #60, ( #163 ) ) ;
#141 = ORIENTED_EDGE ( 'NONE', *, *, #27, .T. ) ;
#142 = CYLINDRICAL_SURFACE ( 'NONE', #145, 10.00000000000000000 ) ;
#143 = DIRECTION ( 'NONE',  ( -0.000000000000000000, -0.000000000000000000, -1.000000000000000000 ) ) ;
#144 = CARTESIAN_POINT ( 'NONE',  ( 0.000000000000000000, 0.000000000000000000, 0.000000000000000000 ) ) ;
#145 = AXIS2_PLACEMENT_3D ( 'NONE', #70, #153, #18 ) ;
#146 = DIRECTION ( 'NONE',  ( 1.000000000000000000, 0.000000000000000000, 0.000000000000000000 ) ) ;
#147 = DATE_TIME_ROLE ( 'classification_date' ) ;
#148 = VERTEX_POINT ( 'NONE', #156 ) ;
#149 = EDGE_CURVE ( 'NONE', #132, #65, #157, .T. ) ;
#150 = CARTESIAN_POINT ( 'NONE',  ( 0.000000000000000000, 0.000000000000000000, 1.000000000000000000 ) ) ;
#151 = EDGE_CURVE ( 'NONE', #148, #39, #41, .T. ) ;
#152 = ORIENTED_EDGE ( 'NONE', *, *, #149, .T. ) ;
#153 = DIRECTION ( 'NONE',  ( -0.000000000000000000, -0.000000000000000000, -1.000000000000000000 ) ) ;
#154 = APPROVAL_DATE_TIME ( #85, #126 ) ;
#155 = DESIGN_CONTEXT ( 'detailed design', #105, 'design' ) ;
#156 = CARTESIAN_POINT ( 'NONE',  ( 10.00000000000000000, 1.224646799147353256E-15, 1.000000000000000000 ) ) ;
#157 = LINE ( 'NONE', #124, #69 ) ;
#158 = AXIS2_PLACEMENT_3D ( 'NONE', #86, #72, #4 ) ;
#159 = LOCAL_TIME ( 10, 21, 6.000000000000000000, #102 ) ;
#160 = PRODUCT_RELATED_PRODUCT_CATEGORY ( 'detail', '', ( #92 ) ) ;
#161 = DIRECTION ( 'NONE',  ( -1.000000000000000000, 0.000000000000000000, 0.000000000000000000 ) ) ;
#162 = EDGE_LOOP ( 'NONE', ( #35, #118, #152, #108 ) ) ;
#163 = PRODUCT_DEFINITION_FORMATION_WITH_SPECIFIED_SOURCE ( 'ANY', '', #92, .NOT_KNOWN. ) ;
#164 = DIRECTION ( 'NONE',  ( 0.000000000000000000, 0.000000000000000000, 1.000000000000000000 ) ) ;
#165 = CARTESIAN_POINT ( 'NONE',  ( 10.00000000000000000, 1.224646799147353256E-15, 1.000000000000000000 ) ) ;
#166 = CIRCLE ( 'NONE', #15, 10.00000000000000000 ) ;
#167 = CC_DESIGN_PERSON_AND_ORGANIZATION_ASSIGNMENT ( #31, #137, ( #163 ) ) ;
#168 = APPLICATION_PROTOCOL_DEFINITION ( 'international standard', 'config_control_design', 1994, #122 ) ;
#169 = CARTESIAN_POINT ( 'NONE',  ( -10.00000000000000000, 0.000000000000000000, 0.000000000000000000 ) ) ;
#170 = AXIS2_PLACEMENT_3D ( 'NONE', #150, #24, #139 ) ;
#171 = CALENDAR_DATE ( 2022, 16, 3 ) ;
#172 = APPROVAL_STATUS ( 'not_yet_approved' ) ;
#173 = FACE_OUTER_BOUND ( 'NONE', #96, .T. ) ;
#174 = PERSON_AND_ORGANIZATION ( #28, #136 ) ;
#175 = EDGE_CURVE ( 'NONE', #39, #65, #90, .T. ) ;
ENDSEC;
END-ISO-10303-21;
