ISO-10303-21;
HEADER;
FILE_DESCRIPTION (( 'STEP AP214' ),
    '1' );
FILE_NAME ('19307-E0W.STEP',
    '2009-12-21T17:07:07',
    ( ' ' ),
    ( ' ' ),
    'SwSTEP 2.0',
    'SolidWorks 2009',
    '' );
FILE_SCHEMA (( 'AUTOMOTIVE_DESIGN' ));
ENDSEC;

DATA;
#1 = ORIENTED_EDGE ( 'NONE', *, *, #37, .T. ) ;
#2 = ORIENTED_EDGE ( 'NONE', *, *, #9, .T. ) ;
#3 = ORIENTED_EDGE ( 'NONE', *, *, #50, .F. ) ;
#4 = ORIENTED_EDGE ( 'NONE', *, *, #25, .F. ) ;
#5 = MANIFOLD_SOLID_BREP ( 'NONE', #11 ) ;
#6 = VERTEX_POINT ( 'NONE', #74 ) ;
#7 = ORIENTED_EDGE ( 'NONE', *, *, #47, .T. ) ;
#8 = ORIENTED_EDGE ( 'NONE', *, *, #9, .F. ) ;
#9 = EDGE_CURVE ( 'NONE', #6, #59, #67, .T. ) ;
#10 = ORIENTED_EDGE ( 'NONE', *, *, #45, .T. ) ;
#11 = CLOSED_SHELL ( 'NONE', ( #55, #42, #62, #35, #15 ) ) ;
#12 = ORIENTED_EDGE ( 'NONE', *, *, #22, .F. ) ;
#13 = EDGE_LOOP ( 'NONE', ( #58, #49, #48, #43, #41 ) ) ;
#14 = EDGE_LOOP ( 'NONE', ( #3, #8 ) ) ;
#15 = ADVANCED_FACE ( 'NONE', ( #71 ), #92, .F. ) ;
#16 = EDGE_LOOP ( 'NONE', ( #51, #2, #10, #4, #12 ) ) ;
#17 = ORIENTED_EDGE ( 'NONE', *, *, #18, .T. ) ;
#18 = EDGE_CURVE ( 'NONE', #23, #24, #96, .T. ) ;
#19 = ORIENTED_EDGE ( 'NONE', *, *, #37, .F. ) ;
#20 = EDGE_LOOP ( 'NONE', ( #54, #36, #46, #1 ) ) ;
#21 = ORIENTED_EDGE ( 'NONE', *, *, #22, .T. ) ;
#22 = EDGE_CURVE ( 'NONE', #56, #23, #91, .T. ) ;
#23 = VERTEX_POINT ( 'NONE', #90 ) ;
#24 = VERTEX_POINT ( 'NONE', #89 ) ;
#25 = EDGE_CURVE ( 'NONE', #23, #30, #114, .T. ) ;
#26 = PRESENTATION_STYLE_ASSIGNMENT (( #27 ) ) ;
#27 = SURFACE_STYLE_USAGE ( .BOTH. , #60 ) ;
#28 = FILL_AREA_STYLE_COLOUR ( '', #57 ) ;
#29 = VERTEX_POINT ( 'NONE', #105 ) ;
#30 = VERTEX_POINT ( 'NONE', #111 ) ;
#31 = EDGE_CURVE ( 'NONE', #6, #56, #115, .T. ) ;
#32 = FILL_AREA_STYLE ('',( #28 ) ) ;
#33 =( LENGTH_UNIT ( ) NAMED_UNIT ( * ) SI_UNIT ( .MILLI., .METRE. ) );
#34 = MECHANICAL_DESIGN_GEOMETRIC_PRESENTATION_REPRESENTATION (  '', ( #53 ), #85 ) ;
#35 = ADVANCED_FACE ( 'NONE', ( #122 ), #150, .T. ) ;
#36 = ORIENTED_EDGE ( 'NONE', *, *, #25, .T. ) ;
#37 = EDGE_CURVE ( 'NONE', #29, #24, #128, .T. ) ;
#38 =( NAMED_UNIT ( * ) SI_UNIT ( $, .STERADIAN. ) SOLID_ANGLE_UNIT ( ) );
#39 =( NAMED_UNIT ( * ) PLANE_ANGLE_UNIT ( ) SI_UNIT ( $, .RADIAN. ) );
#40 = EDGE_LOOP ( 'NONE', ( #7, #21, #17, #19 ) ) ;
#41 = ORIENTED_EDGE ( 'NONE', *, *, #45, .F. ) ;
#42 = ADVANCED_FACE ( 'NONE', ( #144 ), #162, .T. ) ;
#43 = ORIENTED_EDGE ( 'NONE', *, *, #44, .F. ) ;
#44 = EDGE_CURVE ( 'NONE', #30, #29, #168, .T. ) ;
#45 = EDGE_CURVE ( 'NONE', #59, #30, #179, .T. ) ;
#46 = ORIENTED_EDGE ( 'NONE', *, *, #44, .T. ) ;
#47 = EDGE_CURVE ( 'NONE', #29, #56, #166, .T. ) ;
#48 = ORIENTED_EDGE ( 'NONE', *, *, #47, .F. ) ;
#49 = ORIENTED_EDGE ( 'NONE', *, *, #31, .T. ) ;
#50 = EDGE_CURVE ( 'NONE', #59, #6, #175, .T. ) ;
#51 = ORIENTED_EDGE ( 'NONE', *, *, #31, .F. ) ;
#52 = PRESENTATION_LAYER_ASSIGNMENT (  '', '', ( #53 ) ) ;
#53 = STYLED_ITEM ( 'NONE', ( #26 ), #5 ) ;
#54 = ORIENTED_EDGE ( 'NONE', *, *, #18, .F. ) ;
#55 = ADVANCED_FACE ( 'NONE', ( #199 ), #212, .T. ) ;
#56 = VERTEX_POINT ( 'NONE', #214 ) ;
#57 = COLOUR_RGB ( '',0.7960784313725489700, 0.8235294117647058400, 0.9372549019607843100 ) ;
#58 = ORIENTED_EDGE ( 'NONE', *, *, #50, .T. ) ;
#59 = VERTEX_POINT ( 'NONE', #204 ) ;
#60 = SURFACE_SIDE_STYLE ('',( #61 ) ) ;
#61 = SURFACE_STYLE_FILL_AREA ( #32 ) ;
#62 = ADVANCED_FACE ( 'NONE', ( #208 ), #186, .T. ) ;
#63 = PRESENTATION_LAYER_ASSIGNMENT (  '', '', ( #68 ) ) ;
#64 = DIRECTION ( 'NONE',  ( 1.000000000000000000, 0.0000000000000000000, 0.0000000000000000000 ) ) ;
#65 = SURFACE_STYLE_FILL_AREA ( #79 ) ;
#66 =( LENGTH_UNIT ( ) NAMED_UNIT ( * ) SI_UNIT ( .MILLI., .METRE. ) );
#67 = CIRCLE ( 'NONE', #75, 15.00000000000000000 ) ;
#68 = STYLED_ITEM ( 'NONE', ( #81 ), #15 ) ;
#69 = DIRECTION ( 'NONE',  ( -0.0000000000000000000, -0.0000000000000000000, 1.000000000000000000 ) ) ;
#70 = FILL_AREA_STYLE_COLOUR ( '', #83 ) ;
#71 = FACE_OUTER_BOUND ( 'NONE', #14, .T. ) ;
#72 = UNCERTAINTY_MEASURE_WITH_UNIT (LENGTH_MEASURE( 1.000000000000000100E-005 ), #33, 'distance_accuracy_value', 'NONE');
#73 =( NAMED_UNIT ( * ) PLANE_ANGLE_UNIT ( ) SI_UNIT ( $, .RADIAN. ) );
#74 = CARTESIAN_POINT ( 'NONE',  ( -15.00000000000000000, 1.836909530733565900E-015, -1.525000000000000400 ) ) ;
#75 = AXIS2_PLACEMENT_3D ( 'NONE', #84, #69, #64 ) ;
#76 = SURFACE_SIDE_STYLE ('',( #65 ) ) ;
#77 = UNCERTAINTY_MEASURE_WITH_UNIT (LENGTH_MEASURE( 1.000000000000000100E-005 ), #66, 'distance_accuracy_value', 'NONE');
#78 =( NAMED_UNIT ( * ) SI_UNIT ( $, .STERADIAN. ) SOLID_ANGLE_UNIT ( ) );
#79 = FILL_AREA_STYLE ('',( #70 ) ) ;
#80 = SURFACE_STYLE_USAGE ( .BOTH. , #76 ) ;
#81 = PRESENTATION_STYLE_ASSIGNMENT (( #80 ) ) ;
#82 = MECHANICAL_DESIGN_GEOMETRIC_PRESENTATION_REPRESENTATION (  '', ( #68 ), #97 ) ;
#83 = COLOUR_RGB ( '',0.9568627450980391500, 0.9490196078431372100, 0.9607843137254902200 ) ;
#84 = CARTESIAN_POINT ( 'NONE',  ( 0.0000000000000000000, 0.0000000000000000000, -1.525000000000000400 ) ) ;
#85 =( GEOMETRIC_REPRESENTATION_CONTEXT ( 3 ) GLOBAL_UNCERTAINTY_ASSIGNED_CONTEXT ( ( #72 ) ) GLOBAL_UNIT_ASSIGNED_CONTEXT ( ( #33, #39, #38 ) ) REPRESENTATION_CONTEXT ( 'NONE', 'WORKASPACE' ) );
#86 = AXIS2_PLACEMENT_3D ( 'NONE', #94, #103, #87 ) ;
#87 = DIRECTION ( 'NONE',  ( -1.224606353822377300E-016, -1.000000000000000000, 0.0000000000000000000 ) ) ;
#88 = DIRECTION ( 'NONE',  ( -0.0000000000000000000, -0.0000000000000000000, 1.000000000000000000 ) ) ;
#89 = CARTESIAN_POINT ( 'NONE',  ( 0.0000000000000000000, 4.730654344815844000E-015, 1.524999999999998600 ) ) ;
#90 = CARTESIAN_POINT ( 'NONE',  ( -1.836909530733568600E-015, -15.00000000000002100, 0.05489114651109064400 ) ) ;
#91 = CIRCLE ( 'NONE', #104, 15.00000000000000200 ) ;
#92 = PLANE ( 'NONE',  #101 ) ;
#93 = DIRECTION ( 'NONE',  ( 0.0000000000000000000, -0.0000000000000000000, 1.000000000000000000 ) ) ;
#94 = CARTESIAN_POINT ( 'NONE',  ( 0.0000000000000000000, 0.0000000000000000000, -75.73500000000001400 ) ) ;
#95 = CARTESIAN_POINT ( 'NONE',  ( 0.0000000000000000000, 0.0000000000000000000, 0.05489114651108500200 ) ) ;
#96 = CIRCLE ( 'NONE', #86, 77.26000000000000500 ) ;
#97 =( GEOMETRIC_REPRESENTATION_CONTEXT ( 3 ) GLOBAL_UNCERTAINTY_ASSIGNED_CONTEXT ( ( #77 ) ) GLOBAL_UNIT_ASSIGNED_CONTEXT ( ( #66, #73, #78 ) ) REPRESENTATION_CONTEXT ( 'NONE', 'WORKASPACE' ) );
#98 = CARTESIAN_POINT ( 'NONE',  ( 0.0000000000000000000, 5.602759106099140700E-016, -1.524999999999999900 ) ) ;
#99 = DIRECTION ( 'NONE',  ( 1.000000000000000000, 0.0000000000000000000, 0.0000000000000000000 ) ) ;
#100 = DIRECTION ( 'NONE',  ( -0.0000000000000000000, -0.0000000000000000000, 1.000000000000000000 ) ) ;
#101 = AXIS2_PLACEMENT_3D ( 'NONE', #98, #93, #99 ) ;
#102 = DIRECTION ( 'NONE',  ( 1.000000000000000000, 0.0000000000000000000, 0.0000000000000000000 ) ) ;
#103 = DIRECTION ( 'NONE',  ( -1.000000000000000000, 1.224606353822377300E-016, 0.0000000000000000000 ) ) ;
#104 = AXIS2_PLACEMENT_3D ( 'NONE', #95, #100, #102 ) ;
#105 = CARTESIAN_POINT ( 'NONE',  ( 0.0000000000000000000, 15.00000000000002100, 0.05489114651109064400 ) ) ;
#106 = DIRECTION ( 'NONE',  ( 1.000000000000000000, 0.0000000000000000000, 0.0000000000000000000 ) ) ;
#107 = DIRECTION ( 'NONE',  ( -0.0000000000000000000, -0.0000000000000000000, 1.000000000000000000 ) ) ;
#108 = CARTESIAN_POINT ( 'NONE',  ( 0.0000000000000000000, 0.0000000000000000000, 4.308132045400366600 ) ) ;
#109 = AXIS2_PLACEMENT_3D ( 'NONE', #108, #107, #106 ) ;
#110 = DIRECTION ( 'NONE',  ( -0.0000000000000000000, -0.0000000000000000000, 1.000000000000000000 ) ) ;
#111 = CARTESIAN_POINT ( 'NONE',  ( 15.00000000000000400, 0.0000000000000000000, 0.05489114651108500200 ) ) ;
#112 = CARTESIAN_POINT ( 'NONE',  ( -15.00000000000000000, 1.836909530733565900E-015, 4.308132045400366600 ) ) ;
#113 =( NAMED_UNIT ( * ) SI_UNIT ( $, .STERADIAN. ) SOLID_ANGLE_UNIT ( ) );
#114 = CIRCLE ( 'NONE', #119, 15.00000000000000200 ) ;
#115 = LINE ( 'NONE', #112, #136 ) ;
#116 = CARTESIAN_POINT ( 'NONE',  ( 0.0000000000000000000, 0.0000000000000000000, 0.05489114651108500200 ) ) ;
#117 = SURFACE_STYLE_USAGE ( .BOTH. , #126 ) ;
#118 =( LENGTH_UNIT ( ) NAMED_UNIT ( * ) SI_UNIT ( .MILLI., .METRE. ) );
#119 = AXIS2_PLACEMENT_3D ( 'NONE', #116, #153, #148 ) ;
#120 = DIRECTION ( 'NONE',  ( 0.0000000000000000000, 0.0000000000000000000, -1.000000000000000000 ) ) ;
#121 = DIRECTION ( 'NONE',  ( 1.000000000000000000, 0.0000000000000000000, 0.0000000000000000000 ) ) ;
#122 = FACE_OUTER_BOUND ( 'NONE', #16, .T. ) ;
#123 = SURFACE_STYLE_FILL_AREA ( #142 ) ;
#124 =( GEOMETRIC_REPRESENTATION_CONTEXT ( 3 ) GLOBAL_UNCERTAINTY_ASSIGNED_CONTEXT ( ( #154 ) ) GLOBAL_UNIT_ASSIGNED_CONTEXT ( ( #118, #155, #113 ) ) REPRESENTATION_CONTEXT ( 'NONE', 'WORKASPACE' ) );
#125 =( NAMED_UNIT ( * ) PLANE_ANGLE_UNIT ( ) SI_UNIT ( $, .RADIAN. ) );
#126 = SURFACE_SIDE_STYLE ('',( #123 ) ) ;
#127 = AXIS2_PLACEMENT_3D ( 'NONE', #143, #121, #120 ) ;
#128 = CIRCLE ( 'NONE', #127, 77.26000000000000500 ) ;
#129 = PRESENTATION_LAYER_ASSIGNMENT (  '', '', ( #130 ) ) ;
#130 = STYLED_ITEM ( 'NONE', ( #131 ), #42 ) ;
#131 = PRESENTATION_STYLE_ASSIGNMENT (( #156 ) ) ;
#132 = MECHANICAL_DESIGN_GEOMETRIC_PRESENTATION_REPRESENTATION (  '', ( #138 ), #124 ) ;
#133 = COLOUR_RGB ( '',0.9568627450980391500, 0.9490196078431372100, 0.9607843137254902200 ) ;
#134 = DIRECTION ( 'NONE',  ( 1.000000000000000000, 0.0000000000000000000, 0.0000000000000000000 ) ) ;
#135 =( GEOMETRIC_REPRESENTATION_CONTEXT ( 3 ) GLOBAL_UNCERTAINTY_ASSIGNED_CONTEXT ( ( #139 ) ) GLOBAL_UNIT_ASSIGNED_CONTEXT ( ( #152, #125, #140 ) ) REPRESENTATION_CONTEXT ( 'NONE', 'WORKASPACE' ) );
#136 = VECTOR ( 'NONE', #110, 1000.000000000000000 ) ;
#137 = MECHANICAL_DESIGN_GEOMETRIC_PRESENTATION_REPRESENTATION (  '', ( #130 ), #135 ) ;
#138 = STYLED_ITEM ( 'NONE', ( #149 ), #35 ) ;
#139 = UNCERTAINTY_MEASURE_WITH_UNIT (LENGTH_MEASURE( 1.000000000000000100E-005 ), #152, 'distance_accuracy_value', 'NONE');
#140 =( NAMED_UNIT ( * ) SI_UNIT ( $, .STERADIAN. ) SOLID_ANGLE_UNIT ( ) );
#141 = FILL_AREA_STYLE_COLOUR ( '', #133 ) ;
#142 = FILL_AREA_STYLE ('',( #141 ) ) ;
#143 = CARTESIAN_POINT ( 'NONE',  ( 0.0000000000000000000, 0.0000000000000000000, -75.73500000000001400 ) ) ;
#144 = FACE_OUTER_BOUND ( 'NONE', #40, .T. ) ;
#145 = FILL_AREA_STYLE ('',( #146 ) ) ;
#146 = FILL_AREA_STYLE_COLOUR ( '', #147 ) ;
#147 = COLOUR_RGB ( '',0.9568627450980391500, 0.9490196078431372100, 0.9607843137254902200 ) ;
#148 = DIRECTION ( 'NONE',  ( 1.000000000000000000, 0.0000000000000000000, 0.0000000000000000000 ) ) ;
#149 = PRESENTATION_STYLE_ASSIGNMENT (( #117 ) ) ;
#150 = CYLINDRICAL_SURFACE ( 'NONE', #109, 15.00000000000000000 ) ;
#151 = PRESENTATION_LAYER_ASSIGNMENT (  '', '', ( #138 ) ) ;
#152 =( LENGTH_UNIT ( ) NAMED_UNIT ( * ) SI_UNIT ( .MILLI., .METRE. ) );
#153 = DIRECTION ( 'NONE',  ( -0.0000000000000000000, -0.0000000000000000000, 1.000000000000000000 ) ) ;
#154 = UNCERTAINTY_MEASURE_WITH_UNIT (LENGTH_MEASURE( 1.000000000000000100E-005 ), #118, 'distance_accuracy_value', 'NONE');
#155 =( NAMED_UNIT ( * ) PLANE_ANGLE_UNIT ( ) SI_UNIT ( $, .RADIAN. ) );
#156 = SURFACE_STYLE_USAGE ( .BOTH. , #157 ) ;
#157 = SURFACE_SIDE_STYLE ('',( #158 ) ) ;
#158 = SURFACE_STYLE_FILL_AREA ( #145 ) ;
#159 = DIRECTION ( 'NONE',  ( 1.000000000000000000, 0.0000000000000000000, 0.0000000000000000000 ) ) ;
#160 = DIRECTION ( 'NONE',  ( -0.0000000000000000000, -0.0000000000000000000, 1.000000000000000000 ) ) ;
#161 = CARTESIAN_POINT ( 'NONE',  ( 0.0000000000000000000, 0.0000000000000000000, 0.05489114651108500200 ) ) ;
#162 = SPHERICAL_SURFACE ( 'NONE', #172, 77.26000000000000500 ) ;
#163 = DIRECTION ( 'NONE',  ( 1.000000000000000000, 0.0000000000000000000, 0.0000000000000000000 ) ) ;
#164 = DIRECTION ( 'NONE',  ( -0.0000000000000000000, -0.0000000000000000000, 1.000000000000000000 ) ) ;
#165 = CARTESIAN_POINT ( 'NONE',  ( 0.0000000000000000000, 0.0000000000000000000, 0.05489114651108500200 ) ) ;
#166 = CIRCLE ( 'NONE', #180, 15.00000000000000200 ) ;
#167 = AXIS2_PLACEMENT_3D ( 'NONE', #165, #164, #163 ) ;
#168 = CIRCLE ( 'NONE', #167, 15.00000000000000200 ) ;
#169 = DIRECTION ( 'NONE',  ( 0.0000000000000000000, 1.000000000000000000, 0.0000000000000000000 ) ) ;
#170 = DIRECTION ( 'NONE',  ( -1.000000000000000000, 0.0000000000000000000, 0.0000000000000000000 ) ) ;
#171 = CARTESIAN_POINT ( 'NONE',  ( 0.0000000000000000000, 0.0000000000000000000, -75.73500000000001400 ) ) ;
#172 = AXIS2_PLACEMENT_3D ( 'NONE', #171, #170, #169 ) ;
#173 = CARTESIAN_POINT ( 'NONE',  ( 0.0000000000000000000, 0.0000000000000000000, -1.525000000000000400 ) ) ;
#174 = AXIS2_PLACEMENT_3D ( 'NONE', #173, #88, #134 ) ;
#175 = CIRCLE ( 'NONE', #174, 15.00000000000000000 ) ;
#176 = DIRECTION ( 'NONE',  ( -0.0000000000000000000, -0.0000000000000000000, 1.000000000000000000 ) ) ;
#177 = VECTOR ( 'NONE', #176, 1000.000000000000000 ) ;
#178 = CARTESIAN_POINT ( 'NONE',  ( 15.00000000000000000, 0.0000000000000000000, 4.308132045400366600 ) ) ;
#179 = LINE ( 'NONE', #178, #177 ) ;
#180 = AXIS2_PLACEMENT_3D ( 'NONE', #161, #160, #159 ) ;
#181 = CARTESIAN_POINT ( 'NONE',  ( 0.0000000000000000000, 0.0000000000000000000, -75.73500000000001400 ) ) ;
#182 = AXIS2_PLACEMENT_3D ( 'NONE', #181, #220, #219 ) ;
#183 =( NAMED_UNIT ( * ) SI_UNIT ( $, .STERADIAN. ) SOLID_ANGLE_UNIT ( ) );
#184 = PRESENTATION_LAYER_ASSIGNMENT (  '', '', ( #185 ) ) ;
#185 = STYLED_ITEM ( 'NONE', ( #193 ), #62 ) ;
#186 = SPHERICAL_SURFACE ( 'NONE', #182, 77.26000000000000500 ) ;
#187 =( GEOMETRIC_REPRESENTATION_CONTEXT ( 3 ) GLOBAL_UNCERTAINTY_ASSIGNED_CONTEXT ( ( #198 ) ) GLOBAL_UNIT_ASSIGNED_CONTEXT ( ( #205, #209, #183 ) ) REPRESENTATION_CONTEXT ( 'NONE', 'WORKASPACE' ) );
#188 = SURFACE_STYLE_FILL_AREA ( #189 ) ;
#189 = FILL_AREA_STYLE ('',( #190 ) ) ;
#190 = FILL_AREA_STYLE_COLOUR ( '', #207 ) ;
#191 = FILL_AREA_STYLE ('',( #218 ) ) ;
#192 = SURFACE_STYLE_USAGE ( .BOTH. , #215 ) ;
#193 = PRESENTATION_STYLE_ASSIGNMENT (( #194 ) ) ;
#194 = SURFACE_STYLE_USAGE ( .BOTH. , #195 ) ;
#195 = SURFACE_SIDE_STYLE ('',( #188 ) ) ;
#196 =( LENGTH_UNIT ( ) NAMED_UNIT ( * ) SI_UNIT ( .MILLI., .METRE. ) );
#197 = MECHANICAL_DESIGN_GEOMETRIC_PRESENTATION_REPRESENTATION (  '', ( #213 ), #210 ) ;
#198 = UNCERTAINTY_MEASURE_WITH_UNIT (LENGTH_MEASURE( 1.000000000000000100E-005 ), #205, 'distance_accuracy_value', 'NONE');
#199 = FACE_OUTER_BOUND ( 'NONE', #13, .T. ) ;
#200 = DIRECTION ( 'NONE',  ( 1.000000000000000000, 0.0000000000000000000, 0.0000000000000000000 ) ) ;
#201 = DIRECTION ( 'NONE',  ( -0.0000000000000000000, -0.0000000000000000000, 1.000000000000000000 ) ) ;
#202 = UNCERTAINTY_MEASURE_WITH_UNIT (LENGTH_MEASURE( 1.000000000000000100E-005 ), #196, 'distance_accuracy_value', 'NONE');
#203 = PRESENTATION_STYLE_ASSIGNMENT (( #192 ) ) ;
#204 = CARTESIAN_POINT ( 'NONE',  ( 15.00000000000000000, 0.0000000000000000000, -1.525000000000000400 ) ) ;
#205 =( LENGTH_UNIT ( ) NAMED_UNIT ( * ) SI_UNIT ( .MILLI., .METRE. ) );
#206 = PRESENTATION_LAYER_ASSIGNMENT (  '', '', ( #213 ) ) ;
#207 = COLOUR_RGB ( '',0.9568627450980391500, 0.9490196078431372100, 0.9607843137254902200 ) ;
#208 = FACE_OUTER_BOUND ( 'NONE', #20, .T. ) ;
#209 =( NAMED_UNIT ( * ) PLANE_ANGLE_UNIT ( ) SI_UNIT ( $, .RADIAN. ) );
#210 =( GEOMETRIC_REPRESENTATION_CONTEXT ( 3 ) GLOBAL_UNCERTAINTY_ASSIGNED_CONTEXT ( ( #202 ) ) GLOBAL_UNIT_ASSIGNED_CONTEXT ( ( #196, #224, #222 ) ) REPRESENTATION_CONTEXT ( 'NONE', 'WORKASPACE' ) );
#211 = COLOUR_RGB ( '',0.9568627450980391500, 0.9490196078431372100, 0.9607843137254902200 ) ;
#212 = CYLINDRICAL_SURFACE ( 'NONE', #217, 15.00000000000000000 ) ;
#213 = STYLED_ITEM ( 'NONE', ( #203 ), #55 ) ;
#214 = CARTESIAN_POINT ( 'NONE',  ( -15.00000000000000400, 1.836909530733566300E-015, 0.05489114651108500200 ) ) ;
#215 = SURFACE_SIDE_STYLE ('',( #223 ) ) ;
#216 = CARTESIAN_POINT ( 'NONE',  ( 0.0000000000000000000, 0.0000000000000000000, 4.308132045400366600 ) ) ;
#217 = AXIS2_PLACEMENT_3D ( 'NONE', #216, #201, #200 ) ;
#218 = FILL_AREA_STYLE_COLOUR ( '', #211 ) ;
#219 = DIRECTION ( 'NONE',  ( 0.0000000000000000000, 1.000000000000000000, 0.0000000000000000000 ) ) ;
#220 = DIRECTION ( 'NONE',  ( -1.000000000000000000, 0.0000000000000000000, 0.0000000000000000000 ) ) ;
#221 = MECHANICAL_DESIGN_GEOMETRIC_PRESENTATION_REPRESENTATION (  '', ( #185 ), #187 ) ;
#222 =( NAMED_UNIT ( * ) SI_UNIT ( $, .STERADIAN. ) SOLID_ANGLE_UNIT ( ) );
#223 = SURFACE_STYLE_FILL_AREA ( #191 ) ;
#224 =( NAMED_UNIT ( * ) PLANE_ANGLE_UNIT ( ) SI_UNIT ( $, .RADIAN. ) );
#225 = DIRECTION ( 'NONE',  ( 0.0000000000000000000, 0.0000000000000000000, 1.000000000000000000 ) ) ;
#226 =( NAMED_UNIT ( * ) SI_UNIT ( $, .STERADIAN. ) SOLID_ANGLE_UNIT ( ) );
#227 = FILL_AREA_STYLE_COLOUR ( '', #228 ) ;
#228 = COLOUR_RGB ( '',0.7960784313725489700, 0.8235294117647058400, 0.9372549019607843100 ) ;
#229 = STYLED_ITEM ( 'NONE', ( #230 ), #243 ) ;
#230 = PRESENTATION_STYLE_ASSIGNMENT (( #241 ) ) ;
#231 =( GEOMETRIC_REPRESENTATION_CONTEXT ( 3 ) GLOBAL_UNCERTAINTY_ASSIGNED_CONTEXT ( ( #232 ) ) GLOBAL_UNIT_ASSIGNED_CONTEXT ( ( #238, #247, #226 ) ) REPRESENTATION_CONTEXT ( 'NONE', 'WORKASPACE' ) );
#232 = UNCERTAINTY_MEASURE_WITH_UNIT (LENGTH_MEASURE( 1.000000000000000100E-005 ), #238, 'distance_accuracy_value', 'NONE');
#233 =( NAMED_UNIT ( * ) PLANE_ANGLE_UNIT ( ) SI_UNIT ( $, .RADIAN. ) );
#234 = MECHANICAL_DESIGN_GEOMETRIC_PRESENTATION_REPRESENTATION (  '', ( #229 ), #249 ) ;
#235 = PRESENTATION_LAYER_ASSIGNMENT (  '', '', ( #229 ) ) ;
#236 =( NAMED_UNIT ( * ) SI_UNIT ( $, .STERADIAN. ) SOLID_ANGLE_UNIT ( ) );
#237 = DIRECTION ( 'NONE',  ( 1.000000000000000000, 0.0000000000000000000, 0.0000000000000000000 ) ) ;
#238 =( LENGTH_UNIT ( ) NAMED_UNIT ( * ) SI_UNIT ( .MILLI., .METRE. ) );
#239 =( LENGTH_UNIT ( ) NAMED_UNIT ( * ) SI_UNIT ( .MILLI., .METRE. ) );
#240 = UNCERTAINTY_MEASURE_WITH_UNIT (LENGTH_MEASURE( 1.000000000000000100E-005 ), #239, 'distance_accuracy_value', 'NONE');
#241 = SURFACE_STYLE_USAGE ( .BOTH. , #242 ) ;
#242 = SURFACE_SIDE_STYLE ('',( #245 ) ) ;
#243 = ADVANCED_BREP_SHAPE_REPRESENTATION ( '19307-E0W', ( #5, #244 ), #231 ) ;
#244 = AXIS2_PLACEMENT_3D ( 'NONE', #248, #225, #237 ) ;
#245 = SURFACE_STYLE_FILL_AREA ( #246 ) ;
#246 = FILL_AREA_STYLE ('',( #227 ) ) ;
#247 =( NAMED_UNIT ( * ) PLANE_ANGLE_UNIT ( ) SI_UNIT ( $, .RADIAN. ) );
#248 = CARTESIAN_POINT ( 'NONE',  ( 0.0000000000000000000, 0.0000000000000000000, 0.0000000000000000000 ) ) ;
#249 =( GEOMETRIC_REPRESENTATION_CONTEXT ( 3 ) GLOBAL_UNCERTAINTY_ASSIGNED_CONTEXT ( ( #240 ) ) GLOBAL_UNIT_ASSIGNED_CONTEXT ( ( #239, #233, #236 ) ) REPRESENTATION_CONTEXT ( 'NONE', 'WORKASPACE' ) );
#250 = PRODUCT_DEFINITION_SHAPE ( 'NONE', 'NONE',  #251 ) ;
#251 = PRODUCT_DEFINITION ( 'UNKNOWN', '', #258, #259 ) ;
#252 = APPLICATION_PROTOCOL_DEFINITION ( 'draft international standard', 'automotive_design', 1998, #253 ) ;
#253 = APPLICATION_CONTEXT ( 'automotive_design' ) ;
#254 = SHAPE_DEFINITION_REPRESENTATION ( #250, #243 ) ;
#255 = PRODUCT ( '19307-E0W', '19307-E0W', '', ( #260 ) ) ;
#256 = APPLICATION_CONTEXT ( 'automotive_design' ) ;
#257 = PRODUCT_RELATED_PRODUCT_CATEGORY ( 'part', '', ( #255 ) ) ;
#258 = PRODUCT_DEFINITION_FORMATION_WITH_SPECIFIED_SOURCE ( 'ANY', '', #255, .NOT_KNOWN. ) ;
#259 = PRODUCT_DEFINITION_CONTEXT ( 'detailed design', #253, 'design' ) ;
#260 = PRODUCT_CONTEXT ( 'NONE', #256, 'mechanical' ) ;
#261 = APPLICATION_PROTOCOL_DEFINITION ( 'draft international standard', 'automotive_design', 1998, #256 ) ;
ENDSEC;
END-ISO-10303-21;
