ISO-10303-21;
HEADER;
FILE_DESCRIPTION (( 'STEP AP203' ),
    '1' );
FILE_NAME ('Web Model 19841_19884.step',
    '2022-04-06T15:18:03',
    ( 'WC' ),
    ( 'Windows Central' ),
    'SwSTEP 2.0',
    'SolidWorks 2021',
    '' );
FILE_SCHEMA (( 'CONFIG_CONTROL_DESIGN' ));
ENDSEC;

DATA;
#1 = ORIENTED_EDGE ( 'NONE', *, *, #56, .T. ) ;
#2 = CC_DESIGN_PERSON_AND_ORGANIZATION_ASSIGNMENT ( #132, #50, ( #5 ) ) ;
#3 = DIRECTION ( 'NONE',  ( 1.000000000000000000, 0.000000000000000000, 0.000000000000000000 ) ) ;
#4 = ADVANCED_FACE ( 'NONE', ( #133 ), #99, .T. ) ;
#5 = PRODUCT_DEFINITION_FORMATION_WITH_SPECIFIED_SOURCE ( 'ANY', '', #150, .NOT_KNOWN. ) ;
#6 = PERSON_AND_ORGANIZATION ( #138, #151 ) ;
#7 = LOCAL_TIME ( 11, 18, 3.000000000000000000, #74 ) ;
#8 = FACE_OUTER_BOUND ( 'NONE', #81, .T. ) ;
#9 = APPLICATION_PROTOCOL_DEFINITION ( 'international standard', 'config_control_design', 1994, #44 ) ;
#10 = COORDINATED_UNIVERSAL_TIME_OFFSET ( 5, 0, .BEHIND. ) ;
#11 = CARTESIAN_POINT ( 'NONE',  ( -25.00000000000000000, 0.000000000000000000, 2.000000000000000000 ) ) ;
#12 = APPROVAL_STATUS ( 'not_yet_approved' ) ;
#13 = CLOSED_SHELL ( 'NONE', ( #4, #93, #114, #90 ) ) ;
#14 = DIRECTION ( 'NONE',  ( 0.000000000000000000, 0.000000000000000000, 1.000000000000000000 ) ) ;
#15 = CC_DESIGN_DATE_AND_TIME_ASSIGNMENT ( #129, #61, ( #98 ) ) ;
#16 = VECTOR ( 'NONE', #87, 1000.000000000000000 ) ;
#17 = CIRCLE ( 'NONE', #159, 25.00000000000000000 ) ;
#18 = DIRECTION ( 'NONE',  ( 1.000000000000000000, 0.000000000000000000, 0.000000000000000000 ) ) ;
#19 = PERSON_AND_ORGANIZATION ( #138, #151 ) ;
#20 = COORDINATED_UNIVERSAL_TIME_OFFSET ( 5, 0, .BEHIND. ) ;
#21 = VERTEX_POINT ( 'NONE', #120 ) ;
#22 = DIRECTION ( 'NONE',  ( 1.000000000000000000, 0.000000000000000000, 0.000000000000000000 ) ) ;
#23 = DIRECTION ( 'NONE',  ( -0.000000000000000000, -0.000000000000000000, -1.000000000000000000 ) ) ;
#24 = PERSON_AND_ORGANIZATION_ROLE ( 'classification_officer' ) ;
#25 = LINE ( 'NONE', #11, #16 ) ;
#26 = DIRECTION ( 'NONE',  ( -1.000000000000000000, 0.000000000000000000, 0.000000000000000000 ) ) ;
#27 = PERSON_AND_ORGANIZATION ( #138, #151 ) ;
#28 = ORIENTED_EDGE ( 'NONE', *, *, #140, .T. ) ;
#29 = APPROVAL_PERSON_ORGANIZATION ( #27, #92, #161 ) ;
#30 = CC_DESIGN_APPROVAL ( #82, ( #5 ) ) ;
#31 = VECTOR ( 'NONE', #53, 1000.000000000000000 ) ;
#32 = DIRECTION ( 'NONE',  ( -1.000000000000000000, 0.000000000000000000, 0.000000000000000000 ) ) ;
#33 = PERSON_AND_ORGANIZATION_ROLE ( 'creator' ) ;
#34 = LOCAL_TIME ( 11, 18, 3.000000000000000000, #76 ) ;
#35 = ORIENTED_EDGE ( 'NONE', *, *, #126, .T. ) ;
#36 = CALENDAR_DATE ( 2022, 6, 4 ) ;
#37 = FACE_OUTER_BOUND ( 'NONE', #166, .T. ) ;
#38 = PERSON_AND_ORGANIZATION ( #138, #151 ) ;
#39 = ORIENTED_EDGE ( 'NONE', *, *, #56, .F. ) ;
#40 = CARTESIAN_POINT ( 'NONE',  ( 0.000000000000000000, 0.000000000000000000, 2.000000000000000000 ) ) ;
#41 = CIRCLE ( 'NONE', #70, 25.00000000000000000 ) ;
#42 = UNCERTAINTY_MEASURE_WITH_UNIT (LENGTH_MEASURE( 1.000000000000000082E-05 ), #123, 'distance_accuracy_value', 'NONE');
#43 =( GEOMETRIC_REPRESENTATION_CONTEXT ( 3 ) GLOBAL_UNCERTAINTY_ASSIGNED_CONTEXT ( ( #42 ) ) GLOBAL_UNIT_ASSIGNED_CONTEXT ( ( #123, #111, #169 ) ) REPRESENTATION_CONTEXT ( 'NONE', 'WORKASPACE' ) );
#44 = APPLICATION_CONTEXT ( 'configuration controlled 3d designs of mechanical parts and assemblies' ) ;
#45 = CC_DESIGN_PERSON_AND_ORGANIZATION_ASSIGNMENT ( #117, #24, ( #98 ) ) ;
#46 = DIRECTION ( 'NONE',  ( -0.000000000000000000, -0.000000000000000000, -1.000000000000000000 ) ) ;
#47 = DIRECTION ( 'NONE',  ( 0.000000000000000000, 0.000000000000000000, 1.000000000000000000 ) ) ;
#48 = VERTEX_POINT ( 'NONE', #147 ) ;
#49 = FACE_OUTER_BOUND ( 'NONE', #109, .T. ) ;
#50 = PERSON_AND_ORGANIZATION_ROLE ( 'creator' ) ;
#51 = CARTESIAN_POINT ( 'NONE',  ( 0.000000000000000000, 0.000000000000000000, 2.000000000000000000 ) ) ;
#52 = DATE_AND_TIME ( #86, #134 ) ;
#53 = DIRECTION ( 'NONE',  ( -0.000000000000000000, -0.000000000000000000, -1.000000000000000000 ) ) ;
#54 = EDGE_CURVE ( 'NONE', #48, #148, #41, .T. ) ;
#55 = CARTESIAN_POINT ( 'NONE',  ( 0.000000000000000000, 0.000000000000000000, 0.000000000000000000 ) ) ;
#56 = EDGE_CURVE ( 'NONE', #91, #21, #66, .T. ) ;
#57 = CC_DESIGN_APPROVAL ( #165, ( #164 ) ) ;
#58 = CC_DESIGN_SECURITY_CLASSIFICATION ( #98, ( #5 ) ) ;
#59 = EDGE_CURVE ( 'NONE', #21, #48, #78, .T. ) ;
#60 = AXIS2_PLACEMENT_3D ( 'NONE', #40, #46, #32 ) ;
#61 = DATE_TIME_ROLE ( 'classification_date' ) ;
#62 = CARTESIAN_POINT ( 'NONE',  ( 0.000000000000000000, 0.000000000000000000, 0.000000000000000000 ) ) ;
#63 = DATE_AND_TIME ( #36, #104 ) ;
#64 = CARTESIAN_POINT ( 'NONE',  ( 0.000000000000000000, 0.000000000000000000, 0.000000000000000000 ) ) ;
#65 = CALENDAR_DATE ( 2022, 6, 4 ) ;
#66 = CIRCLE ( 'NONE', #167, 25.00000000000000000 ) ;
#67 = CALENDAR_DATE ( 2022, 6, 4 ) ;
#68 = ORIENTED_EDGE ( 'NONE', *, *, #149, .T. ) ;
#69 = PRODUCT_RELATED_PRODUCT_CATEGORY ( 'detail', '', ( #150 ) ) ;
#70 = AXIS2_PLACEMENT_3D ( 'NONE', #55, #136, #3 ) ;
#71 = AXIS2_PLACEMENT_3D ( 'NONE', #94, #173, #146 ) ;
#72 = PERSON_AND_ORGANIZATION ( #138, #151 ) ;
#73 = MECHANICAL_CONTEXT ( 'NONE', #153, 'mechanical' ) ;
#74 = COORDINATED_UNIVERSAL_TIME_OFFSET ( 5, 0, .BEHIND. ) ;
#75 = CARTESIAN_POINT ( 'NONE',  ( 0.000000000000000000, 0.000000000000000000, 2.000000000000000000 ) ) ;
#76 = COORDINATED_UNIVERSAL_TIME_OFFSET ( 5, 0, .BEHIND. ) ;
#77 = ORIENTED_EDGE ( 'NONE', *, *, #59, .F. ) ;
#78 = LINE ( 'NONE', #156, #31 ) ;
#79 = APPROVAL_STATUS ( 'not_yet_approved' ) ;
#80 = AXIS2_PLACEMENT_3D ( 'NONE', #75, #47, #170 ) ;
#81 = EDGE_LOOP ( 'NONE', ( #108, #143 ) ) ;
#82 = APPROVAL ( #79, 'UNSPECIFIED' ) ;
#83 = CIRCLE ( 'NONE', #71, 25.00000000000000000 ) ;
#84 = AXIS2_PLACEMENT_3D ( 'NONE', #62, #85, #163 ) ;
#85 = DIRECTION ( 'NONE',  ( 0.000000000000000000, 0.000000000000000000, 1.000000000000000000 ) ) ;
#86 = CALENDAR_DATE ( 2022, 6, 4 ) ;
#87 = DIRECTION ( 'NONE',  ( -0.000000000000000000, -0.000000000000000000, -1.000000000000000000 ) ) ;
#88 = APPROVAL_ROLE ( '' ) ;
#89 = PERSON_AND_ORGANIZATION_ROLE ( 'design_supplier' ) ;
#90 = ADVANCED_FACE ( 'NONE', ( #8 ), #125, .F. ) ;
#91 = VERTEX_POINT ( 'NONE', #112 ) ;
#92 = APPROVAL ( #12, 'UNSPECIFIED' ) ;
#93 = ADVANCED_FACE ( 'NONE', ( #37 ), #128, .T. ) ;
#94 = CARTESIAN_POINT ( 'NONE',  ( 0.000000000000000000, 0.000000000000000000, 2.000000000000000000 ) ) ;
#95 = DATE_TIME_ROLE ( 'creation_date' ) ;
#96 = EDGE_LOOP ( 'NONE', ( #162, #130, #118, #158 ) ) ;
#97 = CARTESIAN_POINT ( 'NONE',  ( 0.000000000000000000, 0.000000000000000000, 0.000000000000000000 ) ) ;
#98 = SECURITY_CLASSIFICATION ( '', '', #145 ) ;
#99 = CYLINDRICAL_SURFACE ( 'NONE', #122, 25.00000000000000000 ) ;
#100 = PERSON_AND_ORGANIZATION ( #138, #151 ) ;
#101 = PLANE ( 'NONE',  #80 ) ;
#102 = APPROVAL_DATE_TIME ( #52, #92 ) ;
#103 = DIRECTION ( 'NONE',  ( 1.000000000000000000, 0.000000000000000000, 0.000000000000000000 ) ) ;
#104 = LOCAL_TIME ( 11, 18, 3.000000000000000000, #10 ) ;
#105 = CC_DESIGN_PERSON_AND_ORGANIZATION_ASSIGNMENT ( #19, #33, ( #164 ) ) ;
#106 = PRODUCT_DEFINITION_SHAPE ( 'NONE', 'NONE',  #164 ) ;
#107 = AXIS2_PLACEMENT_3D ( 'NONE', #64, #14, #22 ) ;
#108 = ORIENTED_EDGE ( 'NONE', *, *, #126, .F. ) ;
#109 = EDGE_LOOP ( 'NONE', ( #1, #28 ) ) ;
#110 = APPROVAL_ROLE ( '' ) ;
#111 =( NAMED_UNIT ( * ) PLANE_ANGLE_UNIT ( ) SI_UNIT ( $, .RADIAN. ) );
#112 = CARTESIAN_POINT ( 'NONE',  ( -25.00000000000000000, 0.000000000000000000, 2.000000000000000000 ) ) ;
#113 = APPROVAL_DATE_TIME ( #63, #82 ) ;
#114 = ADVANCED_FACE ( 'NONE', ( #49 ), #101, .T. ) ;
#115 = DIRECTION ( 'NONE',  ( 0.000000000000000000, 0.000000000000000000, 1.000000000000000000 ) ) ;
#116 = CC_DESIGN_APPROVAL ( #92, ( #98 ) ) ;
#117 = PERSON_AND_ORGANIZATION ( #138, #151 ) ;
#118 = ORIENTED_EDGE ( 'NONE', *, *, #54, .T. ) ;
#119 = APPLICATION_PROTOCOL_DEFINITION ( 'international standard', 'config_control_design', 1994, #153 ) ;
#120 = CARTESIAN_POINT ( 'NONE',  ( 25.00000000000000000, 3.061616997868383043E-15, 2.000000000000000000 ) ) ;
#121 = CC_DESIGN_DATE_AND_TIME_ASSIGNMENT ( #174, #95, ( #164 ) ) ;
#122 = AXIS2_PLACEMENT_3D ( 'NONE', #51, #23, #26 ) ;
#123 =( LENGTH_UNIT ( ) NAMED_UNIT ( * ) SI_UNIT ( .MILLI., .METRE. ) );
#124 = COORDINATED_UNIVERSAL_TIME_OFFSET ( 5, 0, .BEHIND. ) ;
#125 = PLANE ( 'NONE',  #84 ) ;
#126 = EDGE_CURVE ( 'NONE', #148, #48, #17, .T. ) ;
#127 = CALENDAR_DATE ( 2022, 6, 4 ) ;
#128 = CYLINDRICAL_SURFACE ( 'NONE', #60, 25.00000000000000000 ) ;
#129 = DATE_AND_TIME ( #67, #34 ) ;
#130 = ORIENTED_EDGE ( 'NONE', *, *, #59, .T. ) ;
#131 = LOCAL_TIME ( 11, 18, 3.000000000000000000, #20 ) ;
#132 = PERSON_AND_ORGANIZATION ( #138, #151 ) ;
#133 = FACE_OUTER_BOUND ( 'NONE', #96, .T. ) ;
#134 = LOCAL_TIME ( 11, 18, 3.000000000000000000, #124 ) ;
#135 = MANIFOLD_SOLID_BREP ( 'Boss-Extrude1', #13 ) ;
#136 = DIRECTION ( 'NONE',  ( 0.000000000000000000, 0.000000000000000000, 1.000000000000000000 ) ) ;
#137 = CC_DESIGN_PERSON_AND_ORGANIZATION_ASSIGNMENT ( #100, #89, ( #5 ) ) ;
#138 = PERSON ( 'UNSPECIFIED', 'UNSPECIFIED', 'UNSPECIFIED', ('UNSPECIFIED'), ('UNSPECIFIED'), ('UNSPECIFIED') ) ;
#139 = APPROVAL_PERSON_ORGANIZATION ( #38, #165, #110 ) ;
#140 = EDGE_CURVE ( 'NONE', #21, #91, #83, .T. ) ;
#141 = DIRECTION ( 'NONE',  ( 0.000000000000000000, 0.000000000000000000, 1.000000000000000000 ) ) ;
#142 = PERSON_AND_ORGANIZATION_ROLE ( 'design_owner' ) ;
#143 = ORIENTED_EDGE ( 'NONE', *, *, #54, .F. ) ;
#144 = CARTESIAN_POINT ( 'NONE',  ( -25.00000000000000000, 0.000000000000000000, 0.000000000000000000 ) ) ;
#145 = SECURITY_CLASSIFICATION_LEVEL ( 'unclassified' ) ;
#146 = DIRECTION ( 'NONE',  ( 1.000000000000000000, 0.000000000000000000, 0.000000000000000000 ) ) ;
#147 = CARTESIAN_POINT ( 'NONE',  ( 25.00000000000000000, 3.061616997868383043E-15, 0.000000000000000000 ) ) ;
#148 = VERTEX_POINT ( 'NONE', #144 ) ;
#149 = EDGE_CURVE ( 'NONE', #91, #148, #25, .T. ) ;
#150 = PRODUCT ( 'Web Model 19841_19884', 'Web Model 19841_19884', '', ( #73 ) ) ;
#151 = ORGANIZATION ( 'UNSPECIFIED', 'UNSPECIFIED', '' ) ;
#152 = DESIGN_CONTEXT ( 'detailed design', #44, 'design' ) ;
#153 = APPLICATION_CONTEXT ( 'configuration controlled 3d designs of mechanical parts and assemblies' ) ;
#154 = ADVANCED_BREP_SHAPE_REPRESENTATION ( 'Web Model 19841_19884', ( #135, #107 ), #43 ) ;
#155 = CARTESIAN_POINT ( 'NONE',  ( 0.000000000000000000, 0.000000000000000000, 2.000000000000000000 ) ) ;
#156 = CARTESIAN_POINT ( 'NONE',  ( 25.00000000000000000, 3.061616997868383043E-15, 2.000000000000000000 ) ) ;
#157 = DATE_AND_TIME ( #65, #131 ) ;
#158 = ORIENTED_EDGE ( 'NONE', *, *, #149, .F. ) ;
#159 = AXIS2_PLACEMENT_3D ( 'NONE', #97, #115, #18 ) ;
#160 = APPROVAL_DATE_TIME ( #157, #165 ) ;
#161 = APPROVAL_ROLE ( '' ) ;
#162 = ORIENTED_EDGE ( 'NONE', *, *, #140, .F. ) ;
#163 = DIRECTION ( 'NONE',  ( 1.000000000000000000, 0.000000000000000000, -0.000000000000000000 ) ) ;
#164 = PRODUCT_DEFINITION ( 'UNKNOWN', '', #5, #152 ) ;
#165 = APPROVAL ( #171, 'UNSPECIFIED' ) ;
#166 = EDGE_LOOP ( 'NONE', ( #77, #39, #68, #35 ) ) ;
#167 = AXIS2_PLACEMENT_3D ( 'NONE', #155, #141, #103 ) ;
#168 = SHAPE_DEFINITION_REPRESENTATION ( #106, #154 ) ;
#169 =( NAMED_UNIT ( * ) SI_UNIT ( $, .STERADIAN. ) SOLID_ANGLE_UNIT ( ) );
#170 = DIRECTION ( 'NONE',  ( 1.000000000000000000, 0.000000000000000000, -0.000000000000000000 ) ) ;
#171 = APPROVAL_STATUS ( 'not_yet_approved' ) ;
#172 = APPROVAL_PERSON_ORGANIZATION ( #72, #82, #88 ) ;
#173 = DIRECTION ( 'NONE',  ( 0.000000000000000000, 0.000000000000000000, 1.000000000000000000 ) ) ;
#174 = DATE_AND_TIME ( #127, #7 ) ;
#175 = CC_DESIGN_PERSON_AND_ORGANIZATION_ASSIGNMENT ( #6, #142, ( #150 ) ) ;
ENDSEC;
END-ISO-10303-21;
