ISO-10303-21;
HEADER;
FILE_DESCRIPTION (( 'STEP AP203' ),
    '1' );
FILE_NAME ('Web Model 38912_39020.step',
    '2018-10-18T19:50:43',
    ( '' ),
    ( '' ),
    'SwSTEP 2.0',
    'SolidWorks 2016',
    '' );
FILE_SCHEMA (( 'CONFIG_CONTROL_DESIGN' ));
ENDSEC;

DATA;
#1 = DIRECTION ( 'NONE',  ( -0.0000000000000000000, -0.0000000000000000000, -1.000000000000000000 ) ) ;
#2 = APPROVAL_PERSON_ORGANIZATION ( #39, #154, #74 ) ;
#3 = DIRECTION ( 'NONE',  ( 1.000000000000000000, 0.0000000000000000000, 0.0000000000000000000 ) ) ;
#4 = CC_DESIGN_DATE_AND_TIME_ASSIGNMENT ( #6, #133, ( #50 ) ) ;
#5 = APPROVAL_STATUS ( 'not_yet_approved' ) ;
#6 = DATE_AND_TIME ( #112, #31 ) ;
#7 = PERSON_AND_ORGANIZATION ( #23, #170 ) ;
#8 = ORIENTED_EDGE ( 'NONE', *, *, #68, .F. ) ;
#9 = EDGE_LOOP ( 'NONE', ( #13, #123, #153, #85 ) ) ;
#10 = LINE ( 'NONE', #131, #151 ) ;
#11 = CARTESIAN_POINT ( 'NONE',  ( 0.0000000000000000000, 0.0000000000000000000, -3.174999999999999800 ) ) ;
#12 = CARTESIAN_POINT ( 'NONE',  ( -19.05000000000000100, 0.0000000000000000000, 3.174999999999999800 ) ) ;
#13 = ORIENTED_EDGE ( 'NONE', *, *, #84, .F. ) ;
#14 = CARTESIAN_POINT ( 'NONE',  ( 19.05000000000000100, 2.332952152375708000E-015, -3.174999999999999800 ) ) ;
#15 = EDGE_LOOP ( 'NONE', ( #8, #159 ) ) ;
#16 = DIRECTION ( 'NONE',  ( -0.0000000000000000000, -0.0000000000000000000, -1.000000000000000000 ) ) ;
#17 = PERSON_AND_ORGANIZATION_ROLE ( 'creator' ) ;
#18 = APPROVAL ( #60, 'UNSPECIFIED' ) ;
#19 = ORIENTED_EDGE ( 'NONE', *, *, #20, .T. ) ;
#20 = EDGE_CURVE ( 'NONE', #92, #56, #156, .T. ) ;
#21 = ORIENTED_EDGE ( 'NONE', *, *, #20, .F. ) ;
#22 = APPROVAL_PERSON_ORGANIZATION ( #63, #144, #167 ) ;
#23 = PERSON ( 'UNSPECIFIED', 'UNSPECIFIED', 'UNSPECIFIED', ('UNSPECIFIED'), ('UNSPECIFIED'), ('UNSPECIFIED') ) ;
#24 = DATE_AND_TIME ( #64, #172 ) ;
#25 = DIRECTION ( 'NONE',  ( 0.0000000000000000000, 0.0000000000000000000, 1.000000000000000000 ) ) ;
#26 = CARTESIAN_POINT ( 'NONE',  ( 0.0000000000000000000, 0.0000000000000000000, 3.174999999999999800 ) ) ;
#27 = EDGE_LOOP ( 'NONE', ( #19, #54 ) ) ;
#28 = DIRECTION ( 'NONE',  ( 1.000000000000000000, 0.0000000000000000000, 0.0000000000000000000 ) ) ;
#29 = DIRECTION ( 'NONE',  ( 0.0000000000000000000, 0.0000000000000000000, 1.000000000000000000 ) ) ;
#30 = CARTESIAN_POINT ( 'NONE',  ( 0.0000000000000000000, 0.0000000000000000000, 0.0000000000000000000 ) ) ;
#31 = LOCAL_TIME ( 15, 50, 43.00000000000000000, #83 ) ;
#32 = DIRECTION ( 'NONE',  ( 1.000000000000000000, 0.0000000000000000000, -0.0000000000000000000 ) ) ;
#33 = ADVANCED_FACE ( 'NONE', ( #51 ), #94, .T. ) ;
#34 = CARTESIAN_POINT ( 'NONE',  ( 0.0000000000000000000, 0.0000000000000000000, -3.174999999999999800 ) ) ;
#35 = COORDINATED_UNIVERSAL_TIME_OFFSET ( 5, 0, .BEHIND. ) ;
#36 = VECTOR ( 'NONE', #110, 1000.000000000000000 ) ;
#37 = SECURITY_CLASSIFICATION_LEVEL ( 'unclassified' ) ;
#38 = EDGE_CURVE ( 'NONE', #163, #41, #147, .T. ) ;
#39 = PERSON_AND_ORGANIZATION ( #23, #170 ) ;
#40 = DATE_AND_TIME ( #78, #109 ) ;
#41 = VERTEX_POINT ( 'NONE', #71 ) ;
#42 = DIRECTION ( 'NONE',  ( -0.0000000000000000000, -0.0000000000000000000, -1.000000000000000000 ) ) ;
#43 = DIRECTION ( 'NONE',  ( 1.000000000000000000, 0.0000000000000000000, 0.0000000000000000000 ) ) ;
#44 = CC_DESIGN_APPROVAL ( #154, ( #174 ) ) ;
#45 = ADVANCED_FACE ( 'NONE', ( #128 ), #160, .T. ) ;
#46 =( LENGTH_UNIT ( ) NAMED_UNIT ( * ) SI_UNIT ( .MILLI., .METRE. ) );
#47 = FACE_OUTER_BOUND ( 'NONE', #104, .T. ) ;
#48 = CARTESIAN_POINT ( 'NONE',  ( 0.0000000000000000000, 0.0000000000000000000, 3.174999999999999800 ) ) ;
#49 = ORIENTED_EDGE ( 'NONE', *, *, #146, .T. ) ;
#50 = PRODUCT_DEFINITION ( 'UNKNOWN', '', #53, #166 ) ;
#51 = FACE_OUTER_BOUND ( 'NONE', #9, .T. ) ;
#52 = CLOSED_SHELL ( 'NONE', ( #33, #121, #45, #148 ) ) ;
#53 = PRODUCT_DEFINITION_FORMATION_WITH_SPECIFIED_SOURCE ( 'ANY', '', #143, .NOT_KNOWN. ) ;
#54 = ORIENTED_EDGE ( 'NONE', *, *, #84, .T. ) ;
#55 = DIRECTION ( 'NONE',  ( 0.0000000000000000000, 0.0000000000000000000, 1.000000000000000000 ) ) ;
#56 = VERTEX_POINT ( 'NONE', #119 ) ;
#57 = CARTESIAN_POINT ( 'NONE',  ( 0.0000000000000000000, 0.0000000000000000000, 3.174999999999999800 ) ) ;
#58 = APPLICATION_CONTEXT ( 'configuration controlled 3d designs of mechanical parts and assemblies' ) ;
#59 = APPROVAL_DATE_TIME ( #40, #144 ) ;
#60 = APPROVAL_STATUS ( 'not_yet_approved' ) ;
#61 = CC_DESIGN_SECURITY_CLASSIFICATION ( #174, ( #53 ) ) ;
#62 = EDGE_CURVE ( 'NONE', #56, #163, #10, .T. ) ;
#63 = PERSON_AND_ORGANIZATION ( #23, #170 ) ;
#64 = CALENDAR_DATE ( 2018, 18, 10 ) ;
#65 = SHAPE_DEFINITION_REPRESENTATION ( #77, #105 ) ;
#66 = CC_DESIGN_DATE_AND_TIME_ASSIGNMENT ( #24, #150, ( #174 ) ) ;
#67 = APPROVAL_DATE_TIME ( #140, #154 ) ;
#68 = EDGE_CURVE ( 'NONE', #41, #163, #91, .T. ) ;
#69 = DIRECTION ( 'NONE',  ( 0.0000000000000000000, 0.0000000000000000000, 1.000000000000000000 ) ) ;
#70 = CC_DESIGN_PERSON_AND_ORGANIZATION_ASSIGNMENT ( #162, #149, ( #50 ) ) ;
#71 = CARTESIAN_POINT ( 'NONE',  ( -19.05000000000000100, 0.0000000000000000000, -3.174999999999999800 ) ) ;
#72 = DIRECTION ( 'NONE',  ( 0.0000000000000000000, 0.0000000000000000000, 1.000000000000000000 ) ) ;
#73 = PERSON_AND_ORGANIZATION ( #23, #170 ) ;
#74 = APPROVAL_ROLE ( '' ) ;
#75 = FACE_OUTER_BOUND ( 'NONE', #15, .T. ) ;
#76 = AXIS2_PLACEMENT_3D ( 'NONE', #30, #86, #122 ) ;
#77 = PRODUCT_DEFINITION_SHAPE ( 'NONE', 'NONE',  #50 ) ;
#78 = CALENDAR_DATE ( 2018, 18, 10 ) ;
#79 = AXIS2_PLACEMENT_3D ( 'NONE', #26, #69, #28 ) ;
#80 = PRODUCT_RELATED_PRODUCT_CATEGORY ( 'detail', '', ( #143 ) ) ;
#81 = CALENDAR_DATE ( 2018, 18, 10 ) ;
#82 = CYLINDRICAL_SURFACE ( 'NONE', #161, 19.05000000000000100 ) ;
#83 = COORDINATED_UNIVERSAL_TIME_OFFSET ( 5, 0, .BEHIND. ) ;
#84 = EDGE_CURVE ( 'NONE', #56, #92, #136, .T. ) ;
#85 = ORIENTED_EDGE ( 'NONE', *, *, #146, .F. ) ;
#86 = DIRECTION ( 'NONE',  ( 0.0000000000000000000, 0.0000000000000000000, 1.000000000000000000 ) ) ;
#87 = APPLICATION_PROTOCOL_DEFINITION ( 'international standard', 'config_control_design', 1994, #132 ) ;
#88 = AXIS2_PLACEMENT_3D ( 'NONE', #57, #42, #164 ) ;
#89 = MECHANICAL_CONTEXT ( 'NONE', #132, 'mechanical' ) ;
#90 = PLANE ( 'NONE',  #173 ) ;
#91 = CIRCLE ( 'NONE', #102, 19.05000000000000100 ) ;
#92 = VERTEX_POINT ( 'NONE', #12 ) ;
#93 = CC_DESIGN_APPROVAL ( #144, ( #50 ) ) ;
#94 = CYLINDRICAL_SURFACE ( 'NONE', #88, 19.05000000000000100 ) ;
#95 = CARTESIAN_POINT ( 'NONE',  ( 0.0000000000000000000, 0.0000000000000000000, 3.174999999999999800 ) ) ;
#96 = LOCAL_TIME ( 15, 50, 43.00000000000000000, #171 ) ;
#97 = PERSON_AND_ORGANIZATION ( #23, #170 ) ;
#98 = DIRECTION ( 'NONE',  ( 1.000000000000000000, 0.0000000000000000000, -0.0000000000000000000 ) ) ;
#99 = APPROVAL_DATE_TIME ( #175, #18 ) ;
#100 = DIRECTION ( 'NONE',  ( -1.000000000000000000, 0.0000000000000000000, 0.0000000000000000000 ) ) ;
#101 = APPROVAL_ROLE ( '' ) ;
#102 = AXIS2_PLACEMENT_3D ( 'NONE', #11, #29, #43 ) ;
#103 =( NAMED_UNIT ( * ) PLANE_ANGLE_UNIT ( ) SI_UNIT ( $, .RADIAN. ) );
#104 = EDGE_LOOP ( 'NONE', ( #106, #21, #49, #117 ) ) ;
#105 = ADVANCED_BREP_SHAPE_REPRESENTATION ( 'Web Model 38912_39020', ( #157, #76 ), #152 ) ;
#106 = ORIENTED_EDGE ( 'NONE', *, *, #62, .F. ) ;
#107 = UNCERTAINTY_MEASURE_WITH_UNIT (LENGTH_MEASURE( 1.000000000000000100E-005 ), #46, 'distance_accuracy_value', 'NONE');
#108 = CARTESIAN_POINT ( 'NONE',  ( 0.0000000000000000000, 0.0000000000000000000, -3.174999999999999800 ) ) ;
#109 = LOCAL_TIME ( 15, 50, 43.00000000000000000, #126 ) ;
#110 = DIRECTION ( 'NONE',  ( -0.0000000000000000000, -0.0000000000000000000, -1.000000000000000000 ) ) ;
#111 = PERSON_AND_ORGANIZATION_ROLE ( 'design_owner' ) ;
#112 = CALENDAR_DATE ( 2018, 18, 10 ) ;
#113 = PERSON_AND_ORGANIZATION_ROLE ( 'design_supplier' ) ;
#114 = CC_DESIGN_PERSON_AND_ORGANIZATION_ASSIGNMENT ( #127, #17, ( #53 ) ) ;
#115 =( NAMED_UNIT ( * ) SI_UNIT ( $, .STERADIAN. ) SOLID_ANGLE_UNIT ( ) );
#116 = AXIS2_PLACEMENT_3D ( 'NONE', #95, #25, #98 ) ;
#117 = ORIENTED_EDGE ( 'NONE', *, *, #68, .T. ) ;
#118 = CC_DESIGN_PERSON_AND_ORGANIZATION_ASSIGNMENT ( #73, #125, ( #174 ) ) ;
#119 = CARTESIAN_POINT ( 'NONE',  ( 19.05000000000000100, 2.332952152375708000E-015, 3.174999999999999800 ) ) ;
#120 = CARTESIAN_POINT ( 'NONE',  ( -19.05000000000000100, 0.0000000000000000000, 3.174999999999999800 ) ) ;
#121 = ADVANCED_FACE ( 'NONE', ( #47 ), #82, .T. ) ;
#122 = DIRECTION ( 'NONE',  ( 1.000000000000000000, 0.0000000000000000000, 0.0000000000000000000 ) ) ;
#123 = ORIENTED_EDGE ( 'NONE', *, *, #62, .T. ) ;
#124 = AXIS2_PLACEMENT_3D ( 'NONE', #168, #138, #3 ) ;
#125 = PERSON_AND_ORGANIZATION_ROLE ( 'classification_officer' ) ;
#126 = COORDINATED_UNIVERSAL_TIME_OFFSET ( 5, 0, .BEHIND. ) ;
#127 = PERSON_AND_ORGANIZATION ( #23, #170 ) ;
#128 = FACE_OUTER_BOUND ( 'NONE', #27, .T. ) ;
#129 = APPROVAL_PERSON_ORGANIZATION ( #169, #18, #101 ) ;
#130 = COORDINATED_UNIVERSAL_TIME_OFFSET ( 5, 0, .BEHIND. ) ;
#131 = CARTESIAN_POINT ( 'NONE',  ( 19.05000000000000100, 2.332952152375708000E-015, 3.174999999999999800 ) ) ;
#132 = APPLICATION_CONTEXT ( 'configuration controlled 3d designs of mechanical parts and assemblies' ) ;
#133 = DATE_TIME_ROLE ( 'creation_date' ) ;
#134 = APPROVAL_STATUS ( 'not_yet_approved' ) ;
#135 = APPLICATION_PROTOCOL_DEFINITION ( 'international standard', 'config_control_design', 1994, #58 ) ;
#136 = CIRCLE ( 'NONE', #124, 19.05000000000000100 ) ;
#137 = CC_DESIGN_APPROVAL ( #18, ( #53 ) ) ;
#138 = DIRECTION ( 'NONE',  ( 0.0000000000000000000, 0.0000000000000000000, 1.000000000000000000 ) ) ;
#139 = LOCAL_TIME ( 15, 50, 43.00000000000000000, #35 ) ;
#140 = DATE_AND_TIME ( #81, #139 ) ;
#141 = AXIS2_PLACEMENT_3D ( 'NONE', #108, #55, #145 ) ;
#142 = LINE ( 'NONE', #120, #36 ) ;
#143 = PRODUCT ( 'Web Model 38912_39020', 'Web Model 38912_39020', '', ( #89 ) ) ;
#144 = APPROVAL ( #134, 'UNSPECIFIED' ) ;
#145 = DIRECTION ( 'NONE',  ( 1.000000000000000000, 0.0000000000000000000, 0.0000000000000000000 ) ) ;
#146 = EDGE_CURVE ( 'NONE', #92, #41, #142, .T. ) ;
#147 = CIRCLE ( 'NONE', #141, 19.05000000000000100 ) ;
#148 = ADVANCED_FACE ( 'NONE', ( #75 ), #90, .F. ) ;
#149 = PERSON_AND_ORGANIZATION_ROLE ( 'creator' ) ;
#150 = DATE_TIME_ROLE ( 'classification_date' ) ;
#151 = VECTOR ( 'NONE', #1, 1000.000000000000000 ) ;
#152 =( GEOMETRIC_REPRESENTATION_CONTEXT ( 3 ) GLOBAL_UNCERTAINTY_ASSIGNED_CONTEXT ( ( #107 ) ) GLOBAL_UNIT_ASSIGNED_CONTEXT ( ( #46, #103, #115 ) ) REPRESENTATION_CONTEXT ( 'NONE', 'WORKASPACE' ) );
#153 = ORIENTED_EDGE ( 'NONE', *, *, #38, .T. ) ;
#154 = APPROVAL ( #5, 'UNSPECIFIED' ) ;
#155 = CC_DESIGN_PERSON_AND_ORGANIZATION_ASSIGNMENT ( #7, #113, ( #53 ) ) ;
#156 = CIRCLE ( 'NONE', #79, 19.05000000000000100 ) ;
#157 = MANIFOLD_SOLID_BREP ( 'Boss-Extrude1', #52 ) ;
#158 = CALENDAR_DATE ( 2018, 18, 10 ) ;
#159 = ORIENTED_EDGE ( 'NONE', *, *, #38, .F. ) ;
#160 = PLANE ( 'NONE',  #116 ) ;
#161 = AXIS2_PLACEMENT_3D ( 'NONE', #48, #16, #100 ) ;
#162 = PERSON_AND_ORGANIZATION ( #23, #170 ) ;
#163 = VERTEX_POINT ( 'NONE', #14 ) ;
#164 = DIRECTION ( 'NONE',  ( -1.000000000000000000, 0.0000000000000000000, 0.0000000000000000000 ) ) ;
#165 = CC_DESIGN_PERSON_AND_ORGANIZATION_ASSIGNMENT ( #97, #111, ( #143 ) ) ;
#166 = DESIGN_CONTEXT ( 'detailed design', #58, 'design' ) ;
#167 = APPROVAL_ROLE ( '' ) ;
#168 = CARTESIAN_POINT ( 'NONE',  ( 0.0000000000000000000, 0.0000000000000000000, 3.174999999999999800 ) ) ;
#169 = PERSON_AND_ORGANIZATION ( #23, #170 ) ;
#170 = ORGANIZATION ( 'UNSPECIFIED', 'UNSPECIFIED', '' ) ;
#171 = COORDINATED_UNIVERSAL_TIME_OFFSET ( 5, 0, .BEHIND. ) ;
#172 = LOCAL_TIME ( 15, 50, 43.00000000000000000, #130 ) ;
#173 = AXIS2_PLACEMENT_3D ( 'NONE', #34, #72, #32 ) ;
#174 = SECURITY_CLASSIFICATION ( '', '', #37 ) ;
#175 = DATE_AND_TIME ( #158, #96 ) ;
ENDSEC;
END-ISO-10303-21;
