ISO-10303-21;
HEADER;
FILE_DESCRIPTION (( 'STEP AP203' ),
    '1' );
FILE_NAME ('Web Model 63205.STEP',
    '2017-01-31T18:44:29',
    ( '' ),
    ( '' ),
    'SwSTEP 2.0',
    'SolidWorks 2016',
    '' );
FILE_SCHEMA (( 'CONFIG_CONTROL_DESIGN' ));
ENDSEC;

DATA;
#1 = CC_DESIGN_PERSON_AND_ORGANIZATION_ASSIGNMENT ( #137, #111, ( #158 ) ) ;
#2 = DIRECTION ( 'NONE',  ( 0.0000000000000000000, 0.0000000000000000000, 1.000000000000000000 ) ) ;
#3 = ADVANCED_FACE ( 'NONE', ( #42 ), #14, .F. ) ;
#4 = PRODUCT_DEFINITION_SHAPE ( 'NONE', 'NONE',  #158 ) ;
#5 = AXIS2_PLACEMENT_3D ( 'NONE', #13, #2, #133 ) ;
#6 = CC_DESIGN_DATE_AND_TIME_ASSIGNMENT ( #48, #27, ( #45 ) ) ;
#7 = DIRECTION ( 'NONE',  ( -0.0000000000000000000, -0.0000000000000000000, -1.000000000000000000 ) ) ;
#8 = EDGE_LOOP ( 'NONE', ( #134, #41, #64, #138 ) ) ;
#9 = DIRECTION ( 'NONE',  ( -1.000000000000000000, 0.0000000000000000000, 0.0000000000000000000 ) ) ;
#10 = PERSON_AND_ORGANIZATION ( #68, #122 ) ;
#11 = AXIS2_PLACEMENT_3D ( 'NONE', #135, #77, #119 ) ;
#12 = APPROVAL ( #53, 'UNSPECIFIED' ) ;
#13 = CARTESIAN_POINT ( 'NONE',  ( 0.0000000000000000000, 0.0000000000000000000, 0.0000000000000000000 ) ) ;
#14 = PLANE ( 'NONE',  #5 ) ;
#15 = CARTESIAN_POINT ( 'NONE',  ( 0.0000000000000000000, 0.0000000000000000000, 2.000000000000000000 ) ) ;
#16 = DIRECTION ( 'NONE',  ( 0.0000000000000000000, 0.0000000000000000000, 1.000000000000000000 ) ) ;
#17 =( LENGTH_UNIT ( ) NAMED_UNIT ( * ) SI_UNIT ( .MILLI., .METRE. ) );
#18 = CALENDAR_DATE ( 2017, 31, 1 ) ;
#19 = PERSON_AND_ORGANIZATION_ROLE ( 'creator' ) ;
#20 = COORDINATED_UNIVERSAL_TIME_OFFSET ( 5, 0, .BEHIND. ) ;
#21 = CARTESIAN_POINT ( 'NONE',  ( 0.0000000000000000000, 0.0000000000000000000, 2.000000000000000000 ) ) ;
#22 = PERSON_AND_ORGANIZATION ( #68, #122 ) ;
#23 = DIRECTION ( 'NONE',  ( 1.000000000000000000, 0.0000000000000000000, 0.0000000000000000000 ) ) ;
#24 = ORIENTED_EDGE ( 'NONE', *, *, #83, .F. ) ;
#25 = APPROVAL_DATE_TIME ( #79, #12 ) ;
#26 = ORIENTED_EDGE ( 'NONE', *, *, #35, .F. ) ;
#27 = DATE_TIME_ROLE ( 'classification_date' ) ;
#28 = DIRECTION ( 'NONE',  ( -0.0000000000000000000, -0.0000000000000000000, -1.000000000000000000 ) ) ;
#29 = PERSON_AND_ORGANIZATION_ROLE ( 'classification_officer' ) ;
#30 = CC_DESIGN_SECURITY_CLASSIFICATION ( #45, ( #51 ) ) ;
#31 = DATE_AND_TIME ( #155, #100 ) ;
#32 = EDGE_LOOP ( 'NONE', ( #26, #46, #76, #24 ) ) ;
#33 = COORDINATED_UNIVERSAL_TIME_OFFSET ( 5, 0, .BEHIND. ) ;
#34 = EDGE_CURVE ( 'NONE', #115, #174, #105, .T. ) ;
#35 = EDGE_CURVE ( 'NONE', #37, #74, #98, .T. ) ;
#36 = FACE_OUTER_BOUND ( 'NONE', #32, .T. ) ;
#37 = VERTEX_POINT ( 'NONE', #90 ) ;
#38 = PERSON_AND_ORGANIZATION_ROLE ( 'design_owner' ) ;
#39 = PERSON_AND_ORGANIZATION_ROLE ( 'design_supplier' ) ;
#40 = LINE ( 'NONE', #50, #152 ) ;
#41 = ORIENTED_EDGE ( 'NONE', *, *, #161, .F. ) ;
#42 = FACE_OUTER_BOUND ( 'NONE', #101, .T. ) ;
#43 =( NAMED_UNIT ( * ) SI_UNIT ( $, .STERADIAN. ) SOLID_ANGLE_UNIT ( ) );
#44 = DIRECTION ( 'NONE',  ( 0.0000000000000000000, 0.0000000000000000000, 1.000000000000000000 ) ) ;
#45 = SECURITY_CLASSIFICATION ( '', '', #114 ) ;
#46 = ORIENTED_EDGE ( 'NONE', *, *, #75, .T. ) ;
#47 = AXIS2_PLACEMENT_3D ( 'NONE', #70, #103, #143 ) ;
#48 = DATE_AND_TIME ( #120, #87 ) ;
#49 = DIRECTION ( 'NONE',  ( 1.000000000000000000, 0.0000000000000000000, -0.0000000000000000000 ) ) ;
#50 = CARTESIAN_POINT ( 'NONE',  ( -10.00000000000000200, 0.0000000000000000000, 2.000000000000000000 ) ) ;
#51 = PRODUCT_DEFINITION_FORMATION_WITH_SPECIFIED_SOURCE ( 'ANY', '', #89, .NOT_KNOWN. ) ;
#52 = SHAPE_DEFINITION_REPRESENTATION ( #4, #127 ) ;
#53 = APPROVAL_STATUS ( 'not_yet_approved' ) ;
#54 = MECHANICAL_CONTEXT ( 'NONE', #66, 'mechanical' ) ;
#55 = APPLICATION_PROTOCOL_DEFINITION ( 'international standard', 'config_control_design', 1994, #66 ) ;
#56 = APPROVAL_STATUS ( 'not_yet_approved' ) ;
#57 = CALENDAR_DATE ( 2017, 31, 1 ) ;
#58 = CC_DESIGN_APPROVAL ( #91, ( #51 ) ) ;
#59 = AXIS2_PLACEMENT_3D ( 'NONE', #125, #44, #171 ) ;
#60 = ADVANCED_FACE ( 'NONE', ( #81 ), #150, .T. ) ;
#61 = CARTESIAN_POINT ( 'NONE',  ( 0.0000000000000000000, 0.0000000000000000000, 0.0000000000000000000 ) ) ;
#62 = CC_DESIGN_APPROVAL ( #12, ( #45 ) ) ;
#63 = ORIENTED_EDGE ( 'NONE', *, *, #34, .F. ) ;
#64 = ORIENTED_EDGE ( 'NONE', *, *, #83, .T. ) ;
#65 = CC_DESIGN_PERSON_AND_ORGANIZATION_ASSIGNMENT ( #22, #19, ( #51 ) ) ;
#66 = APPLICATION_CONTEXT ( 'configuration controlled 3d designs of mechanical parts and assemblies' ) ;
#67 = CARTESIAN_POINT ( 'NONE',  ( 0.0000000000000000000, 0.0000000000000000000, 2.000000000000000000 ) ) ;
#68 = PERSON ( 'UNSPECIFIED', 'UNSPECIFIED', 'UNSPECIFIED', ('UNSPECIFIED'), ('UNSPECIFIED'), ('UNSPECIFIED') ) ;
#69 = FACE_OUTER_BOUND ( 'NONE', #8, .T. ) ;
#70 = CARTESIAN_POINT ( 'NONE',  ( 0.0000000000000000000, 0.0000000000000000000, 0.0000000000000000000 ) ) ;
#71 = APPROVAL_STATUS ( 'not_yet_approved' ) ;
#72 =( GEOMETRIC_REPRESENTATION_CONTEXT ( 3 ) GLOBAL_UNCERTAINTY_ASSIGNED_CONTEXT ( ( #102 ) ) GLOBAL_UNIT_ASSIGNED_CONTEXT ( ( #17, #84, #43 ) ) REPRESENTATION_CONTEXT ( 'NONE', 'WORKASPACE' ) );
#73 = AXIS2_PLACEMENT_3D ( 'NONE', #86, #16, #113 ) ;
#74 = VERTEX_POINT ( 'NONE', #107 ) ;
#75 = EDGE_CURVE ( 'NONE', #37, #115, #108, .T. ) ;
#76 = ORIENTED_EDGE ( 'NONE', *, *, #34, .T. ) ;
#77 = DIRECTION ( 'NONE',  ( 0.0000000000000000000, 0.0000000000000000000, 1.000000000000000000 ) ) ;
#78 = CC_DESIGN_DATE_AND_TIME_ASSIGNMENT ( #96, #157, ( #158 ) ) ;
#79 = DATE_AND_TIME ( #172, #99 ) ;
#80 = COORDINATED_UNIVERSAL_TIME_OFFSET ( 5, 0, .BEHIND. ) ;
#81 = FACE_OUTER_BOUND ( 'NONE', #160, .T. ) ;
#82 = APPROVAL_ROLE ( '' ) ;
#83 = EDGE_CURVE ( 'NONE', #74, #174, #40, .T. ) ;
#84 =( NAMED_UNIT ( * ) PLANE_ANGLE_UNIT ( ) SI_UNIT ( $, .RADIAN. ) );
#85 = CC_DESIGN_PERSON_AND_ORGANIZATION_ASSIGNMENT ( #10, #38, ( #89 ) ) ;
#86 = CARTESIAN_POINT ( 'NONE',  ( 0.0000000000000000000, 0.0000000000000000000, 0.0000000000000000000 ) ) ;
#87 = LOCAL_TIME ( 13, 44, 29.00000000000000000, #121 ) ;
#88 = APPROVAL_PERSON_ORGANIZATION ( #126, #106, #82 ) ;
#89 = PRODUCT ( 'Web Model 63205', 'Web Model 63205', '', ( #54 ) ) ;
#90 = CARTESIAN_POINT ( 'NONE',  ( 10.00000000000000200, 1.224646799147353500E-015, 2.000000000000000000 ) ) ;
#91 = APPROVAL ( #71, 'UNSPECIFIED' ) ;
#92 = DIRECTION ( 'NONE',  ( -0.0000000000000000000, -0.0000000000000000000, -1.000000000000000000 ) ) ;
#93 = APPROVAL_PERSON_ORGANIZATION ( #145, #12, #154 ) ;
#94 = CARTESIAN_POINT ( 'NONE',  ( 10.00000000000000200, 1.224646799147353500E-015, 2.000000000000000000 ) ) ;
#95 = DIRECTION ( 'NONE',  ( 0.0000000000000000000, 0.0000000000000000000, 1.000000000000000000 ) ) ;
#96 = DATE_AND_TIME ( #57, #159 ) ;
#97 = DIRECTION ( 'NONE',  ( -0.0000000000000000000, -0.0000000000000000000, -1.000000000000000000 ) ) ;
#98 = CIRCLE ( 'NONE', #11, 10.00000000000000200 ) ;
#99 = LOCAL_TIME ( 13, 44, 29.00000000000000000, #33 ) ;
#100 = LOCAL_TIME ( 13, 44, 29.00000000000000000, #80 ) ;
#101 = EDGE_LOOP ( 'NONE', ( #129, #63 ) ) ;
#102 = UNCERTAINTY_MEASURE_WITH_UNIT (LENGTH_MEASURE( 1.000000000000000100E-005 ), #17, 'distance_accuracy_value', 'NONE');
#103 = DIRECTION ( 'NONE',  ( 0.0000000000000000000, 0.0000000000000000000, 1.000000000000000000 ) ) ;
#104 = APPROVAL_DATE_TIME ( #31, #106 ) ;
#105 = CIRCLE ( 'NONE', #149, 10.00000000000000200 ) ;
#106 = APPROVAL ( #56, 'UNSPECIFIED' ) ;
#107 = CARTESIAN_POINT ( 'NONE',  ( -10.00000000000000200, 0.0000000000000000000, 2.000000000000000000 ) ) ;
#108 = LINE ( 'NONE', #94, #112 ) ;
#109 = AXIS2_PLACEMENT_3D ( 'NONE', #15, #95, #49 ) ;
#110 = CARTESIAN_POINT ( 'NONE',  ( 10.00000000000000200, 1.224646799147353500E-015, 0.0000000000000000000 ) ) ;
#111 = PERSON_AND_ORGANIZATION_ROLE ( 'creator' ) ;
#112 = VECTOR ( 'NONE', #92, 1000.000000000000000 ) ;
#113 = DIRECTION ( 'NONE',  ( 1.000000000000000000, 0.0000000000000000000, 0.0000000000000000000 ) ) ;
#114 = SECURITY_CLASSIFICATION_LEVEL ( 'unclassified' ) ;
#115 = VERTEX_POINT ( 'NONE', #110 ) ;
#116 = CIRCLE ( 'NONE', #73, 10.00000000000000200 ) ;
#117 = ADVANCED_FACE ( 'NONE', ( #69 ), #175, .T. ) ;
#118 = CLOSED_SHELL ( 'NONE', ( #147, #117, #60, #3 ) ) ;
#119 = DIRECTION ( 'NONE',  ( 1.000000000000000000, 0.0000000000000000000, 0.0000000000000000000 ) ) ;
#120 = CALENDAR_DATE ( 2017, 31, 1 ) ;
#121 = COORDINATED_UNIVERSAL_TIME_OFFSET ( 5, 0, .BEHIND. ) ;
#122 = ORGANIZATION ( 'UNSPECIFIED', 'UNSPECIFIED', '' ) ;
#123 = APPLICATION_PROTOCOL_DEFINITION ( 'international standard', 'config_control_design', 1994, #156 ) ;
#124 = CC_DESIGN_PERSON_AND_ORGANIZATION_ASSIGNMENT ( #144, #39, ( #51 ) ) ;
#125 = CARTESIAN_POINT ( 'NONE',  ( 0.0000000000000000000, 0.0000000000000000000, 2.000000000000000000 ) ) ;
#126 = PERSON_AND_ORGANIZATION ( #68, #122 ) ;
#127 = ADVANCED_BREP_SHAPE_REPRESENTATION ( 'Web Model 63205', ( #130, #47 ), #72 ) ;
#128 = DIRECTION ( 'NONE',  ( -1.000000000000000000, 0.0000000000000000000, 0.0000000000000000000 ) ) ;
#129 = ORIENTED_EDGE ( 'NONE', *, *, #153, .F. ) ;
#130 = MANIFOLD_SOLID_BREP ( 'Extrude1', #118 ) ;
#131 = CC_DESIGN_PERSON_AND_ORGANIZATION_ASSIGNMENT ( #164, #29, ( #45 ) ) ;
#132 = APPROVAL_PERSON_ORGANIZATION ( #148, #91, #139 ) ;
#133 = DIRECTION ( 'NONE',  ( 1.000000000000000000, 0.0000000000000000000, -0.0000000000000000000 ) ) ;
#134 = ORIENTED_EDGE ( 'NONE', *, *, #75, .F. ) ;
#135 = CARTESIAN_POINT ( 'NONE',  ( 0.0000000000000000000, 0.0000000000000000000, 2.000000000000000000 ) ) ;
#136 = AXIS2_PLACEMENT_3D ( 'NONE', #21, #7, #9 ) ;
#137 = PERSON_AND_ORGANIZATION ( #68, #122 ) ;
#138 = ORIENTED_EDGE ( 'NONE', *, *, #153, .T. ) ;
#139 = APPROVAL_ROLE ( '' ) ;
#140 = PRODUCT_RELATED_PRODUCT_CATEGORY ( 'detail', '', ( #89 ) ) ;
#141 = CARTESIAN_POINT ( 'NONE',  ( -10.00000000000000200, 0.0000000000000000000, 0.0000000000000000000 ) ) ;
#142 = CIRCLE ( 'NONE', #59, 10.00000000000000200 ) ;
#143 = DIRECTION ( 'NONE',  ( 1.000000000000000000, 0.0000000000000000000, 0.0000000000000000000 ) ) ;
#144 = PERSON_AND_ORGANIZATION ( #68, #122 ) ;
#145 = PERSON_AND_ORGANIZATION ( #68, #122 ) ;
#146 = ORIENTED_EDGE ( 'NONE', *, *, #35, .T. ) ;
#147 = ADVANCED_FACE ( 'NONE', ( #36 ), #173, .T. ) ;
#148 = PERSON_AND_ORGANIZATION ( #68, #122 ) ;
#149 = AXIS2_PLACEMENT_3D ( 'NONE', #61, #165, #23 ) ;
#150 = PLANE ( 'NONE',  #109 ) ;
#151 = APPROVAL_DATE_TIME ( #163, #91 ) ;
#152 = VECTOR ( 'NONE', #97, 1000.000000000000000 ) ;
#153 = EDGE_CURVE ( 'NONE', #174, #115, #116, .T. ) ;
#154 = APPROVAL_ROLE ( '' ) ;
#155 = CALENDAR_DATE ( 2017, 31, 1 ) ;
#156 = APPLICATION_CONTEXT ( 'configuration controlled 3d designs of mechanical parts and assemblies' ) ;
#157 = DATE_TIME_ROLE ( 'creation_date' ) ;
#158 = PRODUCT_DEFINITION ( 'UNKNOWN', '', #51, #162 ) ;
#159 = LOCAL_TIME ( 13, 44, 29.00000000000000000, #170 ) ;
#160 = EDGE_LOOP ( 'NONE', ( #169, #146 ) ) ;
#161 = EDGE_CURVE ( 'NONE', #74, #37, #142, .T. ) ;
#162 = DESIGN_CONTEXT ( 'detailed design', #156, 'design' ) ;
#163 = DATE_AND_TIME ( #18, #167 ) ;
#164 = PERSON_AND_ORGANIZATION ( #68, #122 ) ;
#165 = DIRECTION ( 'NONE',  ( 0.0000000000000000000, 0.0000000000000000000, 1.000000000000000000 ) ) ;
#166 = AXIS2_PLACEMENT_3D ( 'NONE', #67, #28, #128 ) ;
#167 = LOCAL_TIME ( 13, 44, 29.00000000000000000, #20 ) ;
#168 = CC_DESIGN_APPROVAL ( #106, ( #158 ) ) ;
#169 = ORIENTED_EDGE ( 'NONE', *, *, #161, .T. ) ;
#170 = COORDINATED_UNIVERSAL_TIME_OFFSET ( 5, 0, .BEHIND. ) ;
#171 = DIRECTION ( 'NONE',  ( 1.000000000000000000, 0.0000000000000000000, 0.0000000000000000000 ) ) ;
#172 = CALENDAR_DATE ( 2017, 31, 1 ) ;
#173 = CYLINDRICAL_SURFACE ( 'NONE', #166, 10.00000000000000200 ) ;
#174 = VERTEX_POINT ( 'NONE', #141 ) ;
#175 = CYLINDRICAL_SURFACE ( 'NONE', #136, 10.00000000000000200 ) ;
ENDSEC;
END-ISO-10303-21;
