ISO-10303-21;
HEADER;
FILE_DESCRIPTION (( 'STEP AP203' ),
    '1' );
FILE_NAME ('12616-E0W.STEP',
    '2011-06-28T13:59:12',
    ( 'Admin' ),
    ( 'Thorlabs, Inc.' ),
    'SwSTEP 2.0',
    'SolidWorks 2011',
    '' );
FILE_SCHEMA (( 'CONFIG_CONTROL_DESIGN' ));
ENDSEC;

DATA;
#1 = ADVANCED_FACE ( 'NONE', ( #252 ), #111, .F. ) ;
#2 = ADVANCED_FACE ( 'NONE', ( #317 ), #145, .F. ) ;
#3 = ADVANCED_FACE ( 'NONE', ( #315 ), #321, .F. ) ;
#4 = ADVANCED_FACE ( 'NONE', ( #322 ), #130, .T. ) ;
#5 = ADVANCED_FACE ( 'NONE', ( #316 ), #217, .F. ) ;
#6 = ADVANCED_FACE ( 'NONE', ( #314 ), #320, .T. ) ;
#7 = ADVANCED_FACE ( 'NONE', ( #319 ), #261, .T. ) ;
#8 = ADVANCED_FACE ( 'NONE', ( #256 ), #364, .F. ) ;
#9 = ADVANCED_FACE ( 'NONE', ( #365 ), #363, .F. ) ;
#10 = ADVANCED_FACE ( 'NONE', ( #360 ), #361, .T. ) ;
#11 = EDGE_CURVE ( 'NONE', #334, #349, #362, .T. ) ;
#12 = EDGE_CURVE ( 'NONE', #297, #303, #90, .T. ) ;
#13 = EDGE_CURVE ( 'NONE', #338, #337, #93, .T. ) ;
#14 = EDGE_CURVE ( 'NONE', #249, #330, #247, .T. ) ;
#15 = EDGE_CURVE ( 'NONE', #330, #349, #92, .T. ) ;
#16 = EDGE_CURVE ( 'NONE', #336, #297, #56, .T. ) ;
#17 = EDGE_CURVE ( 'NONE', #349, #333, #103, .T. ) ;
#18 = EDGE_CURVE ( 'NONE', #334, #331, #53, .T. ) ;
#19 = EDGE_CURVE ( 'NONE', #303, #337, #248, .T. ) ;
#20 = EDGE_CURVE ( 'NONE', #249, #334, #69, .T. ) ;
#21 = EDGE_CURVE ( 'NONE', #297, #338, #372, .T. ) ;
#22 = EDGE_CURVE ( 'NONE', #331, #333, #250, .T. ) ;
#23 = EDGE_CURVE ( 'NONE', #262, #249, #68, .T. ) ;
#24 = EDGE_CURVE ( 'NONE', #337, #296, #379, .T. ) ;
#25 = EDGE_CURVE ( 'NONE', #339, #338, #61, .T. ) ;
#26 = EDGE_CURVE ( 'NONE', #332, #340, #373, .T. ) ;
#27 = EDGE_CURVE ( 'NONE', #332, #336, #54, .T. ) ;
#28 = EDGE_CURVE ( 'NONE', #336, #339, #255, .T. ) ;
#29 = EDGE_CURVE ( 'NONE', #331, #332, #257, .T. ) ;
#30 = EDGE_CURVE ( 'NONE', #262, #296, #258, .T. ) ;
#31 = EDGE_CURVE ( 'NONE', #340, #339, #58, .T. ) ;
#32 = EDGE_CURVE ( 'NONE', #296, #330, #46, .T. ) ;
#33 = EDGE_CURVE ( 'NONE', #303, #262, #259, .T. ) ;
#34 = EDGE_CURVE ( 'NONE', #333, #340, #260, .T. ) ;
#35 =( GEOMETRIC_REPRESENTATION_CONTEXT ( 3 ) GLOBAL_UNCERTAINTY_ASSIGNED_CONTEXT ( ( #43 ) ) GLOBAL_UNIT_ASSIGNED_CONTEXT ( ( #197, #176, #242 ) ) REPRESENTATION_CONTEXT ( 'NONE', 'WORKASPACE' ) );
#36 = LOCAL_TIME ( 9, 59, 12.00000000000000000, #268 ) ;
#37 = LOCAL_TIME ( 9, 59, 12.00000000000000000, #273 ) ;
#38 = LOCAL_TIME ( 9, 59, 12.00000000000000000, #278 ) ;
#39 = LOCAL_TIME ( 9, 59, 12.00000000000000000, #286 ) ;
#40 = LOCAL_TIME ( 9, 59, 12.00000000000000000, #289 ) ;
#41 = PRODUCT ( '12616-E0W', '12616-E0W', '', ( #129 ) ) ;
#42 = PERSON ( 'UNSPECIFIED', 'UNSPECIFIED', 'UNSPECIFIED', ('UNSPECIFIED'), ('UNSPECIFIED'), ('UNSPECIFIED') ) ;
#43 = UNCERTAINTY_MEASURE_WITH_UNIT (LENGTH_MEASURE( 1.000000000000000100E-005 ), #197, 'distance_accuracy_value', 'NONE');
#44 = AXIS2_PLACEMENT_3D ( 'NONE', #194, #161, #164 ) ;
#45 = AXIS2_PLACEMENT_3D ( 'NONE', #127, #134, #229 ) ;
#46 = CIRCLE ( 'NONE', #79, 0.1880000000000000300 ) ;
#47 = AXIS2_PLACEMENT_3D ( 'NONE', #142, #122, #146 ) ;
#48 = AXIS2_PLACEMENT_3D ( 'NONE', #198, #165, #141 ) ;
#49 = VECTOR ( 'NONE', #185, 39.37007874015748100 ) ;
#50 = VECTOR ( 'NONE', #143, 39.37007874015748100 ) ;
#51 = VECTOR ( 'NONE', #169, 39.37007874015748100 ) ;
#52 = VECTOR ( 'NONE', #203, 39.37007874015748100 ) ;
#53 = CIRCLE ( 'NONE', #45, 0.1880000000000000300 ) ;
#54 = CIRCLE ( 'NONE', #55, 0.2350000000000001000 ) ;
#55 = AXIS2_PLACEMENT_3D ( 'NONE', #228, #221, #234 ) ;
#56 = CIRCLE ( 'NONE', #44, 0.2350000000000001000 ) ;
#57 = VECTOR ( 'NONE', #202, 39.37007874015748100 ) ;
#58 = CIRCLE ( 'NONE', #59, 0.2350000000000001000 ) ;
#59 = AXIS2_PLACEMENT_3D ( 'NONE', #193, #147, #245 ) ;
#60 = PRODUCT_DEFINITION ( 'UNKNOWN', '', #85, #381 ) ;
#61 = CIRCLE ( 'NONE', #105, 0.2350000000000001000 ) ;
#62 = AXIS2_PLACEMENT_3D ( 'NONE', #208, #125, #175 ) ;
#63 = VECTOR ( 'NONE', #233, 39.37007874015748100 ) ;
#64 = AXIS2_PLACEMENT_3D ( 'NONE', #216, #195, #199 ) ;
#65 = AXIS2_PLACEMENT_3D ( 'NONE', #181, #226, #177 ) ;
#66 = VECTOR ( 'NONE', #182, 39.37007874015748100 ) ;
#67 = VECTOR ( 'NONE', #191, 39.37007874015748100 ) ;
#68 = CIRCLE ( 'NONE', #65, 0.1880000000000000300 ) ;
#69 = CIRCLE ( 'NONE', #64, 0.1880000000000000300 ) ;
#70 = VECTOR ( 'NONE', #232, 39.37007874015748100 ) ;
#71 = CC_DESIGN_PERSON_AND_ORGANIZATION_ASSIGNMENT ( #266, #227, ( #41 ) ) ;
#72 = AXIS2_PLACEMENT_3D ( 'NONE', #222, #236, #151 ) ;
#73 = CC_DESIGN_PERSON_AND_ORGANIZATION_ASSIGNMENT ( #283, #138, ( #85 ) ) ;
#74 = CC_DESIGN_SECURITY_CLASSIFICATION ( #84, ( #85 ) ) ;
#75 = CC_DESIGN_PERSON_AND_ORGANIZATION_ASSIGNMENT ( #285, #121, ( #85 ) ) ;
#76 = APPROVAL ( #128, 'UNSPECIFIED' ) ;
#77 = CC_DESIGN_APPROVAL ( #82, ( #60 ) ) ;
#78 = CC_DESIGN_DATE_AND_TIME_ASSIGNMENT ( #276, #118, ( #60 ) ) ;
#79 = AXIS2_PLACEMENT_3D ( 'NONE', #144, #158, #156 ) ;
#80 = VECTOR ( 'NONE', #153, 39.37007874015748100 ) ;
#81 = VECTOR ( 'NONE', #149, 39.37007874015748100 ) ;
#82 = APPROVAL ( #124, 'UNSPECIFIED' ) ;
#83 = AXIS2_PLACEMENT_3D ( 'NONE', #112, #159, #246 ) ;
#84 = SECURITY_CLASSIFICATION ( '', '', #131 ) ;
#85 = PRODUCT_DEFINITION_FORMATION_WITH_SPECIFIED_SOURCE ( 'ANY', '', #41, .NOT_KNOWN. ) ;
#86 = CC_DESIGN_PERSON_AND_ORGANIZATION_ASSIGNMENT ( #275, #116, ( #60 ) ) ;
#87 = CC_DESIGN_DATE_AND_TIME_ASSIGNMENT ( #290, #137, ( #84 ) ) ;
#88 = AXIS2_PLACEMENT_3D ( 'NONE', #167, #160, #219 ) ;
#89 = CC_DESIGN_APPROVAL ( #76, ( #84 ) ) ;
#90 = CIRCLE ( 'NONE', #88, 0.2350000000000001000 ) ;
#91 = AXIS2_PLACEMENT_3D ( 'NONE', #206, #172, #162 ) ;
#92 = CIRCLE ( 'NONE', #62, 0.1880000000000000300 ) ;
#93 = CIRCLE ( 'NONE', #48, 0.2350000000000001000 ) ;
#94 = AXIS2_PLACEMENT_3D ( 'NONE', #173, #171, #186 ) ;
#95 = AXIS2_PLACEMENT_3D ( 'NONE', #152, #212, #123 ) ;
#96 = CC_DESIGN_PERSON_AND_ORGANIZATION_ASSIGNMENT ( #284, #132, ( #84 ) ) ;
#97 = VECTOR ( 'NONE', #136, 39.37007874015748100 ) ;
#98 = AXIS2_PLACEMENT_3D ( 'NONE', #183, #178, #180 ) ;
#99 = AXIS2_PLACEMENT_3D ( 'NONE', #114, #207, #166 ) ;
#100 = AXIS2_PLACEMENT_3D ( 'NONE', #135, #168, #139 ) ;
#101 = CC_DESIGN_APPROVAL ( #109, ( #85 ) ) ;
#102 = AXIS2_PLACEMENT_3D ( 'NONE', #201, #244, #117 ) ;
#103 = CIRCLE ( 'NONE', #106, 0.1880000000000000300 ) ;
#104 = LENGTH_MEASURE_WITH_UNIT ( LENGTH_MEASURE( 0.02539999999999999900 ), #196 );
#105 = AXIS2_PLACEMENT_3D ( 'NONE', #235, #190, #205 ) ;
#106 = AXIS2_PLACEMENT_3D ( 'NONE', #155, #133, #170 ) ;
#107 = AXIS2_PLACEMENT_3D ( 'NONE', #215, #214, #204 ) ;
#108 = PRODUCT_RELATED_PRODUCT_CATEGORY ( 'detail', '', ( #41 ) ) ;
#109 = APPROVAL ( #115, 'UNSPECIFIED' ) ;
#110 = PRODUCT_DEFINITION_SHAPE ( 'NONE', 'NONE',  #60 ) ;
#111 = PLANE ( 'NONE',  #47 ) ;
#112 = CARTESIAN_POINT ( 'NONE',  ( 0.0000000000000000000, 0.0000000000000000000, 0.0000000000000000000 ) ) ;
#113 = CARTESIAN_POINT ( 'NONE',  ( -0.4675395546439599600, -0.9962669491288817000, 0.8273928428983737800 ) ) ;
#114 = CARTESIAN_POINT ( 'NONE',  ( -0.6538699064388299200, -0.4962669491288817000, 0.8523928428983738000 ) ) ;
#115 = APPROVAL_STATUS ( 'not_yet_approved' ) ;
#116 = PERSON_AND_ORGANIZATION_ROLE ( 'creator' ) ;
#117 = DIRECTION ( 'NONE',  ( 0.0000000000000000000, 0.0000000000000000000, -1.000000000000000000 ) ) ;
#118 = DATE_TIME_ROLE ( 'creation_date' ) ;
#119 = APPROVAL_ROLE ( '' ) ;
#120 = APPROVAL_ROLE ( '' ) ;
#121 = PERSON_AND_ORGANIZATION_ROLE ( 'creator' ) ;
#122 = DIRECTION ( 'NONE',  ( 0.0000000000000000000, 1.000000000000000000, 0.0000000000000000000 ) ) ;
#123 = DIRECTION ( 'NONE',  ( 0.0000000000000000000, 0.0000000000000000000, -1.000000000000000000 ) ) ;
#124 = APPROVAL_STATUS ( 'not_yet_approved' ) ;
#125 = DIRECTION ( 'NONE',  ( -0.0000000000000000000, -1.000000000000000000, -0.0000000000000000000 ) ) ;
#126 = APPROVAL_ROLE ( '' ) ;
#127 = CARTESIAN_POINT ( 'NONE',  ( -0.6538699064388299200, -0.4962669491288817000, 0.8523928428983738000 ) ) ;
#128 = APPROVAL_STATUS ( 'not_yet_approved' ) ;
#129 = MECHANICAL_CONTEXT ( 'NONE', #189, 'mechanical' ) ;
#130 = PLANE ( 'NONE',  #72 ) ;
#131 = SECURITY_CLASSIFICATION_LEVEL ( 'unclassified' ) ;
#132 = PERSON_AND_ORGANIZATION_ROLE ( 'classification_officer' ) ;
#133 = DIRECTION ( 'NONE',  ( -0.0000000000000000000, -1.000000000000000000, -0.0000000000000000000 ) ) ;
#134 = DIRECTION ( 'NONE',  ( -0.0000000000000000000, -1.000000000000000000, -0.0000000000000000000 ) ) ;
#135 = CARTESIAN_POINT ( 'NONE',  ( -0.6538699064388299200, -0.4962669491288817000, 0.8523928428983738000 ) ) ;
#136 = DIRECTION ( 'NONE',  ( -0.0000000000000000000, -1.000000000000000000, -0.0000000000000000000 ) ) ;
#137 = DATE_TIME_ROLE ( 'classification_date' ) ;
#138 = PERSON_AND_ORGANIZATION_ROLE ( 'design_supplier' ) ;
#139 = DIRECTION ( 'NONE',  ( 0.0000000000000000000, 0.0000000000000000000, -1.000000000000000000 ) ) ;
#140 = CARTESIAN_POINT ( 'NONE',  ( -0.4202034775278714600, -0.4962669491288817000, 0.8273928428983737800 ) ) ;
#141 = DIRECTION ( 'NONE',  ( 0.0000000000000000000, 0.0000000000000000000, 1.000000000000000000 ) ) ;
#142 = CARTESIAN_POINT ( 'NONE',  ( -0.6538699064388299200, -0.9962669491288817000, 0.8523928428983738000 ) ) ;
#143 = DIRECTION ( 'NONE',  ( -0.0000000000000000000, -1.000000000000000000, -0.0000000000000000000 ) ) ;
#144 = CARTESIAN_POINT ( 'NONE',  ( -0.6538699064388299200, -0.9962669491288817000, 0.8523928428983738000 ) ) ;
#145 = PLANE ( 'NONE',  #98 ) ;
#146 = DIRECTION ( 'NONE',  ( 0.0000000000000000000, -0.0000000000000000000, 1.000000000000000000 ) ) ;
#147 = DIRECTION ( 'NONE',  ( 0.0000000000000000000, 1.000000000000000000, 0.0000000000000000000 ) ) ;
#148 = CARTESIAN_POINT ( 'NONE',  ( -0.4675395546439599600, -0.4962669491288817000, 0.8773928428983737100 ) ) ;
#149 = DIRECTION ( 'NONE',  ( 1.000000000000000000, -0.0000000000000000000, -2.705238424995914700E-016 ) ) ;
#150 = CARTESIAN_POINT ( 'NONE',  ( -0.4202034775278714600, -0.9962669491288817000, 0.8773928428983737100 ) ) ;
#151 = DIRECTION ( 'NONE',  ( 0.0000000000000000000, -0.0000000000000000000, 1.000000000000000000 ) ) ;
#152 = CARTESIAN_POINT ( 'NONE',  ( -0.6538699064388299200, -0.4962669491288817000, 0.8523928428983738000 ) ) ;
#153 = DIRECTION ( 'NONE',  ( -1.000000000000000000, -0.0000000000000000000, -1.803492283330608600E-016 ) ) ;
#154 = CARTESIAN_POINT ( 'NONE',  ( -0.6538699064388299200, -0.9962669491288817000, 0.6173928428983737100 ) ) ;
#155 = CARTESIAN_POINT ( 'NONE',  ( -0.6538699064388299200, -0.9962669491288817000, 0.8523928428983738000 ) ) ;
#156 = DIRECTION ( 'NONE',  ( 0.0000000000000000000, 0.0000000000000000000, 1.000000000000000000 ) ) ;
#157 = CARTESIAN_POINT ( 'NONE',  ( -0.4675395546439599600, -0.4962669491288817000, 0.8273928428983737800 ) ) ;
#158 = DIRECTION ( 'NONE',  ( -0.0000000000000000000, -1.000000000000000000, -0.0000000000000000000 ) ) ;
#159 = DIRECTION ( 'NONE',  ( 0.0000000000000000000, 0.0000000000000000000, 1.000000000000000000 ) ) ;
#160 = DIRECTION ( 'NONE',  ( 0.0000000000000000000, 1.000000000000000000, 0.0000000000000000000 ) ) ;
#161 = DIRECTION ( 'NONE',  ( 0.0000000000000000000, 1.000000000000000000, 0.0000000000000000000 ) ) ;
#162 = DIRECTION ( 'NONE',  ( 0.0000000000000000000, 0.0000000000000000000, -1.000000000000000000 ) ) ;
#163 = CARTESIAN_POINT ( 'NONE',  ( -0.6538699064388299200, -0.4962669491288817000, 1.040392842898373700 ) ) ;
#164 = DIRECTION ( 'NONE',  ( 0.0000000000000000000, 0.0000000000000000000, 1.000000000000000000 ) ) ;
#165 = DIRECTION ( 'NONE',  ( 0.0000000000000000000, 1.000000000000000000, 0.0000000000000000000 ) ) ;
#166 = DIRECTION ( 'NONE',  ( 0.0000000000000000000, 0.0000000000000000000, -1.000000000000000000 ) ) ;
#167 = CARTESIAN_POINT ( 'NONE',  ( -0.6538699064388299200, -0.4962669491288817000, 0.8523928428983738000 ) ) ;
#168 = DIRECTION ( 'NONE',  ( -0.0000000000000000000, -1.000000000000000000, -0.0000000000000000000 ) ) ;
#169 = DIRECTION ( 'NONE',  ( -0.0000000000000000000, -1.000000000000000000, -0.0000000000000000000 ) ) ;
#170 = DIRECTION ( 'NONE',  ( 0.0000000000000000000, 0.0000000000000000000, 1.000000000000000000 ) ) ;
#171 = DIRECTION ( 'NONE',  ( -0.0000000000000000000, -1.000000000000000000, -0.0000000000000000000 ) ) ;
#172 = DIRECTION ( 'NONE',  ( -0.0000000000000000000, -1.000000000000000000, -0.0000000000000000000 ) ) ;
#173 = CARTESIAN_POINT ( 'NONE',  ( -0.6538699064388299200, -0.4962669491288817000, 0.8523928428983738000 ) ) ;
#174 = CARTESIAN_POINT ( 'NONE',  ( -0.6538699064388299200, -0.4962669491288817000, 1.087392842898373900 ) ) ;
#175 = DIRECTION ( 'NONE',  ( 0.0000000000000000000, 0.0000000000000000000, 1.000000000000000000 ) ) ;
#176 =( NAMED_UNIT ( * ) PLANE_ANGLE_UNIT ( ) SI_UNIT ( $, .RADIAN. ) );
#177 = DIRECTION ( 'NONE',  ( 0.0000000000000000000, 0.0000000000000000000, 1.000000000000000000 ) ) ;
#178 = DIRECTION ( 'NONE',  ( -1.803492283330608300E-016, 0.0000000000000000000, 1.000000000000000000 ) ) ;
#179 = CARTESIAN_POINT ( 'NONE',  ( -0.6538699064388299200, -0.4962669491288817000, 1.087392842898373900 ) ) ;
#180 = DIRECTION ( 'NONE',  ( 1.000000000000000000, 0.0000000000000000000, 1.803492283330608300E-016 ) ) ;
#181 = CARTESIAN_POINT ( 'NONE',  ( -0.6538699064388299200, -0.4962669491288817000, 0.8523928428983738000 ) ) ;
#182 = DIRECTION ( 'NONE',  ( -0.0000000000000000000, -1.000000000000000000, -0.0000000000000000000 ) ) ;
#183 = CARTESIAN_POINT ( 'NONE',  ( -0.4675395546439599600, -0.4962669491288817000, 0.8773928428983737100 ) ) ;
#184 = APPLICATION_PROTOCOL_DEFINITION ( 'international standard', 'config_control_design', 1994, #189 ) ;
#185 = DIRECTION ( 'NONE',  ( -0.0000000000000000000, -1.000000000000000000, -0.0000000000000000000 ) ) ;
#186 = DIRECTION ( 'NONE',  ( 0.0000000000000000000, 0.0000000000000000000, -1.000000000000000000 ) ) ;
#187 = CARTESIAN_POINT ( 'NONE',  ( -0.6538699064388299200, -0.4962669491288817000, 0.6173928428983737100 ) ) ;
#188 = CARTESIAN_POINT ( 'NONE',  ( -0.4675395546439599600, -0.4962669491288817000, 0.8773928428983737100 ) ) ;
#189 = APPLICATION_CONTEXT ( 'configuration controlled 3d designs of mechanical parts and assemblies' ) ;
#190 = DIRECTION ( 'NONE',  ( 0.0000000000000000000, 1.000000000000000000, 0.0000000000000000000 ) ) ;
#191 = DIRECTION ( 'NONE',  ( -0.0000000000000000000, -1.000000000000000000, -0.0000000000000000000 ) ) ;
#192 = CARTESIAN_POINT ( 'NONE',  ( -0.6538699064388299200, -0.4962669491288817000, 1.040392842898373700 ) ) ;
#193 = CARTESIAN_POINT ( 'NONE',  ( -0.6538699064388299200, -0.9962669491288817000, 0.8523928428983738000 ) ) ;
#194 = CARTESIAN_POINT ( 'NONE',  ( -0.6538699064388299200, -0.4962669491288817000, 0.8523928428983738000 ) ) ;
#195 = DIRECTION ( 'NONE',  ( -0.0000000000000000000, -1.000000000000000000, -0.0000000000000000000 ) ) ;
#196 =( LENGTH_UNIT ( ) NAMED_UNIT ( * ) SI_UNIT ( $, .METRE. ) );
#197 =( CONVERSION_BASED_UNIT ( 'INCH', #104 ) LENGTH_UNIT ( ) NAMED_UNIT ( #382 ) );
#198 = CARTESIAN_POINT ( 'NONE',  ( -0.6538699064388299200, -0.9962669491288817000, 0.8523928428983738000 ) ) ;
#199 = DIRECTION ( 'NONE',  ( 0.0000000000000000000, 0.0000000000000000000, 1.000000000000000000 ) ) ;
#200 = CARTESIAN_POINT ( 'NONE',  ( -0.4202034775278714600, -0.4962669491288817000, 0.8773928428983737100 ) ) ;
#201 = CARTESIAN_POINT ( 'NONE',  ( -0.6538699064388299200, -0.4962669491288817000, 0.8523928428983738000 ) ) ;
#202 = DIRECTION ( 'NONE',  ( 1.000000000000000000, -0.0000000000000000000, -2.705238424995914700E-016 ) ) ;
#203 = DIRECTION ( 'NONE',  ( -0.0000000000000000000, -1.000000000000000000, -0.0000000000000000000 ) ) ;
#204 = DIRECTION ( 'NONE',  ( -1.000000000000000000, 0.0000000000000000000, 2.705238424995914700E-016 ) ) ;
#205 = DIRECTION ( 'NONE',  ( 0.0000000000000000000, 0.0000000000000000000, 1.000000000000000000 ) ) ;
#206 = CARTESIAN_POINT ( 'NONE',  ( -0.6538699064388299200, -0.4962669491288817000, 0.8523928428983738000 ) ) ;
#207 = DIRECTION ( 'NONE',  ( -0.0000000000000000000, -1.000000000000000000, -0.0000000000000000000 ) ) ;
#208 = CARTESIAN_POINT ( 'NONE',  ( -0.6538699064388299200, -0.9962669491288817000, 0.8523928428983738000 ) ) ;
#209 = CARTESIAN_POINT ( 'NONE',  ( -0.6538699064388299200, -0.4962669491288817000, 0.6643928428983737500 ) ) ;
#210 = CARTESIAN_POINT ( 'NONE',  ( -0.4675395546439599600, -0.4962669491288817000, 0.8273928428983737800 ) ) ;
#211 = CARTESIAN_POINT ( 'NONE',  ( -0.4675395546439599600, -0.4962669491288817000, 0.8773928428983737100 ) ) ;
#212 = DIRECTION ( 'NONE',  ( -0.0000000000000000000, -1.000000000000000000, -0.0000000000000000000 ) ) ;
#213 = CARTESIAN_POINT ( 'NONE',  ( -0.4675395546439599600, -0.9962669491288817000, 0.8773928428983737100 ) ) ;
#214 = DIRECTION ( 'NONE',  ( -2.705238424995914700E-016, 0.0000000000000000000, -1.000000000000000000 ) ) ;
#215 = CARTESIAN_POINT ( 'NONE',  ( -0.4202034775278714600, -0.4962669491288817000, 0.8273928428983737800 ) ) ;
#216 = CARTESIAN_POINT ( 'NONE',  ( -0.6538699064388299200, -0.4962669491288817000, 0.8523928428983738000 ) ) ;
#217 = PLANE ( 'NONE',  #107 ) ;
#218 = CARTESIAN_POINT ( 'NONE',  ( -0.4675395546439599600, -0.9962669491288817000, 0.8773928428983737100 ) ) ;
#219 = DIRECTION ( 'NONE',  ( 0.0000000000000000000, 0.0000000000000000000, 1.000000000000000000 ) ) ;
#220 = CARTESIAN_POINT ( 'NONE',  ( -0.4202034775278714600, -0.4962669491288817000, 0.8773928428983737100 ) ) ;
#221 = DIRECTION ( 'NONE',  ( 0.0000000000000000000, 1.000000000000000000, 0.0000000000000000000 ) ) ;
#222 = CARTESIAN_POINT ( 'NONE',  ( -0.6538699064388299200, -0.4962669491288817000, 0.8523928428983738000 ) ) ;
#223 = CARTESIAN_POINT ( 'NONE',  ( -0.6538699064388299200, -0.9962669491288817000, 0.6643928428983737500 ) ) ;
#224 = APPLICATION_CONTEXT ( 'configuration controlled 3d designs of mechanical parts and assemblies' ) ;
#225 = APPLICATION_PROTOCOL_DEFINITION ( 'international standard', 'config_control_design', 1994, #224 ) ;
#226 = DIRECTION ( 'NONE',  ( -0.0000000000000000000, -1.000000000000000000, -0.0000000000000000000 ) ) ;
#227 = PERSON_AND_ORGANIZATION_ROLE ( 'design_owner' ) ;
#228 = CARTESIAN_POINT ( 'NONE',  ( -0.6538699064388299200, -0.4962669491288817000, 0.8523928428983738000 ) ) ;
#229 = DIRECTION ( 'NONE',  ( 0.0000000000000000000, 0.0000000000000000000, 1.000000000000000000 ) ) ;
#230 = CARTESIAN_POINT ( 'NONE',  ( -0.6538699064388299200, -0.9962669491288817000, 1.040392842898373700 ) ) ;
#231 = CARTESIAN_POINT ( 'NONE',  ( -0.6538699064388299200, -0.4962669491288817000, 0.6173928428983737100 ) ) ;
#232 = DIRECTION ( 'NONE',  ( -1.000000000000000000, -0.0000000000000000000, -1.803492283330608600E-016 ) ) ;
#233 = DIRECTION ( 'NONE',  ( -0.0000000000000000000, -1.000000000000000000, -0.0000000000000000000 ) ) ;
#234 = DIRECTION ( 'NONE',  ( 0.0000000000000000000, 0.0000000000000000000, 1.000000000000000000 ) ) ;
#235 = CARTESIAN_POINT ( 'NONE',  ( -0.6538699064388299200, -0.9962669491288817000, 0.8523928428983738000 ) ) ;
#236 = DIRECTION ( 'NONE',  ( 0.0000000000000000000, 1.000000000000000000, 0.0000000000000000000 ) ) ;
#237 = CARTESIAN_POINT ( 'NONE',  ( -0.6538699064388299200, -0.9962669491288817000, 1.087392842898373900 ) ) ;
#238 = CARTESIAN_POINT ( 'NONE',  ( -0.4202034775278714600, -0.9962669491288817000, 0.8273928428983737800 ) ) ;
#239 = CARTESIAN_POINT ( 'NONE',  ( -0.4202034775278714600, -0.9962669491288817000, 0.8273928428983737800 ) ) ;
#240 = CARTESIAN_POINT ( 'NONE',  ( -0.4202034775278714600, -0.4962669491288817000, 0.8273928428983737800 ) ) ;
#241 = CARTESIAN_POINT ( 'NONE',  ( -0.6538699064388299200, -0.4962669491288817000, 0.6643928428983737500 ) ) ;
#242 =( NAMED_UNIT ( * ) SI_UNIT ( $, .STERADIAN. ) SOLID_ANGLE_UNIT ( ) );
#243 = CARTESIAN_POINT ( 'NONE',  ( -0.4202034775278714600, -0.4962669491288817000, 0.8273928428983737800 ) ) ;
#244 = DIRECTION ( 'NONE',  ( -0.0000000000000000000, -1.000000000000000000, -0.0000000000000000000 ) ) ;
#245 = DIRECTION ( 'NONE',  ( 0.0000000000000000000, 0.0000000000000000000, 1.000000000000000000 ) ) ;
#246 = DIRECTION ( 'NONE',  ( 1.000000000000000000, 0.0000000000000000000, 0.0000000000000000000 ) ) ;
#247 = LINE ( 'NONE', #163, #52 ) ;
#248 = LINE ( 'NONE', #220, #63 ) ;
#249 = VERTEX_POINT ( 'NONE', #192 ) ;
#250 = LINE ( 'NONE', #210, #66 ) ;
#251 = ORIENTED_EDGE ( 'NONE', *, *, #29, .T. ) ;
#252 = FACE_OUTER_BOUND ( 'NONE', #295, .T. ) ;
#253 = EDGE_LOOP ( 'NONE', ( #312, #313, #311, #378 ) ) ;
#254 = ORIENTED_EDGE ( 'NONE', *, *, #20, .F. ) ;
#255 = LINE ( 'NONE', #187, #50 ) ;
#256 = FACE_OUTER_BOUND ( 'NONE', #309, .T. ) ;
#257 = LINE ( 'NONE', #240, #57 ) ;
#258 = LINE ( 'NONE', #188, #51 ) ;
#259 = LINE ( 'NONE', #148, #80 ) ;
#260 = LINE ( 'NONE', #239, #81 ) ;
#261 = CYLINDRICAL_SURFACE ( 'NONE', #100, 0.2350000000000001000 ) ;
#262 = VERTEX_POINT ( 'NONE', #211 ) ;
#263 = ORIENTED_EDGE ( 'NONE', *, *, #22, .F. ) ;
#264 = ORGANIZATION ( 'UNSPECIFIED', 'UNSPECIFIED', '' ) ;
#265 = SHAPE_DEFINITION_REPRESENTATION ( #110, #384 ) ;
#266 = PERSON_AND_ORGANIZATION ( #42, #264 ) ;
#267 = PERSON_AND_ORGANIZATION ( #42, #264 ) ;
#268 = COORDINATED_UNIVERSAL_TIME_OFFSET ( 5, 0, .BEHIND. ) ;
#269 = CALENDAR_DATE ( 2011, 28, 6 ) ;
#270 = APPROVAL_PERSON_ORGANIZATION ( #267, #82, #119 ) ;
#271 = DATE_AND_TIME ( #269, #36 ) ;
#272 = APPROVAL_DATE_TIME ( #271, #82 ) ;
#273 = COORDINATED_UNIVERSAL_TIME_OFFSET ( 5, 0, .BEHIND. ) ;
#274 = CALENDAR_DATE ( 2011, 28, 6 ) ;
#275 = PERSON_AND_ORGANIZATION ( #42, #264 ) ;
#276 = DATE_AND_TIME ( #274, #37 ) ;
#277 = PERSON_AND_ORGANIZATION ( #42, #264 ) ;
#278 = COORDINATED_UNIVERSAL_TIME_OFFSET ( 5, 0, .BEHIND. ) ;
#279 = CALENDAR_DATE ( 2011, 28, 6 ) ;
#280 = APPROVAL_PERSON_ORGANIZATION ( #277, #109, #120 ) ;
#281 = DATE_AND_TIME ( #279, #38 ) ;
#282 = APPROVAL_DATE_TIME ( #281, #109 ) ;
#283 = PERSON_AND_ORGANIZATION ( #42, #264 ) ;
#284 = PERSON_AND_ORGANIZATION ( #42, #264 ) ;
#285 = PERSON_AND_ORGANIZATION ( #42, #264 ) ;
#286 = COORDINATED_UNIVERSAL_TIME_OFFSET ( 5, 0, .BEHIND. ) ;
#287 = CALENDAR_DATE ( 2011, 28, 6 ) ;
#288 = PERSON_AND_ORGANIZATION ( #42, #264 ) ;
#289 = COORDINATED_UNIVERSAL_TIME_OFFSET ( 5, 0, .BEHIND. ) ;
#290 = DATE_AND_TIME ( #287, #39 ) ;
#291 = CALENDAR_DATE ( 2011, 28, 6 ) ;
#292 = APPROVAL_PERSON_ORGANIZATION ( #288, #76, #126 ) ;
#293 = DATE_AND_TIME ( #291, #40 ) ;
#294 = APPROVAL_DATE_TIME ( #293, #76 ) ;
#295 = EDGE_LOOP ( 'NONE', ( #326, #370, #298, #369, #299, #328, #335, #354 ) ) ;
#296 = VERTEX_POINT ( 'NONE', #213 ) ;
#297 = VERTEX_POINT ( 'NONE', #174 ) ;
#298 = ORIENTED_EDGE ( 'NONE', *, *, #17, .F. ) ;
#299 = ORIENTED_EDGE ( 'NONE', *, *, #32, .F. ) ;
#300 = CLOSED_SHELL ( 'NONE', ( #8, #9, #6, #7, #10, #2, #3, #5, #4, #1 ) ) ;
#301 = EDGE_LOOP ( 'NONE', ( #327, #347, #345, #348 ) ) ;
#302 = EDGE_LOOP ( 'NONE', ( #325, #350, #376, #329 ) ) ;
#303 = VERTEX_POINT ( 'NONE', #200 ) ;
#304 = ORIENTED_EDGE ( 'NONE', *, *, #33, .F. ) ;
#305 = ORIENTED_EDGE ( 'NONE', *, *, #30, .F. ) ;
#306 = EDGE_LOOP ( 'NONE', ( #342, #356, #323, #263 ) ) ;
#307 = EDGE_LOOP ( 'NONE', ( #353, #305, #304, #310 ) ) ;
#308 = EDGE_LOOP ( 'NONE', ( #351, #343, #341, #344 ) ) ;
#309 = EDGE_LOOP ( 'NONE', ( #254, #352, #358, #357 ) ) ;
#310 = ORIENTED_EDGE ( 'NONE', *, *, #19, .T. ) ;
#311 = ORIENTED_EDGE ( 'NONE', *, *, #30, .T. ) ;
#312 = ORIENTED_EDGE ( 'NONE', *, *, #14, .F. ) ;
#313 = ORIENTED_EDGE ( 'NONE', *, *, #23, .F. ) ;
#314 = FACE_OUTER_BOUND ( 'NONE', #308, .T. ) ;
#315 = FACE_OUTER_BOUND ( 'NONE', #253, .T. ) ;
#316 = FACE_OUTER_BOUND ( 'NONE', #302, .T. ) ;
#317 = FACE_OUTER_BOUND ( 'NONE', #307, .T. ) ;
#318 = EDGE_LOOP ( 'NONE', ( #324, #359, #346, #368 ) ) ;
#319 = FACE_OUTER_BOUND ( 'NONE', #318, .T. ) ;
#320 = CYLINDRICAL_SURFACE ( 'NONE', #94, 0.2350000000000001000 ) ;
#321 = CYLINDRICAL_SURFACE ( 'NONE', #102, 0.1880000000000000300 ) ;
#322 = FACE_OUTER_BOUND ( 'NONE', #380, .T. ) ;
#323 = ORIENTED_EDGE ( 'NONE', *, *, #17, .T. ) ;
#324 = ORIENTED_EDGE ( 'NONE', *, *, #21, .F. ) ;
#325 = ORIENTED_EDGE ( 'NONE', *, *, #34, .T. ) ;
#326 = ORIENTED_EDGE ( 'NONE', *, *, #31, .F. ) ;
#327 = ORIENTED_EDGE ( 'NONE', *, *, #28, .F. ) ;
#328 = ORIENTED_EDGE ( 'NONE', *, *, #24, .F. ) ;
#329 = ORIENTED_EDGE ( 'NONE', *, *, #22, .T. ) ;
#330 = VERTEX_POINT ( 'NONE', #230 ) ;
#331 = VERTEX_POINT ( 'NONE', #157 ) ;
#332 = VERTEX_POINT ( 'NONE', #140 ) ;
#333 = VERTEX_POINT ( 'NONE', #113 ) ;
#334 = VERTEX_POINT ( 'NONE', #241 ) ;
#335 = ORIENTED_EDGE ( 'NONE', *, *, #13, .F. ) ;
#336 = VERTEX_POINT ( 'NONE', #231 ) ;
#337 = VERTEX_POINT ( 'NONE', #150 ) ;
#338 = VERTEX_POINT ( 'NONE', #237 ) ;
#339 = VERTEX_POINT ( 'NONE', #154 ) ;
#340 = VERTEX_POINT ( 'NONE', #238 ) ;
#341 = ORIENTED_EDGE ( 'NONE', *, *, #13, .T. ) ;
#342 = ORIENTED_EDGE ( 'NONE', *, *, #18, .F. ) ;
#343 = ORIENTED_EDGE ( 'NONE', *, *, #21, .T. ) ;
#344 = ORIENTED_EDGE ( 'NONE', *, *, #19, .F. ) ;
#345 = ORIENTED_EDGE ( 'NONE', *, *, #26, .T. ) ;
#346 = ORIENTED_EDGE ( 'NONE', *, *, #28, .T. ) ;
#347 = ORIENTED_EDGE ( 'NONE', *, *, #27, .F. ) ;
#348 = ORIENTED_EDGE ( 'NONE', *, *, #31, .T. ) ;
#349 = VERTEX_POINT ( 'NONE', #223 ) ;
#350 = ORIENTED_EDGE ( 'NONE', *, *, #26, .F. ) ;
#351 = ORIENTED_EDGE ( 'NONE', *, *, #12, .F. ) ;
#352 = ORIENTED_EDGE ( 'NONE', *, *, #14, .T. ) ;
#353 = ORIENTED_EDGE ( 'NONE', *, *, #24, .T. ) ;
#354 = ORIENTED_EDGE ( 'NONE', *, *, #25, .F. ) ;
#355 = ORIENTED_EDGE ( 'NONE', *, *, #12, .T. ) ;
#356 = ORIENTED_EDGE ( 'NONE', *, *, #11, .T. ) ;
#357 = ORIENTED_EDGE ( 'NONE', *, *, #11, .F. ) ;
#358 = ORIENTED_EDGE ( 'NONE', *, *, #15, .T. ) ;
#359 = ORIENTED_EDGE ( 'NONE', *, *, #16, .F. ) ;
#360 = FACE_OUTER_BOUND ( 'NONE', #301, .T. ) ;
#361 = CYLINDRICAL_SURFACE ( 'NONE', #99, 0.2350000000000001000 ) ;
#362 = LINE ( 'NONE', #209, #97 ) ;
#363 = CYLINDRICAL_SURFACE ( 'NONE', #95, 0.1880000000000000300 ) ;
#364 = CYLINDRICAL_SURFACE ( 'NONE', #91, 0.1880000000000000300 ) ;
#365 = FACE_OUTER_BOUND ( 'NONE', #306, .T. ) ;
#366 = ORIENTED_EDGE ( 'NONE', *, *, #20, .T. ) ;
#367 = ORIENTED_EDGE ( 'NONE', *, *, #23, .T. ) ;
#368 = ORIENTED_EDGE ( 'NONE', *, *, #25, .T. ) ;
#369 = ORIENTED_EDGE ( 'NONE', *, *, #15, .F. ) ;
#370 = ORIENTED_EDGE ( 'NONE', *, *, #34, .F. ) ;
#371 = ORIENTED_EDGE ( 'NONE', *, *, #18, .T. ) ;
#372 = LINE ( 'NONE', #179, #67 ) ;
#373 = LINE ( 'NONE', #243, #49 ) ;
#374 = ORIENTED_EDGE ( 'NONE', *, *, #27, .T. ) ;
#375 = ORIENTED_EDGE ( 'NONE', *, *, #16, .T. ) ;
#376 = ORIENTED_EDGE ( 'NONE', *, *, #29, .F. ) ;
#377 = ORIENTED_EDGE ( 'NONE', *, *, #33, .T. ) ;
#378 = ORIENTED_EDGE ( 'NONE', *, *, #32, .T. ) ;
#379 = LINE ( 'NONE', #218, #70 ) ;
#380 = EDGE_LOOP ( 'NONE', ( #374, #375, #355, #377, #367, #366, #371, #251 ) ) ;
#381 = DESIGN_CONTEXT ( 'detailed design', #224, 'design' ) ;
#382 = DIMENSIONAL_EXPONENTS ( 1.000000000000000000, 0.0000000000000000000, 0.0000000000000000000, 0.0000000000000000000, 0.0000000000000000000, 0.0000000000000000000, 0.0000000000000000000 ) ;
#383 = MANIFOLD_SOLID_BREP ( '12616-001-1-solid1', #300 ) ;
#384 = ADVANCED_BREP_SHAPE_REPRESENTATION ( '12616-E0W', ( #383, #83 ), #35 ) ;
ENDSEC;
END-ISO-10303-21;
