ISO-10303-21;
HEADER;
FILE_DESCRIPTION (( 'STEP AP203' ),
    '1' );
FILE_NAME ('Web Model 87705_14811.step',
    '2020-10-07T17:41:13',
    ( '' ),
    ( '' ),
    'SwSTEP 2.0',
    'SolidWorks 2018',
    '' );
FILE_SCHEMA (( 'CONFIG_CONTROL_DESIGN' ));
ENDSEC;

DATA;
#1 = APPROVAL_DATE_TIME ( #39, #147 ) ;
#2 = ORIENTED_EDGE ( 'NONE', *, *, #91, .F. ) ;
#3 = CIRCLE ( 'NONE', #21, 37.50000000000000711 ) ;
#4 = AXIS2_PLACEMENT_3D ( 'NONE', #83, #125, #18 ) ;
#5 = VERTEX_POINT ( 'NONE', #152 ) ;
#6 = DIRECTION ( 'NONE',  ( -0.0000000000000000000, -0.0000000000000000000, -1.000000000000000000 ) ) ;
#7 = SECURITY_CLASSIFICATION_LEVEL ( 'unclassified' ) ;
#8 = MECHANICAL_CONTEXT ( 'NONE', #115, 'mechanical' ) ;
#9 = MANIFOLD_SOLID_BREP ( 'Extrude1', #139 ) ;
#10 = APPLICATION_PROTOCOL_DEFINITION ( 'international standard', 'config_control_design', 1994, #157 ) ;
#11 = COORDINATED_UNIVERSAL_TIME_OFFSET ( 5, 0, .BEHIND. ) ;
#12 = ORGANIZATION ( 'UNSPECIFIED', 'UNSPECIFIED', '' ) ;
#13 = CIRCLE ( 'NONE', #92, 37.50000000000000711 ) ;
#14 = APPROVAL_PERSON_ORGANIZATION ( #170, #77, #158 ) ;
#15 = PERSON_AND_ORGANIZATION ( #41, #12 ) ;
#16 = CARTESIAN_POINT ( 'NONE',  ( 0.0000000000000000000, 0.0000000000000000000, 5.000000000000000000 ) ) ;
#17 = AXIS2_PLACEMENT_3D ( 'NONE', #88, #141, #22 ) ;
#18 = DIRECTION ( 'NONE',  ( 1.000000000000000000, 0.0000000000000000000, 0.0000000000000000000 ) ) ;
#19 =( NAMED_UNIT ( * ) PLANE_ANGLE_UNIT ( ) SI_UNIT ( $, .RADIAN. ) );
#20 = DATE_AND_TIME ( #50, #102 ) ;
#21 = AXIS2_PLACEMENT_3D ( 'NONE', #56, #82, #150 ) ;
#22 = DIRECTION ( 'NONE',  ( 1.000000000000000000, 0.0000000000000000000, -0.0000000000000000000 ) ) ;
#23 = SHAPE_DEFINITION_REPRESENTATION ( #34, #106 ) ;
#24 = PERSON_AND_ORGANIZATION ( #41, #12 ) ;
#25 = EDGE_CURVE ( 'NONE', #5, #163, #13, .T. ) ;
#26 = APPROVAL_DATE_TIME ( #117, #77 ) ;
#27 = AXIS2_PLACEMENT_3D ( 'NONE', #61, #140, #49 ) ;
#28 = ADVANCED_FACE ( 'NONE', ( #52 ), #148, .T. ) ;
#29 = ORIENTED_EDGE ( 'NONE', *, *, #122, .T. ) ;
#30 = ADVANCED_FACE ( 'NONE', ( #123 ), #101, .F. ) ;
#31 = CARTESIAN_POINT ( 'NONE',  ( -37.50000000000000711, 0.0000000000000000000, 5.000000000000000000 ) ) ;
#32 = VECTOR ( 'NONE', #129, 1000.000000000000000 ) ;
#33 = PERSON_AND_ORGANIZATION_ROLE ( 'design_supplier' ) ;
#34 = PRODUCT_DEFINITION_SHAPE ( 'NONE', 'NONE',  #35 ) ;
#35 = PRODUCT_DEFINITION ( 'UNKNOWN', '', #124, #38 ) ;
#36 = EDGE_CURVE ( 'NONE', #175, #167, #134, .T. ) ;
#37 = ORIENTED_EDGE ( 'NONE', *, *, #100, .T. ) ;
#38 = DESIGN_CONTEXT ( 'detailed design', #157, 'design' ) ;
#39 = DATE_AND_TIME ( #107, #75 ) ;
#40 = ORIENTED_EDGE ( 'NONE', *, *, #91, .T. ) ;
#41 = PERSON ( 'UNSPECIFIED', 'UNSPECIFIED', 'UNSPECIFIED', ('UNSPECIFIED'), ('UNSPECIFIED'), ('UNSPECIFIED') ) ;
#42 = EDGE_LOOP ( 'NONE', ( #120, #37, #95, #128 ) ) ;
#43 = CIRCLE ( 'NONE', #4, 37.50000000000000711 ) ;
#44 = PERSON_AND_ORGANIZATION_ROLE ( 'design_owner' ) ;
#45 = AXIS2_PLACEMENT_3D ( 'NONE', #137, #169, #127 ) ;
#46 = CARTESIAN_POINT ( 'NONE',  ( -37.50000000000000711, 0.0000000000000000000, 0.0000000000000000000 ) ) ;
#47 =( NAMED_UNIT ( * ) SI_UNIT ( $, .STERADIAN. ) SOLID_ANGLE_UNIT ( ) );
#48 = ORIENTED_EDGE ( 'NONE', *, *, #62, .T. ) ;
#49 = DIRECTION ( 'NONE',  ( 1.000000000000000000, 0.0000000000000000000, 0.0000000000000000000 ) ) ;
#50 = CALENDAR_DATE ( 2020, 7, 10 ) ;
#51 =( GEOMETRIC_REPRESENTATION_CONTEXT ( 3 ) GLOBAL_UNCERTAINTY_ASSIGNED_CONTEXT ( ( #80 ) ) GLOBAL_UNIT_ASSIGNED_CONTEXT ( ( #130, #19, #47 ) ) REPRESENTATION_CONTEXT ( 'NONE', 'WORKASPACE' ) );
#52 = FACE_OUTER_BOUND ( 'NONE', #42, .T. ) ;
#53 = PRODUCT ( 'Web Model 87705_14811', 'Web Model 87705_14811', '', ( #8 ) ) ;
#54 = CARTESIAN_POINT ( 'NONE',  ( 0.0000000000000000000, 0.0000000000000000000, 0.0000000000000000000 ) ) ;
#55 = CC_DESIGN_DATE_AND_TIME_ASSIGNMENT ( #144, #138, ( #35 ) ) ;
#56 = CARTESIAN_POINT ( 'NONE',  ( 0.0000000000000000000, 0.0000000000000000000, 0.0000000000000000000 ) ) ;
#57 = APPROVAL_DATE_TIME ( #121, #96 ) ;
#58 = APPROVAL_STATUS ( 'not_yet_approved' ) ;
#59 = CALENDAR_DATE ( 2020, 7, 10 ) ;
#60 = PERSON_AND_ORGANIZATION_ROLE ( 'creator' ) ;
#61 = CARTESIAN_POINT ( 'NONE',  ( 0.0000000000000000000, 0.0000000000000000000, 0.0000000000000000000 ) ) ;
#62 = EDGE_CURVE ( 'NONE', #167, #175, #43, .T. ) ;
#63 = PERSON_AND_ORGANIZATION_ROLE ( 'classification_officer' ) ;
#64 = PERSON_AND_ORGANIZATION ( #41, #12 ) ;
#65 = LOCAL_TIME ( 13, 41, 13.00000000000000000, #126 ) ;
#66 = CC_DESIGN_DATE_AND_TIME_ASSIGNMENT ( #20, #114, ( #135 ) ) ;
#67 = COORDINATED_UNIVERSAL_TIME_OFFSET ( 5, 0, .BEHIND. ) ;
#68 = CC_DESIGN_PERSON_AND_ORGANIZATION_ASSIGNMENT ( #15, #44, ( #53 ) ) ;
#69 = DIRECTION ( 'NONE',  ( -0.0000000000000000000, -0.0000000000000000000, -1.000000000000000000 ) ) ;
#70 = DIRECTION ( 'NONE',  ( 0.0000000000000000000, 0.0000000000000000000, 1.000000000000000000 ) ) ;
#71 = CC_DESIGN_PERSON_AND_ORGANIZATION_ASSIGNMENT ( #89, #60, ( #35 ) ) ;
#72 = DIRECTION ( 'NONE',  ( 1.000000000000000000, 0.0000000000000000000, 0.0000000000000000000 ) ) ;
#73 = APPLICATION_PROTOCOL_DEFINITION ( 'international standard', 'config_control_design', 1994, #115 ) ;
#74 = CARTESIAN_POINT ( 'NONE',  ( 37.50000000000000711, 4.592425496802575156E-15, 5.000000000000000000 ) ) ;
#75 = LOCAL_TIME ( 13, 41, 13.00000000000000000, #166 ) ;
#76 = EDGE_LOOP ( 'NONE', ( #48, #118 ) ) ;
#77 = APPROVAL ( #159, 'UNSPECIFIED' ) ;
#78 = CC_DESIGN_APPROVAL ( #147, ( #124 ) ) ;
#79 = FACE_OUTER_BOUND ( 'NONE', #111, .T. ) ;
#80 = UNCERTAINTY_MEASURE_WITH_UNIT (LENGTH_MEASURE( 1.000000000000000082E-05 ), #130, 'distance_accuracy_value', 'NONE');
#81 = CYLINDRICAL_SURFACE ( 'NONE', #45, 37.50000000000000711 ) ;
#82 = DIRECTION ( 'NONE',  ( 0.0000000000000000000, 0.0000000000000000000, 1.000000000000000000 ) ) ;
#83 = CARTESIAN_POINT ( 'NONE',  ( 0.0000000000000000000, 0.0000000000000000000, 5.000000000000000000 ) ) ;
#84 = CARTESIAN_POINT ( 'NONE',  ( 0.0000000000000000000, 0.0000000000000000000, 0.0000000000000000000 ) ) ;
#85 = CARTESIAN_POINT ( 'NONE',  ( -37.50000000000000711, 0.0000000000000000000, 5.000000000000000000 ) ) ;
#86 = APPROVAL_ROLE ( '' ) ;
#87 = CC_DESIGN_APPROVAL ( #96, ( #135 ) ) ;
#88 = CARTESIAN_POINT ( 'NONE',  ( 0.0000000000000000000, 0.0000000000000000000, 5.000000000000000000 ) ) ;
#89 = PERSON_AND_ORGANIZATION ( #41, #12 ) ;
#90 = PLANE ( 'NONE',  #17 ) ;
#91 = EDGE_CURVE ( 'NONE', #163, #5, #3, .T. ) ;
#92 = AXIS2_PLACEMENT_3D ( 'NONE', #54, #172, #72 ) ;
#93 = APPROVAL_PERSON_ORGANIZATION ( #24, #147, #160 ) ;
#94 = PERSON_AND_ORGANIZATION ( #41, #12 ) ;
#95 = ORIENTED_EDGE ( 'NONE', *, *, #25, .T. ) ;
#96 = APPROVAL ( #156, 'UNSPECIFIED' ) ;
#97 = APPROVAL_PERSON_ORGANIZATION ( #64, #96, #86 ) ;
#98 = CC_DESIGN_SECURITY_CLASSIFICATION ( #135, ( #124 ) ) ;
#99 = LOCAL_TIME ( 13, 41, 13.00000000000000000, #11 ) ;
#100 = EDGE_CURVE ( 'NONE', #175, #5, #136, .T. ) ;
#101 = PLANE ( 'NONE',  #132 ) ;
#102 = LOCAL_TIME ( 13, 41, 13.00000000000000000, #67 ) ;
#103 = DIRECTION ( 'NONE',  ( 0.0000000000000000000, 0.0000000000000000000, 1.000000000000000000 ) ) ;
#104 = ORIENTED_EDGE ( 'NONE', *, *, #100, .F. ) ;
#105 = ADVANCED_FACE ( 'NONE', ( #79 ), #81, .T. ) ;
#106 = ADVANCED_BREP_SHAPE_REPRESENTATION ( 'Web Model 87705_14811', ( #9, #27 ), #51 ) ;
#107 = CALENDAR_DATE ( 2020, 7, 10 ) ;
#108 = PRODUCT_RELATED_PRODUCT_CATEGORY ( 'detail', '', ( #53 ) ) ;
#109 = LOCAL_TIME ( 13, 41, 13.00000000000000000, #143 ) ;
#110 = EDGE_LOOP ( 'NONE', ( #2, #131 ) ) ;
#111 = EDGE_LOOP ( 'NONE', ( #104, #154, #29, #40 ) ) ;
#112 = CARTESIAN_POINT ( 'NONE',  ( 37.50000000000000711, 4.592425496802575156E-15, 5.000000000000000000 ) ) ;
#113 = DIRECTION ( 'NONE',  ( 1.000000000000000000, 0.0000000000000000000, -0.0000000000000000000 ) ) ;
#114 = DATE_TIME_ROLE ( 'classification_date' ) ;
#115 = APPLICATION_CONTEXT ( 'configuration controlled 3d designs of mechanical parts and assemblies' ) ;
#116 = CC_DESIGN_PERSON_AND_ORGANIZATION_ASSIGNMENT ( #94, #33, ( #124 ) ) ;
#117 = DATE_AND_TIME ( #153, #65 ) ;
#118 = ORIENTED_EDGE ( 'NONE', *, *, #36, .T. ) ;
#119 = PERSON_AND_ORGANIZATION ( #41, #12 ) ;
#120 = ORIENTED_EDGE ( 'NONE', *, *, #36, .F. ) ;
#121 = DATE_AND_TIME ( #162, #109 ) ;
#122 = EDGE_CURVE ( 'NONE', #167, #163, #161, .T. ) ;
#123 = FACE_OUTER_BOUND ( 'NONE', #110, .T. ) ;
#124 = PRODUCT_DEFINITION_FORMATION_WITH_SPECIFIED_SOURCE ( 'ANY', '', #53, .NOT_KNOWN. ) ;
#125 = DIRECTION ( 'NONE',  ( 0.0000000000000000000, 0.0000000000000000000, 1.000000000000000000 ) ) ;
#126 = COORDINATED_UNIVERSAL_TIME_OFFSET ( 5, 0, .BEHIND. ) ;
#127 = DIRECTION ( 'NONE',  ( -1.000000000000000000, 0.0000000000000000000, 0.0000000000000000000 ) ) ;
#128 = ORIENTED_EDGE ( 'NONE', *, *, #122, .F. ) ;
#129 = DIRECTION ( 'NONE',  ( -0.0000000000000000000, -0.0000000000000000000, -1.000000000000000000 ) ) ;
#130 =( LENGTH_UNIT ( ) NAMED_UNIT ( * ) SI_UNIT ( .MILLI., .METRE. ) );
#131 = ORIENTED_EDGE ( 'NONE', *, *, #25, .F. ) ;
#132 = AXIS2_PLACEMENT_3D ( 'NONE', #84, #103, #113 ) ;
#133 = CC_DESIGN_APPROVAL ( #77, ( #35 ) ) ;
#134 = CIRCLE ( 'NONE', #164, 37.50000000000000711 ) ;
#135 = SECURITY_CLASSIFICATION ( '', '', #7 ) ;
#136 = LINE ( 'NONE', #112, #165 ) ;
#137 = CARTESIAN_POINT ( 'NONE',  ( 0.0000000000000000000, 0.0000000000000000000, 5.000000000000000000 ) ) ;
#138 = DATE_TIME_ROLE ( 'creation_date' ) ;
#139 = CLOSED_SHELL ( 'NONE', ( #28, #105, #151, #30 ) ) ;
#140 = DIRECTION ( 'NONE',  ( 0.0000000000000000000, 0.0000000000000000000, 1.000000000000000000 ) ) ;
#141 = DIRECTION ( 'NONE',  ( 0.0000000000000000000, 0.0000000000000000000, 1.000000000000000000 ) ) ;
#142 = PERSON_AND_ORGANIZATION_ROLE ( 'creator' ) ;
#143 = COORDINATED_UNIVERSAL_TIME_OFFSET ( 5, 0, .BEHIND. ) ;
#144 = DATE_AND_TIME ( #59, #99 ) ;
#145 = AXIS2_PLACEMENT_3D ( 'NONE', #16, #6, #171 ) ;
#146 = PERSON_AND_ORGANIZATION ( #41, #12 ) ;
#147 = APPROVAL ( #58, 'UNSPECIFIED' ) ;
#148 = CYLINDRICAL_SURFACE ( 'NONE', #145, 37.50000000000000711 ) ;
#149 = CARTESIAN_POINT ( 'NONE',  ( 0.0000000000000000000, 0.0000000000000000000, 5.000000000000000000 ) ) ;
#150 = DIRECTION ( 'NONE',  ( 1.000000000000000000, 0.0000000000000000000, 0.0000000000000000000 ) ) ;
#151 = ADVANCED_FACE ( 'NONE', ( #173 ), #90, .T. ) ;
#152 = CARTESIAN_POINT ( 'NONE',  ( 37.50000000000000711, 4.592425496802575156E-15, 0.0000000000000000000 ) ) ;
#153 = CALENDAR_DATE ( 2020, 7, 10 ) ;
#154 = ORIENTED_EDGE ( 'NONE', *, *, #62, .F. ) ;
#155 = CC_DESIGN_PERSON_AND_ORGANIZATION_ASSIGNMENT ( #146, #63, ( #135 ) ) ;
#156 = APPROVAL_STATUS ( 'not_yet_approved' ) ;
#157 = APPLICATION_CONTEXT ( 'configuration controlled 3d designs of mechanical parts and assemblies' ) ;
#158 = APPROVAL_ROLE ( '' ) ;
#159 = APPROVAL_STATUS ( 'not_yet_approved' ) ;
#160 = APPROVAL_ROLE ( '' ) ;
#161 = LINE ( 'NONE', #85, #32 ) ;
#162 = CALENDAR_DATE ( 2020, 7, 10 ) ;
#163 = VERTEX_POINT ( 'NONE', #46 ) ;
#164 = AXIS2_PLACEMENT_3D ( 'NONE', #149, #70, #168 ) ;
#165 = VECTOR ( 'NONE', #69, 1000.000000000000000 ) ;
#166 = COORDINATED_UNIVERSAL_TIME_OFFSET ( 5, 0, .BEHIND. ) ;
#167 = VERTEX_POINT ( 'NONE', #31 ) ;
#168 = DIRECTION ( 'NONE',  ( 1.000000000000000000, 0.0000000000000000000, 0.0000000000000000000 ) ) ;
#169 = DIRECTION ( 'NONE',  ( -0.0000000000000000000, -0.0000000000000000000, -1.000000000000000000 ) ) ;
#170 = PERSON_AND_ORGANIZATION ( #41, #12 ) ;
#171 = DIRECTION ( 'NONE',  ( -1.000000000000000000, 0.0000000000000000000, 0.0000000000000000000 ) ) ;
#172 = DIRECTION ( 'NONE',  ( 0.0000000000000000000, 0.0000000000000000000, 1.000000000000000000 ) ) ;
#173 = FACE_OUTER_BOUND ( 'NONE', #76, .T. ) ;
#174 = CC_DESIGN_PERSON_AND_ORGANIZATION_ASSIGNMENT ( #119, #142, ( #124 ) ) ;
#175 = VERTEX_POINT ( 'NONE', #74 ) ;
ENDSEC;
END-ISO-10303-21;
