ISO-10303-21;
HEADER;
FILE_DESCRIPTION (( 'STEP AP203' ),
    '1' );
FILE_NAME ('Web Model 19837_19862.step',
    '2022-04-06T15:04:58',
    ( 'WC' ),
    ( 'Windows Central' ),
    'SwSTEP 2.0',
    'SolidWorks 2021',
    '' );
FILE_SCHEMA (( 'CONFIG_CONTROL_DESIGN' ));
ENDSEC;

DATA;
#1 = PERSON_AND_ORGANIZATION ( #51, #60 ) ;
#2 = AXIS2_PLACEMENT_3D ( 'NONE', #81, #5, #139 ) ;
#3 = EDGE_LOOP ( 'NONE', ( #48, #87 ) ) ;
#4 = PERSON_AND_ORGANIZATION_ROLE ( 'creator' ) ;
#5 = DIRECTION ( 'NONE',  ( -0.000000000000000000, -0.000000000000000000, -1.000000000000000000 ) ) ;
#6 = PERSON_AND_ORGANIZATION_ROLE ( 'design_owner' ) ;
#7 = APPROVAL_DATE_TIME ( #121, #93 ) ;
#8 = EDGE_CURVE ( 'NONE', #84, #73, #17, .T. ) ;
#9 = LOCAL_TIME ( 11, 4, 58.00000000000000000, #14 ) ;
#10 = PRODUCT_RELATED_PRODUCT_CATEGORY ( 'detail', '', ( #35 ) ) ;
#11 = CALENDAR_DATE ( 2022, 6, 4 ) ;
#12 = SHAPE_DEFINITION_REPRESENTATION ( #20, #74 ) ;
#13 = ORIENTED_EDGE ( 'NONE', *, *, #170, .T. ) ;
#14 = COORDINATED_UNIVERSAL_TIME_OFFSET ( 5, 0, .BEHIND. ) ;
#15 = CARTESIAN_POINT ( 'NONE',  ( 0.000000000000000000, 0.000000000000000000, 0.000000000000000000 ) ) ;
#16 =( NAMED_UNIT ( * ) SI_UNIT ( $, .STERADIAN. ) SOLID_ANGLE_UNIT ( ) );
#17 = CIRCLE ( 'NONE', #89, 12.50000000000000000 ) ;
#18 = DIRECTION ( 'NONE',  ( 0.000000000000000000, 0.000000000000000000, 1.000000000000000000 ) ) ;
#19 = CIRCLE ( 'NONE', #143, 12.50000000000000000 ) ;
#20 = PRODUCT_DEFINITION_SHAPE ( 'NONE', 'NONE',  #172 ) ;
#21 = LOCAL_TIME ( 11, 4, 58.00000000000000000, #58 ) ;
#22 = DIRECTION ( 'NONE',  ( -0.000000000000000000, -0.000000000000000000, -1.000000000000000000 ) ) ;
#23 = ORIENTED_EDGE ( 'NONE', *, *, #24, .T. ) ;
#24 = EDGE_CURVE ( 'NONE', #73, #39, #144, .T. ) ;
#25 = APPROVAL_DATE_TIME ( #90, #63 ) ;
#26 = APPROVAL_STATUS ( 'not_yet_approved' ) ;
#27 = CIRCLE ( 'NONE', #106, 12.50000000000000000 ) ;
#28 = CARTESIAN_POINT ( 'NONE',  ( -12.50000000000000000, 0.000000000000000000, 0.000000000000000000 ) ) ;
#29 = DATE_TIME_ROLE ( 'creation_date' ) ;
#30 = APPLICATION_CONTEXT ( 'configuration controlled 3d designs of mechanical parts and assemblies' ) ;
#31 = DIRECTION ( 'NONE',  ( 1.000000000000000000, 0.000000000000000000, -0.000000000000000000 ) ) ;
#32 = CARTESIAN_POINT ( 'NONE',  ( 0.000000000000000000, 0.000000000000000000, 0.000000000000000000 ) ) ;
#33 = LOCAL_TIME ( 11, 4, 58.00000000000000000, #146 ) ;
#34 = ORIENTED_EDGE ( 'NONE', *, *, #8, .T. ) ;
#35 = PRODUCT ( 'Web Model 19837_19862', 'Web Model 19837_19862', '', ( #153 ) ) ;
#36 = APPROVAL_PERSON_ORGANIZATION ( #80, #93, #155 ) ;
#37 = DIRECTION ( 'NONE',  ( 0.000000000000000000, 0.000000000000000000, 1.000000000000000000 ) ) ;
#38 = CALENDAR_DATE ( 2022, 6, 4 ) ;
#39 = VERTEX_POINT ( 'NONE', #62 ) ;
#40 = SECURITY_CLASSIFICATION_LEVEL ( 'unclassified' ) ;
#41 = CARTESIAN_POINT ( 'NONE',  ( 0.000000000000000000, 0.000000000000000000, 4.000000000000000000 ) ) ;
#42 = CARTESIAN_POINT ( 'NONE',  ( 0.000000000000000000, 0.000000000000000000, 0.000000000000000000 ) ) ;
#43 = CALENDAR_DATE ( 2022, 6, 4 ) ;
#44 = DIRECTION ( 'NONE',  ( -1.000000000000000000, 0.000000000000000000, 0.000000000000000000 ) ) ;
#45 = CC_DESIGN_PERSON_AND_ORGANIZATION_ASSIGNMENT ( #107, #4, ( #173 ) ) ;
#46 = DATE_AND_TIME ( #110, #161 ) ;
#47 = APPLICATION_CONTEXT ( 'configuration controlled 3d designs of mechanical parts and assemblies' ) ;
#48 = ORIENTED_EDGE ( 'NONE', *, *, #101, .F. ) ;
#49 = CC_DESIGN_APPROVAL ( #93, ( #172 ) ) ;
#50 = CARTESIAN_POINT ( 'NONE',  ( -12.50000000000000000, 0.000000000000000000, 4.000000000000000000 ) ) ;
#51 = PERSON ( 'UNSPECIFIED', 'UNSPECIFIED', 'UNSPECIFIED', ('UNSPECIFIED'), ('UNSPECIFIED'), ('UNSPECIFIED') ) ;
#52 =( GEOMETRIC_REPRESENTATION_CONTEXT ( 3 ) GLOBAL_UNCERTAINTY_ASSIGNED_CONTEXT ( ( #115 ) ) GLOBAL_UNIT_ASSIGNED_CONTEXT ( ( #77, #167, #16 ) ) REPRESENTATION_CONTEXT ( 'NONE', 'WORKASPACE' ) );
#53 = CARTESIAN_POINT ( 'NONE',  ( -12.50000000000000000, 0.000000000000000000, 4.000000000000000000 ) ) ;
#54 = PERSON_AND_ORGANIZATION ( #51, #60 ) ;
#55 = DIRECTION ( 'NONE',  ( -0.000000000000000000, -0.000000000000000000, -1.000000000000000000 ) ) ;
#56 = PERSON_AND_ORGANIZATION_ROLE ( 'creator' ) ;
#57 = APPROVAL ( #26, 'UNSPECIFIED' ) ;
#58 = COORDINATED_UNIVERSAL_TIME_OFFSET ( 5, 0, .BEHIND. ) ;
#59 = EDGE_CURVE ( 'NONE', #84, #174, #119, .T. ) ;
#60 = ORGANIZATION ( 'UNSPECIFIED', 'UNSPECIFIED', '' ) ;
#61 = ORIENTED_EDGE ( 'NONE', *, *, #59, .T. ) ;
#62 = CARTESIAN_POINT ( 'NONE',  ( 12.50000000000000000, 1.530808498934191521E-15, 0.000000000000000000 ) ) ;
#63 = APPROVAL ( #162, 'UNSPECIFIED' ) ;
#64 = CC_DESIGN_APPROVAL ( #63, ( #82 ) ) ;
#65 = DATE_AND_TIME ( #43, #33 ) ;
#66 = PERSON_AND_ORGANIZATION_ROLE ( 'design_supplier' ) ;
#67 = DIRECTION ( 'NONE',  ( 1.000000000000000000, 0.000000000000000000, 0.000000000000000000 ) ) ;
#68 = PERSON_AND_ORGANIZATION ( #51, #60 ) ;
#69 = FACE_OUTER_BOUND ( 'NONE', #3, .T. ) ;
#70 = PLANE ( 'NONE',  #117 ) ;
#71 = AXIS2_PLACEMENT_3D ( 'NONE', #108, #140, #92 ) ;
#72 = CC_DESIGN_DATE_AND_TIME_ASSIGNMENT ( #46, #29, ( #172 ) ) ;
#73 = VERTEX_POINT ( 'NONE', #124 ) ;
#74 = ADVANCED_BREP_SHAPE_REPRESENTATION ( 'Web Model 19837_19862', ( #129, #71 ), #52 ) ;
#75 = CARTESIAN_POINT ( 'NONE',  ( 12.50000000000000000, 1.530808498934191521E-15, 4.000000000000000000 ) ) ;
#76 = CC_DESIGN_APPROVAL ( #57, ( #173 ) ) ;
#77 =( LENGTH_UNIT ( ) NAMED_UNIT ( * ) SI_UNIT ( .MILLI., .METRE. ) );
#78 = APPLICATION_PROTOCOL_DEFINITION ( 'international standard', 'config_control_design', 1994, #47 ) ;
#79 = CYLINDRICAL_SURFACE ( 'NONE', #2, 12.50000000000000000 ) ;
#80 = PERSON_AND_ORGANIZATION ( #51, #60 ) ;
#81 = CARTESIAN_POINT ( 'NONE',  ( 0.000000000000000000, 0.000000000000000000, 4.000000000000000000 ) ) ;
#82 = SECURITY_CLASSIFICATION ( '', '', #40 ) ;
#83 = CARTESIAN_POINT ( 'NONE',  ( 0.000000000000000000, 0.000000000000000000, 4.000000000000000000 ) ) ;
#84 = VERTEX_POINT ( 'NONE', #50 ) ;
#85 = APPROVAL_PERSON_ORGANIZATION ( #1, #63, #97 ) ;
#86 = ORIENTED_EDGE ( 'NONE', *, *, #101, .T. ) ;
#87 = ORIENTED_EDGE ( 'NONE', *, *, #170, .F. ) ;
#88 = ADVANCED_FACE ( 'NONE', ( #104 ), #91, .T. ) ;
#89 = AXIS2_PLACEMENT_3D ( 'NONE', #83, #37, #67 ) ;
#90 = DATE_AND_TIME ( #38, #9 ) ;
#91 = CYLINDRICAL_SURFACE ( 'NONE', #132, 12.50000000000000000 ) ;
#92 = DIRECTION ( 'NONE',  ( 1.000000000000000000, 0.000000000000000000, 0.000000000000000000 ) ) ;
#93 = APPROVAL ( #123, 'UNSPECIFIED' ) ;
#94 = CARTESIAN_POINT ( 'NONE',  ( 0.000000000000000000, 0.000000000000000000, 4.000000000000000000 ) ) ;
#95 = CALENDAR_DATE ( 2022, 6, 4 ) ;
#96 = DIRECTION ( 'NONE',  ( 1.000000000000000000, 0.000000000000000000, 0.000000000000000000 ) ) ;
#97 = APPROVAL_ROLE ( '' ) ;
#98 = PLANE ( 'NONE',  #112 ) ;
#99 = PERSON_AND_ORGANIZATION_ROLE ( 'classification_officer' ) ;
#100 = CC_DESIGN_SECURITY_CLASSIFICATION ( #82, ( #173 ) ) ;
#101 = EDGE_CURVE ( 'NONE', #174, #39, #19, .T. ) ;
#102 = VECTOR ( 'NONE', #22, 1000.000000000000000 ) ;
#103 = CIRCLE ( 'NONE', #156, 12.50000000000000000 ) ;
#104 = FACE_OUTER_BOUND ( 'NONE', #130, .T. ) ;
#105 = CC_DESIGN_PERSON_AND_ORGANIZATION_ASSIGNMENT ( #54, #56, ( #172 ) ) ;
#106 = AXIS2_PLACEMENT_3D ( 'NONE', #15, #18, #148 ) ;
#107 = PERSON_AND_ORGANIZATION ( #51, #60 ) ;
#108 = CARTESIAN_POINT ( 'NONE',  ( 0.000000000000000000, 0.000000000000000000, 0.000000000000000000 ) ) ;
#109 = ORIENTED_EDGE ( 'NONE', *, *, #131, .T. ) ;
#110 = CALENDAR_DATE ( 2022, 6, 4 ) ;
#111 = CARTESIAN_POINT ( 'NONE',  ( 0.000000000000000000, 0.000000000000000000, 4.000000000000000000 ) ) ;
#112 = AXIS2_PLACEMENT_3D ( 'NONE', #41, #150, #31 ) ;
#113 = PERSON_AND_ORGANIZATION ( #51, #60 ) ;
#114 = DATE_AND_TIME ( #11, #21 ) ;
#115 = UNCERTAINTY_MEASURE_WITH_UNIT (LENGTH_MEASURE( 1.000000000000000082E-05 ), #77, 'distance_accuracy_value', 'NONE');
#116 = CLOSED_SHELL ( 'NONE', ( #157, #88, #149, #128 ) ) ;
#117 = AXIS2_PLACEMENT_3D ( 'NONE', #42, #126, #125 ) ;
#118 = ORIENTED_EDGE ( 'NONE', *, *, #131, .F. ) ;
#119 = LINE ( 'NONE', #53, #134 ) ;
#120 = LOCAL_TIME ( 11, 4, 58.00000000000000000, #138 ) ;
#121 = DATE_AND_TIME ( #95, #120 ) ;
#122 = ORIENTED_EDGE ( 'NONE', *, *, #59, .F. ) ;
#123 = APPROVAL_STATUS ( 'not_yet_approved' ) ;
#124 = CARTESIAN_POINT ( 'NONE',  ( 12.50000000000000000, 1.530808498934191521E-15, 4.000000000000000000 ) ) ;
#125 = DIRECTION ( 'NONE',  ( 1.000000000000000000, 0.000000000000000000, -0.000000000000000000 ) ) ;
#126 = DIRECTION ( 'NONE',  ( 0.000000000000000000, 0.000000000000000000, 1.000000000000000000 ) ) ;
#127 = APPROVAL_ROLE ( '' ) ;
#128 = ADVANCED_FACE ( 'NONE', ( #69 ), #70, .F. ) ;
#129 = MANIFOLD_SOLID_BREP ( 'Boss-Extrude1', #116 ) ;
#130 = EDGE_LOOP ( 'NONE', ( #145, #159, #61, #86 ) ) ;
#131 = EDGE_CURVE ( 'NONE', #73, #84, #103, .T. ) ;
#132 = AXIS2_PLACEMENT_3D ( 'NONE', #111, #55, #44 ) ;
#133 = COORDINATED_UNIVERSAL_TIME_OFFSET ( 5, 0, .BEHIND. ) ;
#134 = VECTOR ( 'NONE', #175, 1000.000000000000000 ) ;
#135 = EDGE_LOOP ( 'NONE', ( #118, #23, #13, #122 ) ) ;
#136 = DATE_TIME_ROLE ( 'classification_date' ) ;
#137 = DIRECTION ( 'NONE',  ( 1.000000000000000000, 0.000000000000000000, 0.000000000000000000 ) ) ;
#138 = COORDINATED_UNIVERSAL_TIME_OFFSET ( 5, 0, .BEHIND. ) ;
#139 = DIRECTION ( 'NONE',  ( -1.000000000000000000, 0.000000000000000000, 0.000000000000000000 ) ) ;
#140 = DIRECTION ( 'NONE',  ( 0.000000000000000000, 0.000000000000000000, 1.000000000000000000 ) ) ;
#141 = DIRECTION ( 'NONE',  ( 0.000000000000000000, 0.000000000000000000, 1.000000000000000000 ) ) ;
#142 = DESIGN_CONTEXT ( 'detailed design', #30, 'design' ) ;
#143 = AXIS2_PLACEMENT_3D ( 'NONE', #32, #165, #96 ) ;
#144 = LINE ( 'NONE', #75, #102 ) ;
#145 = ORIENTED_EDGE ( 'NONE', *, *, #24, .F. ) ;
#146 = COORDINATED_UNIVERSAL_TIME_OFFSET ( 5, 0, .BEHIND. ) ;
#147 = APPLICATION_PROTOCOL_DEFINITION ( 'international standard', 'config_control_design', 1994, #30 ) ;
#148 = DIRECTION ( 'NONE',  ( 1.000000000000000000, 0.000000000000000000, 0.000000000000000000 ) ) ;
#149 = ADVANCED_FACE ( 'NONE', ( #154 ), #98, .T. ) ;
#150 = DIRECTION ( 'NONE',  ( 0.000000000000000000, 0.000000000000000000, 1.000000000000000000 ) ) ;
#151 = CC_DESIGN_PERSON_AND_ORGANIZATION_ASSIGNMENT ( #163, #66, ( #173 ) ) ;
#152 = CC_DESIGN_PERSON_AND_ORGANIZATION_ASSIGNMENT ( #68, #6, ( #35 ) ) ;
#153 = MECHANICAL_CONTEXT ( 'NONE', #47, 'mechanical' ) ;
#154 = FACE_OUTER_BOUND ( 'NONE', #160, .T. ) ;
#155 = APPROVAL_ROLE ( '' ) ;
#156 = AXIS2_PLACEMENT_3D ( 'NONE', #94, #141, #137 ) ;
#157 = ADVANCED_FACE ( 'NONE', ( #164 ), #79, .T. ) ;
#158 = CC_DESIGN_PERSON_AND_ORGANIZATION_ASSIGNMENT ( #168, #99, ( #82 ) ) ;
#159 = ORIENTED_EDGE ( 'NONE', *, *, #8, .F. ) ;
#160 = EDGE_LOOP ( 'NONE', ( #34, #109 ) ) ;
#161 = LOCAL_TIME ( 11, 4, 58.00000000000000000, #133 ) ;
#162 = APPROVAL_STATUS ( 'not_yet_approved' ) ;
#163 = PERSON_AND_ORGANIZATION ( #51, #60 ) ;
#164 = FACE_OUTER_BOUND ( 'NONE', #135, .T. ) ;
#165 = DIRECTION ( 'NONE',  ( 0.000000000000000000, 0.000000000000000000, 1.000000000000000000 ) ) ;
#166 = APPROVAL_DATE_TIME ( #114, #57 ) ;
#167 =( NAMED_UNIT ( * ) PLANE_ANGLE_UNIT ( ) SI_UNIT ( $, .RADIAN. ) );
#168 = PERSON_AND_ORGANIZATION ( #51, #60 ) ;
#169 = APPROVAL_PERSON_ORGANIZATION ( #113, #57, #127 ) ;
#170 = EDGE_CURVE ( 'NONE', #39, #174, #27, .T. ) ;
#171 = CC_DESIGN_DATE_AND_TIME_ASSIGNMENT ( #65, #136, ( #82 ) ) ;
#172 = PRODUCT_DEFINITION ( 'UNKNOWN', '', #173, #142 ) ;
#173 = PRODUCT_DEFINITION_FORMATION_WITH_SPECIFIED_SOURCE ( 'ANY', '', #35, .NOT_KNOWN. ) ;
#174 = VERTEX_POINT ( 'NONE', #28 ) ;
#175 = DIRECTION ( 'NONE',  ( -0.000000000000000000, -0.000000000000000000, -1.000000000000000000 ) ) ;
ENDSEC;
END-ISO-10303-21;
