ISO-10303-21;
HEADER;
FILE_DESCRIPTION (( 'STEP AP203' ),
    '1' );
FILE_NAME ('Web Model Lightsmyth Gratings_16869.step',
    '2021-03-11T20:26:07',
    ( '' ),
    ( '' ),
    'SwSTEP 2.0',
    'SolidWorks 2018',
    '' );
FILE_SCHEMA (( 'CONFIG_CONTROL_DESIGN' ));
ENDSEC;

DATA;
#1 = VECTOR ( 'NONE', #220, 1000.000000000000000 ) ;
#2 = CARTESIAN_POINT ( 'NONE',  ( 0.0000000000000000000, 0.0000000000000000000, 0.9499999999999999556 ) ) ;
#3 = CALENDAR_DATE ( 2021, 11, 3 ) ;
#4 = DIRECTION ( 'NONE',  ( 0.0000000000000000000, -0.0000000000000000000, -1.000000000000000000 ) ) ;
#5 = CC_DESIGN_DATE_AND_TIME_ASSIGNMENT ( #193, #166, ( #184 ) ) ;
#6 = PERSON_AND_ORGANIZATION_ROLE ( 'classification_officer' ) ;
#7 = VECTOR ( 'NONE', #12, 1000.000000000000000 ) ;
#8 = PERSON_AND_ORGANIZATION ( #235, #13 ) ;
#9 = ORIENTED_EDGE ( 'NONE', *, *, #182, .F. ) ;
#10 = EDGE_CURVE ( 'NONE', #44, #67, #140, .T. ) ;
#11 = PERSON_AND_ORGANIZATION ( #235, #13 ) ;
#12 = DIRECTION ( 'NONE',  ( -0.0000000000000000000, -0.0000000000000000000, -1.000000000000000000 ) ) ;
#13 = ORGANIZATION ( 'UNSPECIFIED', 'UNSPECIFIED', '' ) ;
#14 = EDGE_CURVE ( 'NONE', #98, #230, #110, .T. ) ;
#15 = ORIENTED_EDGE ( 'NONE', *, *, #101, .T. ) ;
#16 = CARTESIAN_POINT ( 'NONE',  ( -15.89999999999999680, 6.150000000000001243, 0.9499999999999999556 ) ) ;
#17 = PERSON_AND_ORGANIZATION ( #235, #13 ) ;
#18 = ORIENTED_EDGE ( 'NONE', *, *, #73, .T. ) ;
#19 = DIRECTION ( 'NONE',  ( -0.0000000000000000000, -0.0000000000000000000, -1.000000000000000000 ) ) ;
#20 = APPLICATION_PROTOCOL_DEFINITION ( 'international standard', 'config_control_design', 1994, #119 ) ;
#21 = EDGE_CURVE ( 'NONE', #158, #86, #77, .T. ) ;
#22 = PLANE ( 'NONE',  #42 ) ;
#23 = ORIENTED_EDGE ( 'NONE', *, *, #21, .F. ) ;
#24 = COORDINATED_UNIVERSAL_TIME_OFFSET ( 5, 0, .BEHIND. ) ;
#25 = EDGE_LOOP ( 'NONE', ( #52, #9, #26, #41 ) ) ;
#26 = ORIENTED_EDGE ( 'NONE', *, *, #63, .F. ) ;
#27 = COORDINATED_UNIVERSAL_TIME_OFFSET ( 5, 0, .BEHIND. ) ;
#28 = ORIENTED_EDGE ( 'NONE', *, *, #173, .T. ) ;
#29 = DIRECTION ( 'NONE',  ( 0.0000000000000000000, 0.0000000000000000000, -1.000000000000000000 ) ) ;
#30 = CARTESIAN_POINT ( 'NONE',  ( -15.89999999999999680, -6.149999999999999467, 0.9499999999999999556 ) ) ;
#31 = ADVANCED_FACE ( 'NONE', ( #148 ), #143, .F. ) ;
#32 = CARTESIAN_POINT ( 'NONE',  ( 0.0000000000000000000, 0.0000000000000000000, 0.0000000000000000000 ) ) ;
#33 = CARTESIAN_POINT ( 'NONE',  ( 15.90000000000000391, -6.149999999999999467, 0.9499999999999999556 ) ) ;
#34 = EDGE_CURVE ( 'NONE', #230, #181, #105, .T. ) ;
#35 = PLANE ( 'NONE',  #80 ) ;
#36 = ORIENTED_EDGE ( 'NONE', *, *, #108, .F. ) ;
#37 = APPROVAL_ROLE ( '' ) ;
#38 = AXIS2_PLACEMENT_3D ( 'NONE', #32, #170, #208 ) ;
#39 = CARTESIAN_POINT ( 'NONE',  ( 15.90000000000000391, 6.150000000000001243, 0.9499999999999999556 ) ) ;
#40 = FACE_OUTER_BOUND ( 'NONE', #127, .T. ) ;
#41 = ORIENTED_EDGE ( 'NONE', *, *, #154, .T. ) ;
#42 = AXIS2_PLACEMENT_3D ( 'NONE', #74, #118, #4 ) ;
#43 = COORDINATED_UNIVERSAL_TIME_OFFSET ( 5, 0, .BEHIND. ) ;
#44 = VERTEX_POINT ( 'NONE', #89 ) ;
#45 = PRODUCT ( 'Web Model Lightsmyth Gratings_16869', 'Web Model Lightsmyth Gratings_16869', '', ( #94 ) ) ;
#46 = APPROVAL_PERSON_ORGANIZATION ( #222, #151, #37 ) ;
#47 = VECTOR ( 'NONE', #111, 1000.000000000000000 ) ;
#48 = CARTESIAN_POINT ( 'NONE',  ( -15.89999999999999680, -6.149999999999999467, 0.9499999999999999556 ) ) ;
#49 = EDGE_CURVE ( 'NONE', #86, #44, #83, .T. ) ;
#50 = CALENDAR_DATE ( 2021, 11, 3 ) ;
#51 = LOCAL_TIME ( 15, 26, 7.000000000000000000, #121 ) ;
#52 = ORIENTED_EDGE ( 'NONE', *, *, #49, .T. ) ;
#53 = PLANE ( 'NONE',  #132 ) ;
#54 =( NAMED_UNIT ( * ) PLANE_ANGLE_UNIT ( ) SI_UNIT ( $, .RADIAN. ) );
#55 = APPROVAL_STATUS ( 'not_yet_approved' ) ;
#56 = COORDINATED_UNIVERSAL_TIME_OFFSET ( 5, 0, .BEHIND. ) ;
#57 = PRODUCT_DEFINITION_FORMATION_WITH_SPECIFIED_SOURCE ( 'ANY', '', #45, .NOT_KNOWN. ) ;
#58 = ORIENTED_EDGE ( 'NONE', *, *, #34, .F. ) ;
#59 = AXIS2_PLACEMENT_3D ( 'NONE', #163, #29, #201 ) ;
#60 = PRODUCT_RELATED_PRODUCT_CATEGORY ( 'detail', '', ( #45 ) ) ;
#61 = CARTESIAN_POINT ( 'NONE',  ( 15.90000000000000391, -6.149999999999999467, 0.0000000000000000000 ) ) ;
#62 = DATE_AND_TIME ( #125, #175 ) ;
#63 = EDGE_CURVE ( 'NONE', #233, #98, #135, .T. ) ;
#64 = CARTESIAN_POINT ( 'NONE',  ( -15.89999999999999680, 6.150000000000001243, 0.0000000000000000000 ) ) ;
#65 = AXIS2_PLACEMENT_3D ( 'NONE', #123, #107, #183 ) ;
#66 = LINE ( 'NONE', #237, #1 ) ;
#67 = VERTEX_POINT ( 'NONE', #213 ) ;
#68 = CARTESIAN_POINT ( 'NONE',  ( -15.89999999999999680, -6.149999999999999467, 0.0000000000000000000 ) ) ;
#69 = EDGE_LOOP ( 'NONE', ( #15, #117, #58, #28 ) ) ;
#70 = DIRECTION ( 'NONE',  ( -0.0000000000000000000, -1.000000000000000000, -0.0000000000000000000 ) ) ;
#71 = APPROVAL ( #55, 'UNSPECIFIED' ) ;
#72 = CLOSED_SHELL ( 'NONE', ( #124, #212, #31, #205, #178, #131 ) ) ;
#73 = EDGE_CURVE ( 'NONE', #181, #158, #92, .T. ) ;
#74 = CARTESIAN_POINT ( 'NONE',  ( -15.89999999999999680, 6.150000000000001243, 0.9499999999999999556 ) ) ;
#75 = ADVANCED_BREP_SHAPE_REPRESENTATION ( 'Web Model Lightsmyth Gratings_16869', ( #81, #38 ), #192 ) ;
#76 =( LENGTH_UNIT ( ) NAMED_UNIT ( * ) SI_UNIT ( .MILLI., .METRE. ) );
#77 = LINE ( 'NONE', #177, #185 ) ;
#78 = APPROVAL ( #206, 'UNSPECIFIED' ) ;
#79 = APPROVAL_PERSON_ORGANIZATION ( #11, #71, #116 ) ;
#80 = AXIS2_PLACEMENT_3D ( 'NONE', #171, #169, #190 ) ;
#81 = MANIFOLD_SOLID_BREP ( 'Boss-Extrude1', #72 ) ;
#82 = CC_DESIGN_PERSON_AND_ORGANIZATION_ASSIGNMENT ( #129, #99, ( #45 ) ) ;
#83 = LINE ( 'NONE', #68, #219 ) ;
#84 = AXIS2_PLACEMENT_3D ( 'NONE', #113, #217, #221 ) ;
#85 = DESIGN_CONTEXT ( 'detailed design', #100, 'design' ) ;
#86 = VERTEX_POINT ( 'NONE', #109 ) ;
#87 = DIRECTION ( 'NONE',  ( 1.000000000000000000, 0.0000000000000000000, 0.0000000000000000000 ) ) ;
#88 = CC_DESIGN_PERSON_AND_ORGANIZATION_ASSIGNMENT ( #17, #224, ( #184 ) ) ;
#89 = CARTESIAN_POINT ( 'NONE',  ( 15.90000000000000391, -6.149999999999999467, 0.0000000000000000000 ) ) ;
#90 = VECTOR ( 'NONE', #70, 1000.000000000000000 ) ;
#91 = ORIENTED_EDGE ( 'NONE', *, *, #21, .T. ) ;
#92 = LINE ( 'NONE', #106, #7 ) ;
#93 = EDGE_LOOP ( 'NONE', ( #215, #161, #223, #167 ) ) ;
#94 = MECHANICAL_CONTEXT ( 'NONE', #119, 'mechanical' ) ;
#95 = APPLICATION_PROTOCOL_DEFINITION ( 'international standard', 'config_control_design', 1994, #100 ) ;
#96 = CC_DESIGN_APPROVAL ( #151, ( #184 ) ) ;
#97 = FACE_OUTER_BOUND ( 'NONE', #25, .T. ) ;
#98 = VERTEX_POINT ( 'NONE', #234 ) ;
#99 = PERSON_AND_ORGANIZATION_ROLE ( 'design_owner' ) ;
#100 = APPLICATION_CONTEXT ( 'configuration controlled 3d designs of mechanical parts and assemblies' ) ;
#101 = EDGE_CURVE ( 'NONE', #67, #158, #189, .T. ) ;
#102 = CALENDAR_DATE ( 2021, 11, 3 ) ;
#103 = CC_DESIGN_SECURITY_CLASSIFICATION ( #114, ( #57 ) ) ;
#104 = CALENDAR_DATE ( 2021, 11, 3 ) ;
#105 = LINE ( 'NONE', #216, #47 ) ;
#106 = CARTESIAN_POINT ( 'NONE',  ( -15.89999999999999680, 6.150000000000001243, 0.9499999999999999556 ) ) ;
#107 = DIRECTION ( 'NONE',  ( 1.000000000000000000, 0.0000000000000000000, 0.0000000000000000000 ) ) ;
#108 = EDGE_CURVE ( 'NONE', #181, #233, #203, .T. ) ;
#109 = CARTESIAN_POINT ( 'NONE',  ( -15.89999999999999680, -6.149999999999999467, 0.0000000000000000000 ) ) ;
#110 = LINE ( 'NONE', #156, #198 ) ;
#111 = DIRECTION ( 'NONE',  ( -1.000000000000000000, -0.0000000000000000000, -0.0000000000000000000 ) ) ;
#112 = LOCAL_TIME ( 15, 26, 7.000000000000000000, #24 ) ;
#113 = CARTESIAN_POINT ( 'NONE',  ( 15.90000000000000391, -6.149999999999999467, 0.9499999999999999556 ) ) ;
#114 = SECURITY_CLASSIFICATION ( '', '', #228 ) ;
#115 = LINE ( 'NONE', #226, #165 ) ;
#116 = APPROVAL_ROLE ( '' ) ;
#117 = ORIENTED_EDGE ( 'NONE', *, *, #73, .F. ) ;
#118 = DIRECTION ( 'NONE',  ( 0.0000000000000000000, -1.000000000000000000, 0.0000000000000000000 ) ) ;
#119 = APPLICATION_CONTEXT ( 'configuration controlled 3d designs of mechanical parts and assemblies' ) ;
#120 = VECTOR ( 'NONE', #195, 1000.000000000000000 ) ;
#121 = COORDINATED_UNIVERSAL_TIME_OFFSET ( 5, 0, .BEHIND. ) ;
#122 = ORIENTED_EDGE ( 'NONE', *, *, #101, .F. ) ;
#123 = CARTESIAN_POINT ( 'NONE',  ( -15.89999999999999680, -6.149999999999999467, 0.9499999999999999556 ) ) ;
#124 = ADVANCED_FACE ( 'NONE', ( #180 ), #202, .F. ) ;
#125 = CALENDAR_DATE ( 2021, 11, 3 ) ;
#126 = EDGE_LOOP ( 'NONE', ( #91, #152, #36, #18 ) ) ;
#127 = EDGE_LOOP ( 'NONE', ( #145, #130, #23, #122 ) ) ;
#128 = PLANE ( 'NONE',  #59 ) ;
#129 = PERSON_AND_ORGANIZATION ( #235, #13 ) ;
#130 = ORIENTED_EDGE ( 'NONE', *, *, #49, .F. ) ;
#131 = ADVANCED_FACE ( 'NONE', ( #40 ), #128, .T. ) ;
#132 = AXIS2_PLACEMENT_3D ( 'NONE', #2, #149, #133 ) ;
#133 = DIRECTION ( 'NONE',  ( -1.000000000000000000, 0.0000000000000000000, -0.0000000000000000000 ) ) ;
#134 =( NAMED_UNIT ( * ) SI_UNIT ( $, .STERADIAN. ) SOLID_ANGLE_UNIT ( ) );
#135 = LINE ( 'NONE', #48, #172 ) ;
#136 = DATE_TIME_ROLE ( 'classification_date' ) ;
#137 = PRODUCT_DEFINITION_SHAPE ( 'NONE', 'NONE',  #184 ) ;
#138 = FACE_OUTER_BOUND ( 'NONE', #93, .T. ) ;
#139 = APPROVAL_DATE_TIME ( #62, #71 ) ;
#140 = LINE ( 'NONE', #61, #120 ) ;
#141 = DIRECTION ( 'NONE',  ( 0.0000000000000000000, 1.000000000000000000, 0.0000000000000000000 ) ) ;
#142 = CC_DESIGN_PERSON_AND_ORGANIZATION_ASSIGNMENT ( #200, #188, ( #57 ) ) ;
#143 = PLANE ( 'NONE',  #65 ) ;
#144 = PERSON_AND_ORGANIZATION ( #235, #13 ) ;
#145 = ORIENTED_EDGE ( 'NONE', *, *, #10, .F. ) ;
#146 = DATE_AND_TIME ( #3, #51 ) ;
#147 = APPROVAL_DATE_TIME ( #236, #151 ) ;
#148 = FACE_OUTER_BOUND ( 'NONE', #126, .T. ) ;
#149 = DIRECTION ( 'NONE',  ( 0.0000000000000000000, 0.0000000000000000000, -1.000000000000000000 ) ) ;
#150 = APPROVAL_STATUS ( 'not_yet_approved' ) ;
#151 = APPROVAL ( #150, 'UNSPECIFIED' ) ;
#152 = ORIENTED_EDGE ( 'NONE', *, *, #154, .F. ) ;
#153 = CC_DESIGN_DATE_AND_TIME_ASSIGNMENT ( #146, #136, ( #114 ) ) ;
#154 = EDGE_CURVE ( 'NONE', #233, #86, #66, .T. ) ;
#155 = APPROVAL_PERSON_ORGANIZATION ( #144, #78, #186 ) ;
#156 = CARTESIAN_POINT ( 'NONE',  ( 15.90000000000000391, -6.149999999999999467, 0.9499999999999999556 ) ) ;
#157 = SHAPE_DEFINITION_REPRESENTATION ( #137, #75 ) ;
#158 = VERTEX_POINT ( 'NONE', #199 ) ;
#159 = DIRECTION ( 'NONE',  ( 1.000000000000000000, 0.0000000000000000000, 0.0000000000000000000 ) ) ;
#160 = APPROVAL_DATE_TIME ( #174, #78 ) ;
#161 = ORIENTED_EDGE ( 'NONE', *, *, #34, .T. ) ;
#162 = DIRECTION ( 'NONE',  ( -1.000000000000000000, -0.0000000000000000000, -0.0000000000000000000 ) ) ;
#163 = CARTESIAN_POINT ( 'NONE',  ( 0.0000000000000000000, 0.0000000000000000000, 0.0000000000000000000 ) ) ;
#164 = CC_DESIGN_PERSON_AND_ORGANIZATION_ASSIGNMENT ( #8, #187, ( #57 ) ) ;
#165 = VECTOR ( 'NONE', #225, 1000.000000000000000 ) ;
#166 = DATE_TIME_ROLE ( 'creation_date' ) ;
#167 = ORIENTED_EDGE ( 'NONE', *, *, #63, .T. ) ;
#168 = UNCERTAINTY_MEASURE_WITH_UNIT (LENGTH_MEASURE( 1.000000000000000082E-05 ), #76, 'distance_accuracy_value', 'NONE');
#169 = DIRECTION ( 'NONE',  ( 0.0000000000000000000, 1.000000000000000000, 0.0000000000000000000 ) ) ;
#170 = DIRECTION ( 'NONE',  ( 0.0000000000000000000, 0.0000000000000000000, 1.000000000000000000 ) ) ;
#171 = CARTESIAN_POINT ( 'NONE',  ( -15.89999999999999680, -6.149999999999999467, 0.9499999999999999556 ) ) ;
#172 = VECTOR ( 'NONE', #87, 1000.000000000000000 ) ;
#173 = EDGE_CURVE ( 'NONE', #230, #67, #115, .T. ) ;
#174 = DATE_AND_TIME ( #102, #112 ) ;
#175 = LOCAL_TIME ( 15, 26, 7.000000000000000000, #27 ) ;
#176 = ORIENTED_EDGE ( 'NONE', *, *, #173, .F. ) ;
#177 = CARTESIAN_POINT ( 'NONE',  ( -15.89999999999999680, -6.149999999999999467, 0.0000000000000000000 ) ) ;
#178 = ADVANCED_FACE ( 'NONE', ( #138 ), #53, .F. ) ;
#179 = CC_DESIGN_PERSON_AND_ORGANIZATION_ASSIGNMENT ( #214, #6, ( #114 ) ) ;
#180 = FACE_OUTER_BOUND ( 'NONE', #227, .T. ) ;
#181 = VERTEX_POINT ( 'NONE', #16 ) ;
#182 = EDGE_CURVE ( 'NONE', #98, #44, #191, .T. ) ;
#183 = DIRECTION ( 'NONE',  ( 0.0000000000000000000, 0.0000000000000000000, -1.000000000000000000 ) ) ;
#184 = PRODUCT_DEFINITION ( 'UNKNOWN', '', #57, #85 ) ;
#185 = VECTOR ( 'NONE', #210, 1000.000000000000000 ) ;
#186 = APPROVAL_ROLE ( '' ) ;
#187 = PERSON_AND_ORGANIZATION_ROLE ( 'design_supplier' ) ;
#188 = PERSON_AND_ORGANIZATION_ROLE ( 'creator' ) ;
#189 = LINE ( 'NONE', #64, #231 ) ;
#190 = DIRECTION ( 'NONE',  ( 0.0000000000000000000, -0.0000000000000000000, 1.000000000000000000 ) ) ;
#191 = LINE ( 'NONE', #33, #197 ) ;
#192 =( GEOMETRIC_REPRESENTATION_CONTEXT ( 3 ) GLOBAL_UNCERTAINTY_ASSIGNED_CONTEXT ( ( #168 ) ) GLOBAL_UNIT_ASSIGNED_CONTEXT ( ( #76, #54, #134 ) ) REPRESENTATION_CONTEXT ( 'NONE', 'WORKASPACE' ) );
#193 = DATE_AND_TIME ( #104, #229 ) ;
#194 = CC_DESIGN_APPROVAL ( #71, ( #57 ) ) ;
#195 = DIRECTION ( 'NONE',  ( 0.0000000000000000000, 1.000000000000000000, 0.0000000000000000000 ) ) ;
#196 = FACE_OUTER_BOUND ( 'NONE', #69, .T. ) ;
#197 = VECTOR ( 'NONE', #19, 1000.000000000000000 ) ;
#198 = VECTOR ( 'NONE', #141, 1000.000000000000000 ) ;
#199 = CARTESIAN_POINT ( 'NONE',  ( -15.89999999999999680, 6.150000000000001243, 0.0000000000000000000 ) ) ;
#200 = PERSON_AND_ORGANIZATION ( #235, #13 ) ;
#201 = DIRECTION ( 'NONE',  ( -1.000000000000000000, 0.0000000000000000000, -0.0000000000000000000 ) ) ;
#202 = PLANE ( 'NONE',  #84 ) ;
#203 = LINE ( 'NONE', #30, #90 ) ;
#204 = ORIENTED_EDGE ( 'NONE', *, *, #10, .T. ) ;
#205 = ADVANCED_FACE ( 'NONE', ( #97 ), #35, .F. ) ;
#206 = APPROVAL_STATUS ( 'not_yet_approved' ) ;
#207 = CARTESIAN_POINT ( 'NONE',  ( -15.89999999999999680, -6.149999999999999467, 0.9499999999999999556 ) ) ;
#208 = DIRECTION ( 'NONE',  ( 1.000000000000000000, 0.0000000000000000000, 0.0000000000000000000 ) ) ;
#209 = ORIENTED_EDGE ( 'NONE', *, *, #182, .T. ) ;
#210 = DIRECTION ( 'NONE',  ( -0.0000000000000000000, -1.000000000000000000, -0.0000000000000000000 ) ) ;
#211 = ORIENTED_EDGE ( 'NONE', *, *, #14, .F. ) ;
#212 = ADVANCED_FACE ( 'NONE', ( #196 ), #22, .F. ) ;
#213 = CARTESIAN_POINT ( 'NONE',  ( 15.90000000000000391, 6.150000000000001243, 0.0000000000000000000 ) ) ;
#214 = PERSON_AND_ORGANIZATION ( #235, #13 ) ;
#215 = ORIENTED_EDGE ( 'NONE', *, *, #14, .T. ) ;
#216 = CARTESIAN_POINT ( 'NONE',  ( -15.89999999999999680, 6.150000000000001243, 0.9499999999999999556 ) ) ;
#217 = DIRECTION ( 'NONE',  ( -1.000000000000000000, 0.0000000000000000000, 0.0000000000000000000 ) ) ;
#218 = CC_DESIGN_APPROVAL ( #78, ( #114 ) ) ;
#219 = VECTOR ( 'NONE', #159, 1000.000000000000000 ) ;
#220 = DIRECTION ( 'NONE',  ( -0.0000000000000000000, -0.0000000000000000000, -1.000000000000000000 ) ) ;
#221 = DIRECTION ( 'NONE',  ( 0.0000000000000000000, 0.0000000000000000000, 1.000000000000000000 ) ) ;
#222 = PERSON_AND_ORGANIZATION ( #235, #13 ) ;
#223 = ORIENTED_EDGE ( 'NONE', *, *, #108, .T. ) ;
#224 = PERSON_AND_ORGANIZATION_ROLE ( 'creator' ) ;
#225 = DIRECTION ( 'NONE',  ( -0.0000000000000000000, -0.0000000000000000000, -1.000000000000000000 ) ) ;
#226 = CARTESIAN_POINT ( 'NONE',  ( 15.90000000000000391, 6.150000000000001243, 0.9499999999999999556 ) ) ;
#227 = EDGE_LOOP ( 'NONE', ( #204, #176, #211, #209 ) ) ;
#228 = SECURITY_CLASSIFICATION_LEVEL ( 'unclassified' ) ;
#229 = LOCAL_TIME ( 15, 26, 7.000000000000000000, #56 ) ;
#230 = VERTEX_POINT ( 'NONE', #39 ) ;
#231 = VECTOR ( 'NONE', #162, 1000.000000000000000 ) ;
#232 = LOCAL_TIME ( 15, 26, 7.000000000000000000, #43 ) ;
#233 = VERTEX_POINT ( 'NONE', #207 ) ;
#234 = CARTESIAN_POINT ( 'NONE',  ( 15.90000000000000391, -6.149999999999999467, 0.9499999999999999556 ) ) ;
#235 = PERSON ( 'UNSPECIFIED', 'UNSPECIFIED', 'UNSPECIFIED', ('UNSPECIFIED'), ('UNSPECIFIED'), ('UNSPECIFIED') ) ;
#236 = DATE_AND_TIME ( #50, #232 ) ;
#237 = CARTESIAN_POINT ( 'NONE',  ( -15.89999999999999680, -6.149999999999999467, 0.9499999999999999556 ) ) ;
ENDSEC;
END-ISO-10303-21;
