ISO-10303-21;
HEADER;
FILE_DESCRIPTION (( 'STEP AP214' ),
    '1' );
FILE_NAME ('4512-E0W.STEP',
    '2009-12-21T17:07:17',
    ( ' ' ),
    ( ' ' ),
    'SwSTEP 2.0',
    'SolidWorks 2009',
    '' );
FILE_SCHEMA (( 'AUTOMOTIVE_DESIGN' ));
ENDSEC;

DATA;
#1 = DIRECTION ( 'NONE',  ( 1.000000000000000000, 0.0000000000000000000, 0.0000000000000000000 ) ) ;
#2 = DIRECTION ( 'NONE',  ( 1.000000000000000000, 0.0000000000000000000, 0.0000000000000000000 ) ) ;
#3 = DIRECTION ( 'NONE',  ( 1.000000000000000000, 0.0000000000000000000, 0.0000000000000000000 ) ) ;
#4 = AXIS2_PLACEMENT_3D ( 'NONE', #5, #7, #1 ) ;
#5 = CARTESIAN_POINT ( 'NONE',  ( 0.0000000000000000000, 2.299886688798729100E-015, -6.259999999999999800 ) ) ;
#6 = COLOUR_RGB ( '',0.9568627450980391500, 0.9490196078431372100, 0.9607843137254902200 ) ;
#7 = DIRECTION ( 'NONE',  ( 0.0000000000000000000, -0.0000000000000000000, 1.000000000000000000 ) ) ;
#8 = DIRECTION ( 'NONE',  ( -0.0000000000000000000, -0.0000000000000000000, 1.000000000000000000 ) ) ;
#9 = MECHANICAL_DESIGN_GEOMETRIC_PRESENTATION_REPRESENTATION (  '', ( #14 ), #21 ) ;
#10 = SURFACE_STYLE_FILL_AREA ( #15 ) ;
#11 = PRESENTATION_STYLE_ASSIGNMENT (( #16 ) ) ;
#12 =( NAMED_UNIT ( * ) PLANE_ANGLE_UNIT ( ) SI_UNIT ( $, .RADIAN. ) );
#13 =( NAMED_UNIT ( * ) PLANE_ANGLE_UNIT ( ) SI_UNIT ( $, .RADIAN. ) );
#14 = STYLED_ITEM ( 'NONE', ( #11 ), #54 ) ;
#15 = FILL_AREA_STYLE ('',( #113 ) ) ;
#16 = SURFACE_STYLE_USAGE ( .BOTH. , #19 ) ;
#17 =( NAMED_UNIT ( * ) SI_UNIT ( $, .STERADIAN. ) SOLID_ANGLE_UNIT ( ) );
#18 =( LENGTH_UNIT ( ) NAMED_UNIT ( * ) SI_UNIT ( .MILLI., .METRE. ) );
#19 = SURFACE_SIDE_STYLE ('',( #10 ) ) ;
#20 = PRESENTATION_LAYER_ASSIGNMENT (  '', '', ( #14 ) ) ;
#21 =( GEOMETRIC_REPRESENTATION_CONTEXT ( 3 ) GLOBAL_UNCERTAINTY_ASSIGNED_CONTEXT ( ( #151 ) ) GLOBAL_UNIT_ASSIGNED_CONTEXT ( ( #18, #12, #25 ) ) REPRESENTATION_CONTEXT ( 'NONE', 'WORKASPACE' ) );
#22 = UNCERTAINTY_MEASURE_WITH_UNIT (LENGTH_MEASURE( 1.000000000000000100E-005 ), #228, 'distance_accuracy_value', 'NONE');
#23 =( GEOMETRIC_REPRESENTATION_CONTEXT ( 3 ) GLOBAL_UNCERTAINTY_ASSIGNED_CONTEXT ( ( #22 ) ) GLOBAL_UNIT_ASSIGNED_CONTEXT ( ( #228, #13, #17 ) ) REPRESENTATION_CONTEXT ( 'NONE', 'WORKASPACE' ) );
#24 = PRODUCT_DEFINITION ( 'UNKNOWN', '', #26, #257 ) ;
#25 =( NAMED_UNIT ( * ) SI_UNIT ( $, .STERADIAN. ) SOLID_ANGLE_UNIT ( ) );
#26 = PRODUCT_DEFINITION_FORMATION_WITH_SPECIFIED_SOURCE ( 'ANY', '', #252, .NOT_KNOWN. ) ;
#27 = PRODUCT_RELATED_PRODUCT_CATEGORY ( 'part', '', ( #252 ) ) ;
#28 = ADVANCED_FACE ( 'NONE', ( #52 ), #112, .T. ) ;
#29 = ORIENTED_EDGE ( 'NONE', *, *, #62, .T. ) ;
#30 = ADVANCED_FACE ( 'NONE', ( #127 ), #129, .T. ) ;
#31 = ADVANCED_FACE ( 'NONE', ( #137 ), #143, .T. ) ;
#32 = ORIENTED_EDGE ( 'NONE', *, *, #51, .T. ) ;
#33 = EDGE_CURVE ( 'NONE', #48, #38, #154, .T. ) ;
#34 = ORIENTED_EDGE ( 'NONE', *, *, #69, .F. ) ;
#35 = VERTEX_POINT ( 'NONE', #146 ) ;
#36 = VERTEX_POINT ( 'NONE', #147 ) ;
#37 = VERTEX_POINT ( 'NONE', #165 ) ;
#38 = VERTEX_POINT ( 'NONE', #150 ) ;
#39 = ORIENTED_EDGE ( 'NONE', *, *, #33, .T. ) ;
#40 = VERTEX_POINT ( 'NONE', #160 ) ;
#41 = EDGE_LOOP ( 'NONE', ( #72, #58, #66, #71 ) ) ;
#42 = EDGE_CURVE ( 'NONE', #40, #36, #148, .T. ) ;
#43 = ORIENTED_EDGE ( 'NONE', *, *, #42, .F. ) ;
#44 = ADVANCED_FACE ( 'NONE', ( #153 ), #124, .F. ) ;
#45 = ADVANCED_FACE ( 'NONE', ( #175 ), #185, .T. ) ;
#46 = EDGE_CURVE ( 'NONE', #48, #37, #204, .T. ) ;
#47 = ORIENTED_EDGE ( 'NONE', *, *, #77, .F. ) ;
#48 = VERTEX_POINT ( 'NONE', #195 ) ;
#49 = EDGE_CURVE ( 'NONE', #37, #78, #215, .T. ) ;
#50 = ORIENTED_EDGE ( 'NONE', *, *, #49, .F. ) ;
#51 = EDGE_CURVE ( 'NONE', #37, #48, #202, .T. ) ;
#52 = FACE_OUTER_BOUND ( 'NONE', #41, .T. ) ;
#53 = MANIFOLD_SOLID_BREP ( 'NONE', #56 ) ;
#54 = ADVANCED_BREP_SHAPE_REPRESENTATION ( '4512-E0W', ( #53, #255 ), #23 ) ;
#55 = ORIENTED_EDGE ( 'NONE', *, *, #77, .T. ) ;
#56 = CLOSED_SHELL ( 'NONE', ( #31, #30, #28, #45, #44 ) ) ;
#57 = EDGE_LOOP ( 'NONE', ( #63, #64, #68, #65, #74 ) ) ;
#58 = ORIENTED_EDGE ( 'NONE', *, *, #73, .T. ) ;
#59 = ORIENTED_EDGE ( 'NONE', *, *, #46, .F. ) ;
#60 = ORIENTED_EDGE ( 'NONE', *, *, #61, .T. ) ;
#61 = EDGE_CURVE ( 'NONE', #38, #35, #208, .T. ) ;
#62 = EDGE_CURVE ( 'NONE', #35, #36, #246, .T. ) ;
#63 = ORIENTED_EDGE ( 'NONE', *, *, #33, .F. ) ;
#64 = ORIENTED_EDGE ( 'NONE', *, *, #46, .T. ) ;
#65 = ORIENTED_EDGE ( 'NONE', *, *, #73, .F. ) ;
#66 = ORIENTED_EDGE ( 'NONE', *, *, #69, .T. ) ;
#67 = EDGE_LOOP ( 'NONE', ( #75, #59 ) ) ;
#68 = ORIENTED_EDGE ( 'NONE', *, *, #49, .T. ) ;
#69 = EDGE_CURVE ( 'NONE', #78, #40, #233, .T. ) ;
#70 = EDGE_LOOP ( 'NONE', ( #32, #39, #47, #34, #50 ) ) ;
#71 = ORIENTED_EDGE ( 'NONE', *, *, #42, .T. ) ;
#72 = ORIENTED_EDGE ( 'NONE', *, *, #62, .F. ) ;
#73 = EDGE_CURVE ( 'NONE', #35, #78, #241, .T. ) ;
#74 = ORIENTED_EDGE ( 'NONE', *, *, #61, .F. ) ;
#75 = ORIENTED_EDGE ( 'NONE', *, *, #51, .F. ) ;
#76 = EDGE_LOOP ( 'NONE', ( #55, #60, #29, #43 ) ) ;
#77 = EDGE_CURVE ( 'NONE', #40, #38, #230, .T. ) ;
#78 = VERTEX_POINT ( 'NONE', #227 ) ;
#79 =( NAMED_UNIT ( * ) PLANE_ANGLE_UNIT ( ) SI_UNIT ( $, .RADIAN. ) );
#80 =( GEOMETRIC_REPRESENTATION_CONTEXT ( 3 ) GLOBAL_UNCERTAINTY_ASSIGNED_CONTEXT ( ( #92 ) ) GLOBAL_UNIT_ASSIGNED_CONTEXT ( ( #81, #79, #88 ) ) REPRESENTATION_CONTEXT ( 'NONE', 'WORKASPACE' ) );
#81 =( LENGTH_UNIT ( ) NAMED_UNIT ( * ) SI_UNIT ( .MILLI., .METRE. ) );
#82 = PRESENTATION_STYLE_ASSIGNMENT (( #83 ) ) ;
#83 = SURFACE_STYLE_USAGE ( .BOTH. , #84 ) ;
#84 = SURFACE_SIDE_STYLE ('',( #89 ) ) ;
#85 = PRESENTATION_LAYER_ASSIGNMENT (  '', '', ( #86 ) ) ;
#86 = STYLED_ITEM ( 'NONE', ( #82 ), #28 ) ;
#87 = MECHANICAL_DESIGN_GEOMETRIC_PRESENTATION_REPRESENTATION (  '', ( #86 ), #80 ) ;
#88 =( NAMED_UNIT ( * ) SI_UNIT ( $, .STERADIAN. ) SOLID_ANGLE_UNIT ( ) );
#89 = SURFACE_STYLE_FILL_AREA ( #90 ) ;
#90 = FILL_AREA_STYLE ('',( #91 ) ) ;
#91 = FILL_AREA_STYLE_COLOUR ( '', #6 ) ;
#92 = UNCERTAINTY_MEASURE_WITH_UNIT (LENGTH_MEASURE( 1.000000000000000100E-005 ), #81, 'distance_accuracy_value', 'NONE');
#93 =( NAMED_UNIT ( * ) SI_UNIT ( $, .STERADIAN. ) SOLID_ANGLE_UNIT ( ) );
#94 = STYLED_ITEM ( 'NONE', ( #118 ), #30 ) ;
#95 = SURFACE_STYLE_USAGE ( .BOTH. , #130 ) ;
#96 =( LENGTH_UNIT ( ) NAMED_UNIT ( * ) SI_UNIT ( .MILLI., .METRE. ) );
#97 = FILL_AREA_STYLE ('',( #136 ) ) ;
#98 = COLOUR_RGB ( '',0.9568627450980391500, 0.9490196078431372100, 0.9607843137254902200 ) ;
#99 = AXIS2_PLACEMENT_3D ( 'NONE', #121, #131, #135 ) ;
#100 =( NAMED_UNIT ( * ) PLANE_ANGLE_UNIT ( ) SI_UNIT ( $, .RADIAN. ) );
#101 = PRESENTATION_LAYER_ASSIGNMENT (  '', '', ( #94 ) ) ;
#102 = SURFACE_STYLE_FILL_AREA ( #106 ) ;
#103 = SURFACE_STYLE_USAGE ( .BOTH. , #104 ) ;
#104 = SURFACE_SIDE_STYLE ('',( #105 ) ) ;
#105 = SURFACE_STYLE_FILL_AREA ( #97 ) ;
#106 = FILL_AREA_STYLE ('',( #123 ) ) ;
#107 = DIRECTION ( 'NONE',  ( 0.0000000000000000000, 1.000000000000000000, 0.0000000000000000000 ) ) ;
#108 = DIRECTION ( 'NONE',  ( -1.000000000000000000, 0.0000000000000000000, 0.0000000000000000000 ) ) ;
#109 = UNCERTAINTY_MEASURE_WITH_UNIT (LENGTH_MEASURE( 1.000000000000000100E-005 ), #96, 'distance_accuracy_value', 'NONE');
#110 = CARTESIAN_POINT ( 'NONE',  ( 0.0000000000000000000, 0.0000000000000000000, -32.37000000000000500 ) ) ;
#111 = COLOUR_RGB ( '',0.9568627450980391500, 0.9490196078431372100, 0.9607843137254902200 ) ;
#112 = SPHERICAL_SURFACE ( 'NONE', #99, 38.63000000000000300 ) ;
#113 = FILL_AREA_STYLE_COLOUR ( '', #114 ) ;
#114 = COLOUR_RGB ( '',0.7960784313725489700, 0.8235294117647058400, 0.9372549019607843100 ) ;
#115 = MECHANICAL_DESIGN_GEOMETRIC_PRESENTATION_REPRESENTATION (  '', ( #94 ), #125 ) ;
#116 =( NAMED_UNIT ( * ) PLANE_ANGLE_UNIT ( ) SI_UNIT ( $, .RADIAN. ) );
#117 =( GEOMETRIC_REPRESENTATION_CONTEXT ( 3 ) GLOBAL_UNCERTAINTY_ASSIGNED_CONTEXT ( ( #134 ) ) GLOBAL_UNIT_ASSIGNED_CONTEXT ( ( #122, #116, #93 ) ) REPRESENTATION_CONTEXT ( 'NONE', 'WORKASPACE' ) );
#118 = PRESENTATION_STYLE_ASSIGNMENT (( #95 ) ) ;
#119 = MECHANICAL_DESIGN_GEOMETRIC_PRESENTATION_REPRESENTATION (  '', ( #132 ), #117 ) ;
#120 = PRESENTATION_LAYER_ASSIGNMENT (  '', '', ( #132 ) ) ;
#121 = CARTESIAN_POINT ( 'NONE',  ( 0.0000000000000000000, 0.0000000000000000000, -32.37000000000000500 ) ) ;
#122 =( LENGTH_UNIT ( ) NAMED_UNIT ( * ) SI_UNIT ( .MILLI., .METRE. ) );
#123 = FILL_AREA_STYLE_COLOUR ( '', #111 ) ;
#124 = PLANE ( 'NONE',  #4 ) ;
#125 =( GEOMETRIC_REPRESENTATION_CONTEXT ( 3 ) GLOBAL_UNCERTAINTY_ASSIGNED_CONTEXT ( ( #109 ) ) GLOBAL_UNIT_ASSIGNED_CONTEXT ( ( #96, #100, #126 ) ) REPRESENTATION_CONTEXT ( 'NONE', 'WORKASPACE' ) );
#126 =( NAMED_UNIT ( * ) SI_UNIT ( $, .STERADIAN. ) SOLID_ANGLE_UNIT ( ) );
#127 = FACE_OUTER_BOUND ( 'NONE', #76, .T. ) ;
#128 = AXIS2_PLACEMENT_3D ( 'NONE', #110, #108, #107 ) ;
#129 = SPHERICAL_SURFACE ( 'NONE', #128, 38.63000000000000300 ) ;
#130 = SURFACE_SIDE_STYLE ('',( #102 ) ) ;
#131 = DIRECTION ( 'NONE',  ( -1.000000000000000000, 0.0000000000000000000, 0.0000000000000000000 ) ) ;
#132 = STYLED_ITEM ( 'NONE', ( #133 ), #31 ) ;
#133 = PRESENTATION_STYLE_ASSIGNMENT (( #103 ) ) ;
#134 = UNCERTAINTY_MEASURE_WITH_UNIT (LENGTH_MEASURE( 1.000000000000000100E-005 ), #122, 'distance_accuracy_value', 'NONE');
#135 = DIRECTION ( 'NONE',  ( 0.0000000000000000000, 1.000000000000000000, 0.0000000000000000000 ) ) ;
#136 = FILL_AREA_STYLE_COLOUR ( '', #98 ) ;
#137 = FACE_OUTER_BOUND ( 'NONE', #70, .T. ) ;
#138 = DIRECTION ( 'NONE',  ( 1.000000000000000000, 0.0000000000000000000, 0.0000000000000000000 ) ) ;
#139 =( GEOMETRIC_REPRESENTATION_CONTEXT ( 3 ) GLOBAL_UNCERTAINTY_ASSIGNED_CONTEXT ( ( #168 ) ) GLOBAL_UNIT_ASSIGNED_CONTEXT ( ( #167, #140, #162 ) ) REPRESENTATION_CONTEXT ( 'NONE', 'WORKASPACE' ) );
#140 =( NAMED_UNIT ( * ) PLANE_ANGLE_UNIT ( ) SI_UNIT ( $, .RADIAN. ) );
#141 = CARTESIAN_POINT ( 'NONE',  ( 0.0000000000000000000, 0.0000000000000000000, 4.308132045400366600 ) ) ;
#142 = FILL_AREA_STYLE_COLOUR ( '', #149 ) ;
#143 = CYLINDRICAL_SURFACE ( 'NONE', #163, 25.39999999999999900 ) ;
#144 = DIRECTION ( 'NONE',  ( -0.0000000000000000000, -0.0000000000000000000, 1.000000000000000000 ) ) ;
#145 = VECTOR ( 'NONE', #166, 1000.000000000000000 ) ;
#146 = CARTESIAN_POINT ( 'NONE',  ( -3.110500138708838600E-015, -25.39999999999999900, -3.264727281813690800 ) ) ;
#147 = CARTESIAN_POINT ( 'NONE',  ( 0.0000000000000000000, 2.365327172407922000E-015, 6.260000000000001600 ) ) ;
#148 = CIRCLE ( 'NONE', #161, 38.63000000000000300 ) ;
#149 = COLOUR_RGB ( '',0.9568627450980391500, 0.9490196078431372100, 0.9607843137254902200 ) ;
#150 = CARTESIAN_POINT ( 'NONE',  ( -25.39999999999999900, 3.110500138708838200E-015, -3.264727281813692500 ) ) ;
#151 = UNCERTAINTY_MEASURE_WITH_UNIT (LENGTH_MEASURE( 1.000000000000000100E-005 ), #18, 'distance_accuracy_value', 'NONE');
#152 = CARTESIAN_POINT ( 'NONE',  ( 0.0000000000000000000, 0.0000000000000000000, -32.37000000000000500 ) ) ;
#153 = FACE_OUTER_BOUND ( 'NONE', #67, .T. ) ;
#154 = LINE ( 'NONE', #158, #145 ) ;
#155 = STYLED_ITEM ( 'NONE', ( #156 ), #44 ) ;
#156 = PRESENTATION_STYLE_ASSIGNMENT (( #157 ) ) ;
#157 = SURFACE_STYLE_USAGE ( .BOTH. , #169 ) ;
#158 = CARTESIAN_POINT ( 'NONE',  ( -25.39999999999999900, 3.110500138708838200E-015, 4.308132045400366600 ) ) ;
#159 = DIRECTION ( 'NONE',  ( 1.000000000000000000, 0.0000000000000000000, 0.0000000000000000000 ) ) ;
#160 = CARTESIAN_POINT ( 'NONE',  ( 0.0000000000000000000, 25.39999999999999900, -3.264727281813690800 ) ) ;
#161 = AXIS2_PLACEMENT_3D ( 'NONE', #152, #138, #164 ) ;
#162 =( NAMED_UNIT ( * ) SI_UNIT ( $, .STERADIAN. ) SOLID_ANGLE_UNIT ( ) );
#163 = AXIS2_PLACEMENT_3D ( 'NONE', #141, #144, #159 ) ;
#164 = DIRECTION ( 'NONE',  ( 0.0000000000000000000, 0.0000000000000000000, -1.000000000000000000 ) ) ;
#165 = CARTESIAN_POINT ( 'NONE',  ( 25.39999999999999900, 0.0000000000000000000, -6.259999999999999800 ) ) ;
#166 = DIRECTION ( 'NONE',  ( -0.0000000000000000000, -0.0000000000000000000, 1.000000000000000000 ) ) ;
#167 =( LENGTH_UNIT ( ) NAMED_UNIT ( * ) SI_UNIT ( .MILLI., .METRE. ) );
#168 = UNCERTAINTY_MEASURE_WITH_UNIT (LENGTH_MEASURE( 1.000000000000000100E-005 ), #167, 'distance_accuracy_value', 'NONE');
#169 = SURFACE_SIDE_STYLE ('',( #170 ) ) ;
#170 = SURFACE_STYLE_FILL_AREA ( #171 ) ;
#171 = FILL_AREA_STYLE ('',( #142 ) ) ;
#172 = MECHANICAL_DESIGN_GEOMETRIC_PRESENTATION_REPRESENTATION (  '', ( #155 ), #139 ) ;
#173 = PRESENTATION_LAYER_ASSIGNMENT (  '', '', ( #155 ) ) ;
#174 = SURFACE_SIDE_STYLE ('',( #190 ) ) ;
#175 = FACE_OUTER_BOUND ( 'NONE', #57, .T. ) ;
#176 =( GEOMETRIC_REPRESENTATION_CONTEXT ( 3 ) GLOBAL_UNCERTAINTY_ASSIGNED_CONTEXT ( ( #191 ) ) GLOBAL_UNIT_ASSIGNED_CONTEXT ( ( #192, #186, #193 ) ) REPRESENTATION_CONTEXT ( 'NONE', 'WORKASPACE' ) );
#177 = FILL_AREA_STYLE ('',( #178 ) ) ;
#178 = FILL_AREA_STYLE_COLOUR ( '', #188 ) ;
#179 = DIRECTION ( 'NONE',  ( -0.0000000000000000000, -0.0000000000000000000, 1.000000000000000000 ) ) ;
#180 = AXIS2_PLACEMENT_3D ( 'NONE', #184, #179, #3 ) ;
#181 = STYLED_ITEM ( 'NONE', ( #182 ), #45 ) ;
#182 = PRESENTATION_STYLE_ASSIGNMENT (( #189 ) ) ;
#183 = MECHANICAL_DESIGN_GEOMETRIC_PRESENTATION_REPRESENTATION (  '', ( #181 ), #176 ) ;
#184 = CARTESIAN_POINT ( 'NONE',  ( 0.0000000000000000000, 0.0000000000000000000, 4.308132045400366600 ) ) ;
#185 = CYLINDRICAL_SURFACE ( 'NONE', #180, 25.39999999999999900 ) ;
#186 =( NAMED_UNIT ( * ) PLANE_ANGLE_UNIT ( ) SI_UNIT ( $, .RADIAN. ) );
#187 = PRESENTATION_LAYER_ASSIGNMENT (  '', '', ( #181 ) ) ;
#188 = COLOUR_RGB ( '',0.9568627450980391500, 0.9490196078431372100, 0.9607843137254902200 ) ;
#189 = SURFACE_STYLE_USAGE ( .BOTH. , #174 ) ;
#190 = SURFACE_STYLE_FILL_AREA ( #177 ) ;
#191 = UNCERTAINTY_MEASURE_WITH_UNIT (LENGTH_MEASURE( 1.000000000000000100E-005 ), #192, 'distance_accuracy_value', 'NONE');
#192 =( LENGTH_UNIT ( ) NAMED_UNIT ( * ) SI_UNIT ( .MILLI., .METRE. ) );
#193 =( NAMED_UNIT ( * ) SI_UNIT ( $, .STERADIAN. ) SOLID_ANGLE_UNIT ( ) );
#194 = CARTESIAN_POINT ( 'NONE',  ( 0.0000000000000000000, 0.0000000000000000000, -6.259999999999999800 ) ) ;
#195 = CARTESIAN_POINT ( 'NONE',  ( -25.39999999999999900, 3.110500138708838200E-015, -6.259999999999999800 ) ) ;
#196 = FILL_AREA_STYLE ('',( #222 ) ) ;
#197 = CARTESIAN_POINT ( 'NONE',  ( 0.0000000000000000000, 0.0000000000000000000, -3.264727281813692500 ) ) ;
#198 = AXIS2_PLACEMENT_3D ( 'NONE', #197, #8, #2 ) ;
#199 =( LENGTH_UNIT ( ) NAMED_UNIT ( * ) SI_UNIT ( .MILLI., .METRE. ) );
#200 = DIRECTION ( 'NONE',  ( -0.0000000000000000000, -0.0000000000000000000, 1.000000000000000000 ) ) ;
#201 = CARTESIAN_POINT ( 'NONE',  ( 0.0000000000000000000, 0.0000000000000000000, -6.259999999999999800 ) ) ;
#202 = CIRCLE ( 'NONE', #218, 25.39999999999999900 ) ;
#203 = MECHANICAL_DESIGN_GEOMETRIC_PRESENTATION_REPRESENTATION (  '', ( #216 ), #210 ) ;
#204 = CIRCLE ( 'NONE', #209, 25.39999999999999900 ) ;
#205 = UNCERTAINTY_MEASURE_WITH_UNIT (LENGTH_MEASURE( 1.000000000000000100E-005 ), #199, 'distance_accuracy_value', 'NONE');
#206 =( NAMED_UNIT ( * ) SI_UNIT ( $, .STERADIAN. ) SOLID_ANGLE_UNIT ( ) );
#207 = COLOUR_RGB ( '',0.7960784313725489700, 0.8235294117647058400, 0.9372549019607843100 ) ;
#208 = CIRCLE ( 'NONE', #198, 25.39999999999999900 ) ;
#209 = AXIS2_PLACEMENT_3D ( 'NONE', #194, #217, #224 ) ;
#210 =( GEOMETRIC_REPRESENTATION_CONTEXT ( 3 ) GLOBAL_UNCERTAINTY_ASSIGNED_CONTEXT ( ( #205 ) ) GLOBAL_UNIT_ASSIGNED_CONTEXT ( ( #199, #219, #206 ) ) REPRESENTATION_CONTEXT ( 'NONE', 'WORKASPACE' ) );
#211 = DIRECTION ( 'NONE',  ( 1.000000000000000000, 0.0000000000000000000, 0.0000000000000000000 ) ) ;
#212 = SURFACE_STYLE_FILL_AREA ( #196 ) ;
#213 = SURFACE_SIDE_STYLE ('',( #212 ) ) ;
#214 = PRESENTATION_LAYER_ASSIGNMENT (  '', '', ( #216 ) ) ;
#215 = LINE ( 'NONE', #223, #221 ) ;
#216 = STYLED_ITEM ( 'NONE', ( #220 ), #53 ) ;
#217 = DIRECTION ( 'NONE',  ( -0.0000000000000000000, -0.0000000000000000000, 1.000000000000000000 ) ) ;
#218 = AXIS2_PLACEMENT_3D ( 'NONE', #201, #225, #211 ) ;
#219 =( NAMED_UNIT ( * ) PLANE_ANGLE_UNIT ( ) SI_UNIT ( $, .RADIAN. ) );
#220 = PRESENTATION_STYLE_ASSIGNMENT (( #226 ) ) ;
#221 = VECTOR ( 'NONE', #200, 1000.000000000000000 ) ;
#222 = FILL_AREA_STYLE_COLOUR ( '', #207 ) ;
#223 = CARTESIAN_POINT ( 'NONE',  ( 25.39999999999999900, 0.0000000000000000000, 4.308132045400366600 ) ) ;
#224 = DIRECTION ( 'NONE',  ( 1.000000000000000000, 0.0000000000000000000, 0.0000000000000000000 ) ) ;
#225 = DIRECTION ( 'NONE',  ( -0.0000000000000000000, -0.0000000000000000000, 1.000000000000000000 ) ) ;
#226 = SURFACE_STYLE_USAGE ( .BOTH. , #213 ) ;
#227 = CARTESIAN_POINT ( 'NONE',  ( 25.39999999999999900, 0.0000000000000000000, -3.264727281813692500 ) ) ;
#228 =( LENGTH_UNIT ( ) NAMED_UNIT ( * ) SI_UNIT ( .MILLI., .METRE. ) );
#229 = AXIS2_PLACEMENT_3D ( 'NONE', #232, #243, #236 ) ;
#230 = CIRCLE ( 'NONE', #242, 25.39999999999999900 ) ;
#231 = CARTESIAN_POINT ( 'NONE',  ( 0.0000000000000000000, 0.0000000000000000000, -32.37000000000000500 ) ) ;
#232 = CARTESIAN_POINT ( 'NONE',  ( 0.0000000000000000000, 0.0000000000000000000, -3.264727281813692500 ) ) ;
#233 = CIRCLE ( 'NONE', #244, 25.39999999999999900 ) ;
#234 = DIRECTION ( 'NONE',  ( 1.000000000000000000, 0.0000000000000000000, 0.0000000000000000000 ) ) ;
#235 = DIRECTION ( 'NONE',  ( -0.0000000000000000000, -0.0000000000000000000, 1.000000000000000000 ) ) ;
#236 = DIRECTION ( 'NONE',  ( 1.000000000000000000, 0.0000000000000000000, 0.0000000000000000000 ) ) ;
#237 = DIRECTION ( 'NONE',  ( -1.000000000000000000, 1.224606353822377300E-016, 0.0000000000000000000 ) ) ;
#238 = AXIS2_PLACEMENT_3D ( 'NONE', #231, #237, #247 ) ;
#239 = CARTESIAN_POINT ( 'NONE',  ( 0.0000000000000000000, 0.0000000000000000000, -3.264727281813692500 ) ) ;
#240 = CARTESIAN_POINT ( 'NONE',  ( 0.0000000000000000000, 0.0000000000000000000, -3.264727281813692500 ) ) ;
#241 = CIRCLE ( 'NONE', #229, 25.39999999999999900 ) ;
#242 = AXIS2_PLACEMENT_3D ( 'NONE', #239, #248, #245 ) ;
#243 = DIRECTION ( 'NONE',  ( -0.0000000000000000000, -0.0000000000000000000, 1.000000000000000000 ) ) ;
#244 = AXIS2_PLACEMENT_3D ( 'NONE', #240, #235, #234 ) ;
#245 = DIRECTION ( 'NONE',  ( 1.000000000000000000, 0.0000000000000000000, 0.0000000000000000000 ) ) ;
#246 = CIRCLE ( 'NONE', #238, 38.63000000000000300 ) ;
#247 = DIRECTION ( 'NONE',  ( -1.224606353822377300E-016, -1.000000000000000000, 0.0000000000000000000 ) ) ;
#248 = DIRECTION ( 'NONE',  ( -0.0000000000000000000, -0.0000000000000000000, 1.000000000000000000 ) ) ;
#249 = CARTESIAN_POINT ( 'NONE',  ( 0.0000000000000000000, 0.0000000000000000000, 0.0000000000000000000 ) ) ;
#250 = APPLICATION_CONTEXT ( 'automotive_design' ) ;
#251 = DIRECTION ( 'NONE',  ( 0.0000000000000000000, 0.0000000000000000000, 1.000000000000000000 ) ) ;
#252 = PRODUCT ( '4512-E0W', '4512-E0W', '', ( #253 ) ) ;
#253 = PRODUCT_CONTEXT ( 'NONE', #250, 'mechanical' ) ;
#254 = APPLICATION_PROTOCOL_DEFINITION ( 'draft international standard', 'automotive_design', 1998, #250 ) ;
#255 = AXIS2_PLACEMENT_3D ( 'NONE', #249, #251, #256 ) ;
#256 = DIRECTION ( 'NONE',  ( 1.000000000000000000, 0.0000000000000000000, 0.0000000000000000000 ) ) ;
#257 = PRODUCT_DEFINITION_CONTEXT ( 'detailed design', #259, 'design' ) ;
#258 = APPLICATION_PROTOCOL_DEFINITION ( 'draft international standard', 'automotive_design', 1998, #259 ) ;
#259 = APPLICATION_CONTEXT ( 'automotive_design' ) ;
#260 = SHAPE_DEFINITION_REPRESENTATION ( #261, #54 ) ;
#261 = PRODUCT_DEFINITION_SHAPE ( 'NONE', 'NONE',  #24 ) ;
ENDSEC;
END-ISO-10303-21;
