ISO-10303-21;
HEADER;
FILE_DESCRIPTION (( 'STEP AP203' ),
    '1' );
FILE_NAME ('Web Model 68157_20788.step',
    '2022-03-15T19:19:25',
    ( '' ),
    ( '' ),
    'SwSTEP 2.0',
    'SolidWorks 2021',
    '' );
FILE_SCHEMA (( 'CONFIG_CONTROL_DESIGN' ));
ENDSEC;

DATA;
#1 = ADVANCED_BREP_SHAPE_REPRESENTATION ( 'Web Model 68157_20788', ( #79, #10 ), #174 ) ;
#2 = LOCAL_TIME ( 15, 19, 25.00000000000000000, #8 ) ;
#3 = AXIS2_PLACEMENT_3D ( 'NONE', #29, #83, #16 ) ;
#4 = PERSON_AND_ORGANIZATION ( #157, #43 ) ;
#5 = CALENDAR_DATE ( 2022, 15, 3 ) ;
#6 =( NAMED_UNIT ( * ) SI_UNIT ( $, .STERADIAN. ) SOLID_ANGLE_UNIT ( ) );
#7 = DIRECTION ( 'NONE',  ( 0.000000000000000000, 0.000000000000000000, 1.000000000000000000 ) ) ;
#8 = COORDINATED_UNIVERSAL_TIME_OFFSET ( 5, 0, .BEHIND. ) ;
#9 = DATE_AND_TIME ( #156, #2 ) ;
#10 = AXIS2_PLACEMENT_3D ( 'NONE', #147, #19, #70 ) ;
#11 = LOCAL_TIME ( 15, 19, 25.00000000000000000, #100 ) ;
#12 = PLANE ( 'NONE',  #3 ) ;
#13 = FACE_OUTER_BOUND ( 'NONE', #175, .T. ) ;
#14 = SHAPE_DEFINITION_REPRESENTATION ( #15, #1 ) ;
#15 = PRODUCT_DEFINITION_SHAPE ( 'NONE', 'NONE',  #78 ) ;
#16 = DIRECTION ( 'NONE',  ( 1.000000000000000000, 0.000000000000000000, -0.000000000000000000 ) ) ;
#17 = PLANE ( 'NONE',  #91 ) ;
#18 = CALENDAR_DATE ( 2022, 15, 3 ) ;
#19 = DIRECTION ( 'NONE',  ( 0.000000000000000000, 0.000000000000000000, 1.000000000000000000 ) ) ;
#20 = ADVANCED_FACE ( 'NONE', ( #13 ), #114, .T. ) ;
#21 = APPROVAL_ROLE ( '' ) ;
#22 = APPROVAL_ROLE ( '' ) ;
#23 = CLOSED_SHELL ( 'NONE', ( #20, #81, #102, #24 ) ) ;
#24 = ADVANCED_FACE ( 'NONE', ( #152 ), #12, .F. ) ;
#25 = VECTOR ( 'NONE', #169, 1000.000000000000000 ) ;
#26 = APPROVAL ( #56, 'UNSPECIFIED' ) ;
#27 = ORIENTED_EDGE ( 'NONE', *, *, #129, .F. ) ;
#28 = SECURITY_CLASSIFICATION ( '', '', #67 ) ;
#29 = CARTESIAN_POINT ( 'NONE',  ( 0.000000000000000000, 0.000000000000000000, 0.000000000000000000 ) ) ;
#30 = DIRECTION ( 'NONE',  ( 1.000000000000000000, 0.000000000000000000, 0.000000000000000000 ) ) ;
#31 = PRODUCT_DEFINITION_FORMATION_WITH_SPECIFIED_SOURCE ( 'ANY', '', #55, .NOT_KNOWN. ) ;
#32 = PRODUCT_RELATED_PRODUCT_CATEGORY ( 'detail', '', ( #55 ) ) ;
#33 = DIRECTION ( 'NONE',  ( -1.000000000000000000, 0.000000000000000000, 0.000000000000000000 ) ) ;
#34 = PERSON_AND_ORGANIZATION ( #157, #43 ) ;
#35 = CARTESIAN_POINT ( 'NONE',  ( -6.349999999999999645, 0.000000000000000000, 2.000000000000000000 ) ) ;
#36 = CARTESIAN_POINT ( 'NONE',  ( 0.000000000000000000, 0.000000000000000000, 2.000000000000000000 ) ) ;
#37 = APPROVAL_STATUS ( 'not_yet_approved' ) ;
#38 = EDGE_CURVE ( 'NONE', #142, #112, #127, .T. ) ;
#39 = AXIS2_PLACEMENT_3D ( 'NONE', #120, #7, #118 ) ;
#40 = ORIENTED_EDGE ( 'NONE', *, *, #95, .T. ) ;
#41 = ORIENTED_EDGE ( 'NONE', *, *, #117, .T. ) ;
#42 = COORDINATED_UNIVERSAL_TIME_OFFSET ( 5, 0, .BEHIND. ) ;
#43 = ORGANIZATION ( 'UNSPECIFIED', 'UNSPECIFIED', '' ) ;
#44 = DATE_TIME_ROLE ( 'classification_date' ) ;
#45 = CARTESIAN_POINT ( 'NONE',  ( 0.000000000000000000, 0.000000000000000000, 2.000000000000000000 ) ) ;
#46 = LOCAL_TIME ( 15, 19, 25.00000000000000000, #42 ) ;
#47 = DIRECTION ( 'NONE',  ( -0.000000000000000000, -0.000000000000000000, -1.000000000000000000 ) ) ;
#48 = CIRCLE ( 'NONE', #149, 6.349999999999999645 ) ;
#49 = CALENDAR_DATE ( 2022, 15, 3 ) ;
#50 = VECTOR ( 'NONE', #92, 1000.000000000000000 ) ;
#51 = DESIGN_CONTEXT ( 'detailed design', #116, 'design' ) ;
#52 = AXIS2_PLACEMENT_3D ( 'NONE', #166, #143, #99 ) ;
#53 = EDGE_LOOP ( 'NONE', ( #41, #40 ) ) ;
#54 = DIRECTION ( 'NONE',  ( 0.000000000000000000, 0.000000000000000000, 1.000000000000000000 ) ) ;
#55 = PRODUCT ( 'Web Model 68157_20788', 'Web Model 68157_20788', '', ( #170 ) ) ;
#56 = APPROVAL_STATUS ( 'not_yet_approved' ) ;
#57 = ORIENTED_EDGE ( 'NONE', *, *, #38, .F. ) ;
#58 = CARTESIAN_POINT ( 'NONE',  ( -6.349999999999999645, 0.000000000000000000, 2.000000000000000000 ) ) ;
#59 = DIRECTION ( 'NONE',  ( 1.000000000000000000, 0.000000000000000000, -0.000000000000000000 ) ) ;
#60 = CC_DESIGN_PERSON_AND_ORGANIZATION_ASSIGNMENT ( #137, #96, ( #31 ) ) ;
#61 = COORDINATED_UNIVERSAL_TIME_OFFSET ( 5, 0, .BEHIND. ) ;
#62 = CC_DESIGN_PERSON_AND_ORGANIZATION_ASSIGNMENT ( #71, #138, ( #28 ) ) ;
#63 = CC_DESIGN_APPROVAL ( #97, ( #31 ) ) ;
#64 = EDGE_LOOP ( 'NONE', ( #115, #131, #141, #151 ) ) ;
#65 = APPROVAL_ROLE ( '' ) ;
#66 = CARTESIAN_POINT ( 'NONE',  ( 0.000000000000000000, 0.000000000000000000, 0.000000000000000000 ) ) ;
#67 = SECURITY_CLASSIFICATION_LEVEL ( 'unclassified' ) ;
#68 = AXIS2_PLACEMENT_3D ( 'NONE', #155, #47, #33 ) ;
#69 = DIRECTION ( 'NONE',  ( 0.000000000000000000, 0.000000000000000000, 1.000000000000000000 ) ) ;
#70 = DIRECTION ( 'NONE',  ( 1.000000000000000000, 0.000000000000000000, 0.000000000000000000 ) ) ;
#71 = PERSON_AND_ORGANIZATION ( #157, #43 ) ;
#72 =( LENGTH_UNIT ( ) NAMED_UNIT ( * ) SI_UNIT ( .MILLI., .METRE. ) );
#73 = CC_DESIGN_DATE_AND_TIME_ASSIGNMENT ( #168, #44, ( #28 ) ) ;
#74 = PERSON_AND_ORGANIZATION_ROLE ( 'design_owner' ) ;
#75 = DIRECTION ( 'NONE',  ( 0.000000000000000000, 0.000000000000000000, 1.000000000000000000 ) ) ;
#76 = APPROVAL_DATE_TIME ( #173, #97 ) ;
#77 = AXIS2_PLACEMENT_3D ( 'NONE', #66, #54, #30 ) ;
#78 = PRODUCT_DEFINITION ( 'UNKNOWN', '', #31, #51 ) ;
#79 = MANIFOLD_SOLID_BREP ( 'Boss-Extrude1', #23 ) ;
#80 = EDGE_LOOP ( 'NONE', ( #27, #57 ) ) ;
#81 = ADVANCED_FACE ( 'NONE', ( #85 ), #153, .T. ) ;
#82 = VERTEX_POINT ( 'NONE', #35 ) ;
#83 = DIRECTION ( 'NONE',  ( 0.000000000000000000, 0.000000000000000000, 1.000000000000000000 ) ) ;
#84 = DATE_AND_TIME ( #18, #11 ) ;
#85 = FACE_OUTER_BOUND ( 'NONE', #64, .T. ) ;
#86 = APPROVAL ( #123, 'UNSPECIFIED' ) ;
#87 = DIRECTION ( 'NONE',  ( 0.000000000000000000, 0.000000000000000000, 1.000000000000000000 ) ) ;
#88 = LINE ( 'NONE', #104, #50 ) ;
#89 = APPLICATION_PROTOCOL_DEFINITION ( 'international standard', 'config_control_design', 1994, #116 ) ;
#90 = CC_DESIGN_PERSON_AND_ORGANIZATION_ASSIGNMENT ( #34, #74, ( #55 ) ) ;
#91 = AXIS2_PLACEMENT_3D ( 'NONE', #36, #69, #59 ) ;
#92 = DIRECTION ( 'NONE',  ( -0.000000000000000000, -0.000000000000000000, -1.000000000000000000 ) ) ;
#93 = CALENDAR_DATE ( 2022, 15, 3 ) ;
#94 = LOCAL_TIME ( 15, 19, 25.00000000000000000, #61 ) ;
#95 = EDGE_CURVE ( 'NONE', #128, #82, #130, .T. ) ;
#96 = PERSON_AND_ORGANIZATION_ROLE ( 'creator' ) ;
#97 = APPROVAL ( #37, 'UNSPECIFIED' ) ;
#98 = APPLICATION_CONTEXT ( 'configuration controlled 3d designs of mechanical parts and assemblies' ) ;
#99 = DIRECTION ( 'NONE',  ( -1.000000000000000000, 0.000000000000000000, 0.000000000000000000 ) ) ;
#100 = COORDINATED_UNIVERSAL_TIME_OFFSET ( 5, 0, .BEHIND. ) ;
#101 = ORIENTED_EDGE ( 'NONE', *, *, #135, .T. ) ;
#102 = ADVANCED_FACE ( 'NONE', ( #133 ), #17, .T. ) ;
#103 = LOCAL_TIME ( 15, 19, 25.00000000000000000, #109 ) ;
#104 = CARTESIAN_POINT ( 'NONE',  ( 6.349999999999999645, 7.776507174585692163E-16, 2.000000000000000000 ) ) ;
#105 = EDGE_CURVE ( 'NONE', #82, #112, #146, .T. ) ;
#106 =( NAMED_UNIT ( * ) PLANE_ANGLE_UNIT ( ) SI_UNIT ( $, .RADIAN. ) );
#107 = PERSON_AND_ORGANIZATION ( #157, #43 ) ;
#108 = AXIS2_PLACEMENT_3D ( 'NONE', #136, #75, #122 ) ;
#109 = COORDINATED_UNIVERSAL_TIME_OFFSET ( 5, 0, .BEHIND. ) ;
#110 = CC_DESIGN_APPROVAL ( #26, ( #28 ) ) ;
#111 = UNCERTAINTY_MEASURE_WITH_UNIT (LENGTH_MEASURE( 1.000000000000000082E-05 ), #72, 'distance_accuracy_value', 'NONE');
#112 = VERTEX_POINT ( 'NONE', #132 ) ;
#113 = PERSON_AND_ORGANIZATION ( #157, #43 ) ;
#114 = CYLINDRICAL_SURFACE ( 'NONE', #52, 6.349999999999999645 ) ;
#115 = ORIENTED_EDGE ( 'NONE', *, *, #135, .F. ) ;
#116 = APPLICATION_CONTEXT ( 'configuration controlled 3d designs of mechanical parts and assemblies' ) ;
#117 = EDGE_CURVE ( 'NONE', #82, #128, #48, .T. ) ;
#118 = DIRECTION ( 'NONE',  ( 1.000000000000000000, 0.000000000000000000, 0.000000000000000000 ) ) ;
#119 = APPROVAL_PERSON_ORGANIZATION ( #159, #97, #22 ) ;
#120 = CARTESIAN_POINT ( 'NONE',  ( 0.000000000000000000, 0.000000000000000000, 0.000000000000000000 ) ) ;
#121 = CC_DESIGN_PERSON_AND_ORGANIZATION_ASSIGNMENT ( #4, #126, ( #31 ) ) ;
#122 = DIRECTION ( 'NONE',  ( 1.000000000000000000, 0.000000000000000000, 0.000000000000000000 ) ) ;
#123 = APPROVAL_STATUS ( 'not_yet_approved' ) ;
#124 = APPROVAL_DATE_TIME ( #9, #86 ) ;
#125 = DATE_TIME_ROLE ( 'creation_date' ) ;
#126 = PERSON_AND_ORGANIZATION_ROLE ( 'design_supplier' ) ;
#127 = CIRCLE ( 'NONE', #77, 6.349999999999999645 ) ;
#128 = VERTEX_POINT ( 'NONE', #134 ) ;
#129 = EDGE_CURVE ( 'NONE', #112, #142, #150, .T. ) ;
#130 = CIRCLE ( 'NONE', #108, 6.349999999999999645 ) ;
#131 = ORIENTED_EDGE ( 'NONE', *, *, #117, .F. ) ;
#132 = CARTESIAN_POINT ( 'NONE',  ( -6.349999999999999645, 0.000000000000000000, 0.000000000000000000 ) ) ;
#133 = FACE_OUTER_BOUND ( 'NONE', #53, .T. ) ;
#134 = CARTESIAN_POINT ( 'NONE',  ( 6.349999999999999645, 7.776507174585692163E-16, 2.000000000000000000 ) ) ;
#135 = EDGE_CURVE ( 'NONE', #128, #142, #88, .T. ) ;
#136 = CARTESIAN_POINT ( 'NONE',  ( 0.000000000000000000, 0.000000000000000000, 2.000000000000000000 ) ) ;
#137 = PERSON_AND_ORGANIZATION ( #157, #43 ) ;
#138 = PERSON_AND_ORGANIZATION_ROLE ( 'classification_officer' ) ;
#139 = CC_DESIGN_APPROVAL ( #86, ( #78 ) ) ;
#140 = CC_DESIGN_DATE_AND_TIME_ASSIGNMENT ( #148, #125, ( #78 ) ) ;
#141 = ORIENTED_EDGE ( 'NONE', *, *, #105, .T. ) ;
#142 = VERTEX_POINT ( 'NONE', #144 ) ;
#143 = DIRECTION ( 'NONE',  ( -0.000000000000000000, -0.000000000000000000, -1.000000000000000000 ) ) ;
#144 = CARTESIAN_POINT ( 'NONE',  ( 6.349999999999999645, 7.776507174585692163E-16, 0.000000000000000000 ) ) ;
#145 = CC_DESIGN_SECURITY_CLASSIFICATION ( #28, ( #31 ) ) ;
#146 = LINE ( 'NONE', #58, #25 ) ;
#147 = CARTESIAN_POINT ( 'NONE',  ( 0.000000000000000000, 0.000000000000000000, 0.000000000000000000 ) ) ;
#148 = DATE_AND_TIME ( #49, #103 ) ;
#149 = AXIS2_PLACEMENT_3D ( 'NONE', #45, #87, #171 ) ;
#150 = CIRCLE ( 'NONE', #39, 6.349999999999999645 ) ;
#151 = ORIENTED_EDGE ( 'NONE', *, *, #129, .T. ) ;
#152 = FACE_OUTER_BOUND ( 'NONE', #80, .T. ) ;
#153 = CYLINDRICAL_SURFACE ( 'NONE', #68, 6.349999999999999645 ) ;
#154 = APPLICATION_PROTOCOL_DEFINITION ( 'international standard', 'config_control_design', 1994, #98 ) ;
#155 = CARTESIAN_POINT ( 'NONE',  ( 0.000000000000000000, 0.000000000000000000, 2.000000000000000000 ) ) ;
#156 = CALENDAR_DATE ( 2022, 15, 3 ) ;
#157 = PERSON ( 'UNSPECIFIED', 'UNSPECIFIED', 'UNSPECIFIED', ('UNSPECIFIED'), ('UNSPECIFIED'), ('UNSPECIFIED') ) ;
#158 = PERSON_AND_ORGANIZATION_ROLE ( 'creator' ) ;
#159 = PERSON_AND_ORGANIZATION ( #157, #43 ) ;
#160 = CC_DESIGN_PERSON_AND_ORGANIZATION_ASSIGNMENT ( #172, #158, ( #78 ) ) ;
#161 = APPROVAL_PERSON_ORGANIZATION ( #113, #26, #65 ) ;
#162 = APPROVAL_PERSON_ORGANIZATION ( #107, #86, #21 ) ;
#163 = ORIENTED_EDGE ( 'NONE', *, *, #105, .F. ) ;
#164 = ORIENTED_EDGE ( 'NONE', *, *, #95, .F. ) ;
#165 = APPROVAL_DATE_TIME ( #84, #26 ) ;
#166 = CARTESIAN_POINT ( 'NONE',  ( 0.000000000000000000, 0.000000000000000000, 2.000000000000000000 ) ) ;
#167 = ORIENTED_EDGE ( 'NONE', *, *, #38, .T. ) ;
#168 = DATE_AND_TIME ( #5, #46 ) ;
#169 = DIRECTION ( 'NONE',  ( -0.000000000000000000, -0.000000000000000000, -1.000000000000000000 ) ) ;
#170 = MECHANICAL_CONTEXT ( 'NONE', #98, 'mechanical' ) ;
#171 = DIRECTION ( 'NONE',  ( 1.000000000000000000, 0.000000000000000000, 0.000000000000000000 ) ) ;
#172 = PERSON_AND_ORGANIZATION ( #157, #43 ) ;
#173 = DATE_AND_TIME ( #93, #94 ) ;
#174 =( GEOMETRIC_REPRESENTATION_CONTEXT ( 3 ) GLOBAL_UNCERTAINTY_ASSIGNED_CONTEXT ( ( #111 ) ) GLOBAL_UNIT_ASSIGNED_CONTEXT ( ( #72, #106, #6 ) ) REPRESENTATION_CONTEXT ( 'NONE', 'WORKASPACE' ) );
#175 = EDGE_LOOP ( 'NONE', ( #164, #101, #167, #163 ) ) ;
ENDSEC;
END-ISO-10303-21;
