ISO-10303-21;
HEADER;
FILE_DESCRIPTION (( 'STEP AP203' ),
    '1' );
FILE_NAME ('Web Model 63208_15969.step',
    '2020-10-07T17:37:53',
    ( '' ),
    ( '' ),
    'SwSTEP 2.0',
    'SolidWorks 2018',
    '' );
FILE_SCHEMA (( 'CONFIG_CONTROL_DESIGN' ));
ENDSEC;

DATA;
#1 = CC_DESIGN_PERSON_AND_ORGANIZATION_ASSIGNMENT ( #84, #43, ( #53 ) ) ;
#2 = VERTEX_POINT ( 'NONE', #96 ) ;
#3 = DIRECTION ( 'NONE',  ( 0.0000000000000000000, 0.0000000000000000000, 1.000000000000000000 ) ) ;
#4 = ORIENTED_EDGE ( 'NONE', *, *, #95, .T. ) ;
#5 = AXIS2_PLACEMENT_3D ( 'NONE', #42, #77, #144 ) ;
#6 = ADVANCED_BREP_SHAPE_REPRESENTATION ( 'Web Model 63208_15969', ( #73, #152 ), #74 ) ;
#7 = ORIENTED_EDGE ( 'NONE', *, *, #119, .T. ) ;
#8 = ADVANCED_FACE ( 'NONE', ( #15 ), #140, .T. ) ;
#9 = COORDINATED_UNIVERSAL_TIME_OFFSET ( 5, 0, .BEHIND. ) ;
#10 = DIRECTION ( 'NONE',  ( -0.0000000000000000000, -0.0000000000000000000, -1.000000000000000000 ) ) ;
#11 = ADVANCED_FACE ( 'NONE', ( #17 ), #105, .T. ) ;
#12 = APPLICATION_PROTOCOL_DEFINITION ( 'international standard', 'config_control_design', 1994, #58 ) ;
#13 = PRODUCT_DEFINITION_FORMATION_WITH_SPECIFIED_SOURCE ( 'ANY', '', #148, .NOT_KNOWN. ) ;
#14 = ORIENTED_EDGE ( 'NONE', *, *, #92, .T. ) ;
#15 = FACE_OUTER_BOUND ( 'NONE', #86, .T. ) ;
#16 = AXIS2_PLACEMENT_3D ( 'NONE', #137, #136, #118 ) ;
#17 = FACE_OUTER_BOUND ( 'NONE', #133, .T. ) ;
#18 = AXIS2_PLACEMENT_3D ( 'NONE', #143, #89, #129 ) ;
#19 = DIRECTION ( 'NONE',  ( 0.0000000000000000000, 0.0000000000000000000, 1.000000000000000000 ) ) ;
#20 = LINE ( 'NONE', #83, #68 ) ;
#21 = PRODUCT_DEFINITION_SHAPE ( 'NONE', 'NONE',  #53 ) ;
#22 = LOCAL_TIME ( 13, 37, 53.00000000000000000, #9 ) ;
#23 = APPROVAL_DATE_TIME ( #121, #78 ) ;
#24 = AXIS2_PLACEMENT_3D ( 'NONE', #25, #107, #169 ) ;
#25 = CARTESIAN_POINT ( 'NONE',  ( 0.0000000000000000000, 0.0000000000000000000, 3.000000000000000000 ) ) ;
#26 = CIRCLE ( 'NONE', #24, 15.00000000000000000 ) ;
#27 = APPLICATION_CONTEXT ( 'configuration controlled 3d designs of mechanical parts and assemblies' ) ;
#28 =( NAMED_UNIT ( * ) SI_UNIT ( $, .STERADIAN. ) SOLID_ANGLE_UNIT ( ) );
#29 = PERSON_AND_ORGANIZATION ( #117, #64 ) ;
#30 = APPROVAL_ROLE ( '' ) ;
#31 = COORDINATED_UNIVERSAL_TIME_OFFSET ( 5, 0, .BEHIND. ) ;
#32 = EDGE_LOOP ( 'NONE', ( #116, #36 ) ) ;
#33 = PRODUCT_RELATED_PRODUCT_CATEGORY ( 'detail', '', ( #148 ) ) ;
#34 = CC_DESIGN_APPROVAL ( #146, ( #13 ) ) ;
#35 = CC_DESIGN_PERSON_AND_ORGANIZATION_ASSIGNMENT ( #29, #70, ( #13 ) ) ;
#36 = ORIENTED_EDGE ( 'NONE', *, *, #157, .F. ) ;
#37 = COORDINATED_UNIVERSAL_TIME_OFFSET ( 5, 0, .BEHIND. ) ;
#38 = CARTESIAN_POINT ( 'NONE',  ( 0.0000000000000000000, 0.0000000000000000000, 3.000000000000000000 ) ) ;
#39 = FACE_OUTER_BOUND ( 'NONE', #32, .T. ) ;
#40 = ADVANCED_FACE ( 'NONE', ( #39 ), #150, .F. ) ;
#41 = CARTESIAN_POINT ( 'NONE',  ( 0.0000000000000000000, 0.0000000000000000000, 0.0000000000000000000 ) ) ;
#42 = CARTESIAN_POINT ( 'NONE',  ( 0.0000000000000000000, 0.0000000000000000000, 3.000000000000000000 ) ) ;
#43 = PERSON_AND_ORGANIZATION_ROLE ( 'creator' ) ;
#44 = CC_DESIGN_PERSON_AND_ORGANIZATION_ASSIGNMENT ( #104, #98, ( #13 ) ) ;
#45 = ORIENTED_EDGE ( 'NONE', *, *, #92, .F. ) ;
#46 = AXIS2_PLACEMENT_3D ( 'NONE', #103, #19, #165 ) ;
#47 = SECURITY_CLASSIFICATION ( '', '', #159 ) ;
#48 = EDGE_LOOP ( 'NONE', ( #45, #4, #101, #60 ) ) ;
#49 = APPROVAL_DATE_TIME ( #54, #76 ) ;
#50 = CALENDAR_DATE ( 2020, 7, 10 ) ;
#51 = PERSON_AND_ORGANIZATION ( #117, #64 ) ;
#52 = LOCAL_TIME ( 13, 37, 53.00000000000000000, #151 ) ;
#53 = PRODUCT_DEFINITION ( 'UNKNOWN', '', #13, #138 ) ;
#54 = DATE_AND_TIME ( #82, #164 ) ;
#55 = CARTESIAN_POINT ( 'NONE',  ( -15.00000000000000000, 0.0000000000000000000, 3.000000000000000000 ) ) ;
#56 = DATE_TIME_ROLE ( 'classification_date' ) ;
#57 = VERTEX_POINT ( 'NONE', #63 ) ;
#58 = APPLICATION_CONTEXT ( 'configuration controlled 3d designs of mechanical parts and assemblies' ) ;
#59 = CIRCLE ( 'NONE', #132, 15.00000000000000000 ) ;
#60 = ORIENTED_EDGE ( 'NONE', *, *, #119, .F. ) ;
#61 = CC_DESIGN_PERSON_AND_ORGANIZATION_ASSIGNMENT ( #161, #79, ( #47 ) ) ;
#62 = CARTESIAN_POINT ( 'NONE',  ( 15.00000000000000000, 1.836970198721029589E-15, 0.0000000000000000000 ) ) ;
#63 = CARTESIAN_POINT ( 'NONE',  ( 15.00000000000000000, 1.836970198721029589E-15, 3.000000000000000000 ) ) ;
#64 = ORGANIZATION ( 'UNSPECIFIED', 'UNSPECIFIED', '' ) ;
#65 = VERTEX_POINT ( 'NONE', #154 ) ;
#66 = DIRECTION ( 'NONE',  ( 0.0000000000000000000, 0.0000000000000000000, 1.000000000000000000 ) ) ;
#67 = DATE_TIME_ROLE ( 'creation_date' ) ;
#68 = VECTOR ( 'NONE', #167, 1000.000000000000000 ) ;
#69 = APPROVAL_ROLE ( '' ) ;
#70 = PERSON_AND_ORGANIZATION_ROLE ( 'creator' ) ;
#71 = CC_DESIGN_DATE_AND_TIME_ASSIGNMENT ( #115, #56, ( #47 ) ) ;
#72 = FACE_OUTER_BOUND ( 'NONE', #48, .T. ) ;
#73 = MANIFOLD_SOLID_BREP ( 'Extrude1', #153 ) ;
#74 =( GEOMETRIC_REPRESENTATION_CONTEXT ( 3 ) GLOBAL_UNCERTAINTY_ASSIGNED_CONTEXT ( ( #128 ) ) GLOBAL_UNIT_ASSIGNED_CONTEXT ( ( #113, #172, #28 ) ) REPRESENTATION_CONTEXT ( 'NONE', 'WORKASPACE' ) );
#75 = ORIENTED_EDGE ( 'NONE', *, *, #95, .F. ) ;
#76 = APPROVAL ( #124, 'UNSPECIFIED' ) ;
#77 = DIRECTION ( 'NONE',  ( -0.0000000000000000000, -0.0000000000000000000, -1.000000000000000000 ) ) ;
#78 = APPROVAL ( #112, 'UNSPECIFIED' ) ;
#79 = PERSON_AND_ORGANIZATION_ROLE ( 'classification_officer' ) ;
#80 = VERTEX_POINT ( 'NONE', #62 ) ;
#81 = COORDINATED_UNIVERSAL_TIME_OFFSET ( 5, 0, .BEHIND. ) ;
#82 = CALENDAR_DATE ( 2020, 7, 10 ) ;
#83 = CARTESIAN_POINT ( 'NONE',  ( 15.00000000000000000, 1.836970198721029589E-15, 3.000000000000000000 ) ) ;
#84 = PERSON_AND_ORGANIZATION ( #117, #64 ) ;
#85 = CARTESIAN_POINT ( 'NONE',  ( 0.0000000000000000000, 0.0000000000000000000, 3.000000000000000000 ) ) ;
#86 = EDGE_LOOP ( 'NONE', ( #75, #145, #7, #90 ) ) ;
#87 = CC_DESIGN_DATE_AND_TIME_ASSIGNMENT ( #106, #67, ( #53 ) ) ;
#88 = DIRECTION ( 'NONE',  ( 0.0000000000000000000, 0.0000000000000000000, 1.000000000000000000 ) ) ;
#89 = DIRECTION ( 'NONE',  ( 0.0000000000000000000, 0.0000000000000000000, 1.000000000000000000 ) ) ;
#90 = ORIENTED_EDGE ( 'NONE', *, *, #135, .T. ) ;
#91 = DIRECTION ( 'NONE',  ( 1.000000000000000000, 0.0000000000000000000, 0.0000000000000000000 ) ) ;
#92 = EDGE_CURVE ( 'NONE', #57, #65, #26, .T. ) ;
#93 = PERSON_AND_ORGANIZATION ( #117, #64 ) ;
#94 = EDGE_CURVE ( 'NONE', #65, #57, #59, .T. ) ;
#95 = EDGE_CURVE ( 'NONE', #57, #80, #20, .T. ) ;
#96 = CARTESIAN_POINT ( 'NONE',  ( -15.00000000000000000, 0.0000000000000000000, 0.0000000000000000000 ) ) ;
#97 = DATE_AND_TIME ( #139, #22 ) ;
#98 = PERSON_AND_ORGANIZATION_ROLE ( 'design_supplier' ) ;
#99 = CC_DESIGN_PERSON_AND_ORGANIZATION_ASSIGNMENT ( #93, #127, ( #148 ) ) ;
#100 = APPROVAL_PERSON_ORGANIZATION ( #170, #76, #30 ) ;
#101 = ORIENTED_EDGE ( 'NONE', *, *, #157, .T. ) ;
#102 = AXIS2_PLACEMENT_3D ( 'NONE', #38, #3, #120 ) ;
#103 = CARTESIAN_POINT ( 'NONE',  ( 0.0000000000000000000, 0.0000000000000000000, 0.0000000000000000000 ) ) ;
#104 = PERSON_AND_ORGANIZATION ( #117, #64 ) ;
#105 = PLANE ( 'NONE',  #102 ) ;
#106 = DATE_AND_TIME ( #149, #52 ) ;
#107 = DIRECTION ( 'NONE',  ( 0.0000000000000000000, 0.0000000000000000000, 1.000000000000000000 ) ) ;
#108 = LOCAL_TIME ( 13, 37, 53.00000000000000000, #37 ) ;
#109 = MECHANICAL_CONTEXT ( 'NONE', #58, 'mechanical' ) ;
#110 = SHAPE_DEFINITION_REPRESENTATION ( #21, #6 ) ;
#111 = APPROVAL_ROLE ( '' ) ;
#112 = APPROVAL_STATUS ( 'not_yet_approved' ) ;
#113 =( LENGTH_UNIT ( ) NAMED_UNIT ( * ) SI_UNIT ( .MILLI., .METRE. ) );
#114 = APPROVAL_PERSON_ORGANIZATION ( #166, #78, #111 ) ;
#115 = DATE_AND_TIME ( #50, #108 ) ;
#116 = ORIENTED_EDGE ( 'NONE', *, *, #135, .F. ) ;
#117 = PERSON ( 'UNSPECIFIED', 'UNSPECIFIED', 'UNSPECIFIED', ('UNSPECIFIED'), ('UNSPECIFIED'), ('UNSPECIFIED') ) ;
#118 = DIRECTION ( 'NONE',  ( -1.000000000000000000, 0.0000000000000000000, 0.0000000000000000000 ) ) ;
#119 = EDGE_CURVE ( 'NONE', #65, #2, #174, .T. ) ;
#120 = DIRECTION ( 'NONE',  ( 1.000000000000000000, 0.0000000000000000000, -0.0000000000000000000 ) ) ;
#121 = DATE_AND_TIME ( #158, #162 ) ;
#122 = AXIS2_PLACEMENT_3D ( 'NONE', #41, #171, #125 ) ;
#123 = ORIENTED_EDGE ( 'NONE', *, *, #94, .T. ) ;
#124 = APPROVAL_STATUS ( 'not_yet_approved' ) ;
#125 = DIRECTION ( 'NONE',  ( 1.000000000000000000, 0.0000000000000000000, 0.0000000000000000000 ) ) ;
#126 = ADVANCED_FACE ( 'NONE', ( #72 ), #160, .T. ) ;
#127 = PERSON_AND_ORGANIZATION_ROLE ( 'design_owner' ) ;
#128 = UNCERTAINTY_MEASURE_WITH_UNIT (LENGTH_MEASURE( 1.000000000000000082E-05 ), #113, 'distance_accuracy_value', 'NONE');
#129 = DIRECTION ( 'NONE',  ( 1.000000000000000000, 0.0000000000000000000, 0.0000000000000000000 ) ) ;
#130 = APPROVAL_PERSON_ORGANIZATION ( #51, #146, #69 ) ;
#131 = CIRCLE ( 'NONE', #18, 15.00000000000000000 ) ;
#132 = AXIS2_PLACEMENT_3D ( 'NONE', #85, #66, #91 ) ;
#133 = EDGE_LOOP ( 'NONE', ( #123, #14 ) ) ;
#134 = VECTOR ( 'NONE', #10, 1000.000000000000000 ) ;
#135 = EDGE_CURVE ( 'NONE', #2, #80, #168, .T. ) ;
#136 = DIRECTION ( 'NONE',  ( -0.0000000000000000000, -0.0000000000000000000, -1.000000000000000000 ) ) ;
#137 = CARTESIAN_POINT ( 'NONE',  ( 0.0000000000000000000, 0.0000000000000000000, 3.000000000000000000 ) ) ;
#138 = DESIGN_CONTEXT ( 'detailed design', #27, 'design' ) ;
#139 = CALENDAR_DATE ( 2020, 7, 10 ) ;
#140 = CYLINDRICAL_SURFACE ( 'NONE', #16, 15.00000000000000000 ) ;
#141 = CC_DESIGN_APPROVAL ( #78, ( #53 ) ) ;
#142 = CARTESIAN_POINT ( 'NONE',  ( 0.0000000000000000000, 0.0000000000000000000, 0.0000000000000000000 ) ) ;
#143 = CARTESIAN_POINT ( 'NONE',  ( 0.0000000000000000000, 0.0000000000000000000, 0.0000000000000000000 ) ) ;
#144 = DIRECTION ( 'NONE',  ( -1.000000000000000000, 0.0000000000000000000, 0.0000000000000000000 ) ) ;
#145 = ORIENTED_EDGE ( 'NONE', *, *, #94, .F. ) ;
#146 = APPROVAL ( #173, 'UNSPECIFIED' ) ;
#147 = APPROVAL_DATE_TIME ( #97, #146 ) ;
#148 = PRODUCT ( 'Web Model 63208_15969', 'Web Model 63208_15969', '', ( #109 ) ) ;
#149 = CALENDAR_DATE ( 2020, 7, 10 ) ;
#150 = PLANE ( 'NONE',  #46 ) ;
#151 = COORDINATED_UNIVERSAL_TIME_OFFSET ( 5, 0, .BEHIND. ) ;
#152 = AXIS2_PLACEMENT_3D ( 'NONE', #142, #88, #156 ) ;
#153 = CLOSED_SHELL ( 'NONE', ( #126, #8, #11, #40 ) ) ;
#154 = CARTESIAN_POINT ( 'NONE',  ( -15.00000000000000000, 0.0000000000000000000, 3.000000000000000000 ) ) ;
#155 = APPLICATION_PROTOCOL_DEFINITION ( 'international standard', 'config_control_design', 1994, #27 ) ;
#156 = DIRECTION ( 'NONE',  ( 1.000000000000000000, 0.0000000000000000000, 0.0000000000000000000 ) ) ;
#157 = EDGE_CURVE ( 'NONE', #80, #2, #131, .T. ) ;
#158 = CALENDAR_DATE ( 2020, 7, 10 ) ;
#159 = SECURITY_CLASSIFICATION_LEVEL ( 'unclassified' ) ;
#160 = CYLINDRICAL_SURFACE ( 'NONE', #5, 15.00000000000000000 ) ;
#161 = PERSON_AND_ORGANIZATION ( #117, #64 ) ;
#162 = LOCAL_TIME ( 13, 37, 53.00000000000000000, #31 ) ;
#163 = CC_DESIGN_APPROVAL ( #76, ( #47 ) ) ;
#164 = LOCAL_TIME ( 13, 37, 53.00000000000000000, #81 ) ;
#165 = DIRECTION ( 'NONE',  ( 1.000000000000000000, 0.0000000000000000000, -0.0000000000000000000 ) ) ;
#166 = PERSON_AND_ORGANIZATION ( #117, #64 ) ;
#167 = DIRECTION ( 'NONE',  ( -0.0000000000000000000, -0.0000000000000000000, -1.000000000000000000 ) ) ;
#168 = CIRCLE ( 'NONE', #122, 15.00000000000000000 ) ;
#169 = DIRECTION ( 'NONE',  ( 1.000000000000000000, 0.0000000000000000000, 0.0000000000000000000 ) ) ;
#170 = PERSON_AND_ORGANIZATION ( #117, #64 ) ;
#171 = DIRECTION ( 'NONE',  ( 0.0000000000000000000, 0.0000000000000000000, 1.000000000000000000 ) ) ;
#172 =( NAMED_UNIT ( * ) PLANE_ANGLE_UNIT ( ) SI_UNIT ( $, .RADIAN. ) );
#173 = APPROVAL_STATUS ( 'not_yet_approved' ) ;
#174 = LINE ( 'NONE', #55, #134 ) ;
#175 = CC_DESIGN_SECURITY_CLASSIFICATION ( #47, ( #13 ) ) ;
ENDSEC;
END-ISO-10303-21;
