  0
SECTION
  2
HEADER
  9
$ACADVER
  1
AC1015
  9
$ACADMAINTVER
 70
           6
  9
$DWGCODEPAGE
  3
ANSI_1252
  9
$INSBASE
 10
0.0
 20
0.0
 30
0.0
  9
$EXTMIN
 10
0.0
 20
0.0
 30
0.0
  9
$EXTMAX
 10
10.124675
 20
7.565485
 30
0.23292
  9
$LIMMIN
 10
0.0
 20
0.0
  9
$LIMMAX
 10
11.0
 20
8.5
  9
$ORTHOMODE
 70
           1
  9
$REGENMODE
 70
           1
  9
$FILLMODE
 70
           1
  9
$QTEXTMODE
 70
           0
  9
$MIRRTEXT
 70
           1
  9
$LTSCALE
 40
0.4
  9
$ATTMODE
 70
           1
  9
$TEXTSIZE
 40
0.04
  9
$TRACEWID
 40
0.03
  9
$TEXTSTYLE
  7
STANDARD
  9
$CLAYER
  8
BORDER
  9
$CELTYPE
  6
ByLayer
  9
$CECOLOR
 62
         256
  9
$CELTSCALE
 40
1.0
  9
$DISPSILH
 70
           0
  9
$DIMSCALE
 40
1.0
  9
$DIMASZ
 40
0.18
  9
$DIMEXO
 40
0.0625
  9
$DIMDLI
 40
0.38
  9
$DIMRND
 40
0.0
  9
$DIMDLE
 40
0.0
  9
$DIMEXE
 40
0.09
  9
$DIMTP
 40
0.0
  9
$DIMTM
 40
0.0
  9
$DIMTXT
 40
0.1
  9
$DIMCEN
 40
0.09
  9
$DIMTSZ
 40
0.0
  9
$DIMTOL
 70
           0
  9
$DIMLIM
 70
           0
  9
$DIMTIH
 70
           1
  9
$DIMTOH
 70
           1
  9
$DIMSE1
 70
           0
  9
$DIMSE2
 70
           0
  9
$DIMTAD
 70
           0
  9
$DIMZIN
 70
           0
  9
$DIMBLK
  1

  9
$DIMASO
 70
           0
  9
$DIMSHO
 70
           0
  9
$DIMPOST
  1

  9
$DIMAPOST
  1

  9
$DIMALT
 70
           0
  9
$DIMALTD
 70
           2
  9
$DIMALTF
 40
25.4
  9
$DIMLFAC
 40
1.0
  9
$DIMTOFL
 70
           0
  9
$DIMTVP
 40
0.0
  9
$DIMTIX
 70
           0
  9
$DIMSOXD
 70
           0
  9
$DIMSAH
 70
           0
  9
$DIMBLK1
  1

  9
$DIMBLK2
  1

  9
$DIMSTYLE
  2
STANDARD
  9
$DIMCLRD
 70
           0
  9
$DIMCLRE
 70
           0
  9
$DIMCLRT
 70
           0
  9
$DIMTFAC
 40
1.0
  9
$DIMGAP
 40
0.09
  9
$DIMJUST
 70
           0
  9
$DIMSD1
 70
           0
  9
$DIMSD2
 70
           0
  9
$DIMTOLJ
 70
           1
  9
$DIMTZIN
 70
           0
  9
$DIMALTZ
 70
           0
  9
$DIMALTTZ
 70
           0
  9
$DIMUPT
 70
           1
  9
$DIMDEC
 70
           3
  9
$DIMTDEC
 70
           3
  9
$DIMALTU
 70
           2
  9
$DIMALTTD
 70
           2
  9
$DIMTXSTY
  7
STANDARD
  9
$DIMAUNIT
 70
           0
  9
$DIMADEC
 70
           2
  9
$DIMALTRND
 40
0.0
  9
$DIMAZIN
 70
           0
  9
$DIMDSEP
 70
           0
  9
$DIMATFIT
 70
           0
  9
$DIMFRAC
 70
           0
  9
$DIMLDRBLK
  1

  9
$DIMLUNIT
 70
           2
  9
$DIMLWD
 70
           0
  9
$DIMLWE
 70
           0
  9
$DIMTMOVE
 70
           0
  9
$LUNITS
 70
           2
  9
$LUPREC
 70
           3
  9
$SKETCHINC
 40
0.1
  9
$FILLETRAD
 40
0.0
  9
$AUNITS
 70
           0
  9
$AUPREC
 70
           2
  9
$MENU
  1
ACAD
  9
$ELEVATION
 40
0.0
  9
$PELEVATION
 40
0.0
  9
$THICKNESS
 40
0.0
  9
$LIMCHECK
 70
           0
  9
$CHAMFERA
 40
0.02
  9
$CHAMFERB
 40
0.02
  9
$CHAMFERC
 40
0.0
  9
$CHAMFERD
 40
0.0
  9
$SKPOLY
 70
           0
  9
$TDCREATE
 40
2449731.438348600
  9
$TDUCREATE
 40
0.000000000
  9
$TDUPDATE
 40
2454041.647880347
  9
$TDUUPDATE
 40
2454041.856213681
  9
$TDINDWG
 40
0.0126187384
  9
$TDUSRTIMER
 40
0.0126187384
  9
$USRTIMER
 70
           1
  9
$ANGBASE
 50
0.0
  9
$ANGDIR
 70
           0
  9
$PDMODE
 70
           0
  9
$PDSIZE
 40
0.0
  9
$PLINEWID
 40
0.015
  9
$SPLFRAME
 70
           0
  9
$SPLINETYPE
 70
           6
  9
$SPLINESEGS
 70
           8
  9
$HANDSEED
  5
4F3
  9
$SURFTAB1
 70
           6
  9
$SURFTAB2
 70
           6
  9
$SURFTYPE
 70
           6
  9
$SURFU
 70
           6
  9
$SURFV
 70
           6
  9
$UCSBASE
  2

  9
$UCSNAME
  2

  9
$UCSORG
 10
2.98
 20
4.6449999999999996
 30
0.0
  9
$UCSXDIR
 10
1.0
 20
0.0
 30
0.0
  9
$UCSYDIR
 10
0.0
 20
1.0
 30
0.0
  9
$UCSORTHOREF
  2

  9
$UCSORTHOVIEW
 70
           0
  9
$UCSORGTOP
 10
0.0
 20
0.0
 30
0.0
  9
$UCSORGBOTTOM
 10
0.0
 20
0.0
 30
0.0
  9
$UCSORGLEFT
 10
0.0
 20
0.0
 30
0.0
  9
$UCSORGRIGHT
 10
0.0
 20
0.0
 30
0.0
  9
$UCSORGFRONT
 10
0.0
 20
0.0
 30
0.0
  9
$UCSORGBACK
 10
0.0
 20
0.0
 30
0.0
  9
$PUCSBASE
  2

  9
$PUCSNAME
  2

  9
$PUCSORG
 10
0.0
 20
0.0
 30
0.0
  9
$PUCSXDIR
 10
1.0
 20
0.0
 30
0.0
  9
$PUCSYDIR
 10
0.0
 20
1.0
 30
0.0
  9
$PUCSORTHOREF
  2

  9
$PUCSORTHOVIEW
 70
           0
  9
$PUCSORGTOP
 10
0.0
 20
0.0
 30
0.0
  9
$PUCSORGBOTTOM
 10
0.0
 20
0.0
 30
0.0
  9
$PUCSORGLEFT
 10
0.0
 20
0.0
 30
0.0
  9
$PUCSORGRIGHT
 10
0.0
 20
0.0
 30
0.0
  9
$PUCSORGFRONT
 10
0.0
 20
0.0
 30
0.0
  9
$PUCSORGBACK
 10
0.0
 20
0.0
 30
0.0
  9
$USERI1
 70
           0
  9
$USERI2
 70
           0
  9
$USERI3
 70
           0
  9
$USERI4
 70
           0
  9
$USERI5
 70
           0
  9
$USERR1
 40
0.0
  9
$USERR2
 40
0.0
  9
$USERR3
 40
0.0
  9
$USERR4
 40
0.0
  9
$USERR5
 40
0.0
  9
$WORLDVIEW
 70
           1
  9
$SHADEDGE
 70
           3
  9
$SHADEDIF
 70
          70
  9
$TILEMODE
 70
           1
  9
$MAXACTVP
 70
          16
  9
$PINSBASE
 10
0.0
 20
0.0
 30
0.0
  9
$PLIMCHECK
 70
           0
  9
$PEXTMIN
 10
1.000000000000E+20
 20
1.000000000000E+20
 30
1.000000000000E+20
  9
$PEXTMAX
 10
-1.000000000000E+20
 20
-1.000000000000E+20
 30
-1.000000000000E+20
  9
$PLIMMIN
 10
0.0
 20
0.0
  9
$PLIMMAX
 10
12.0
 20
9.0
  9
$UNITMODE
 70
           0
  9
$VISRETAIN
 70
           0
  9
$PLINEGEN
 70
           0
  9
$PSLTSCALE
 70
           0
  9
$TREEDEPTH
 70
        3020
  9
$CMLSTYLE
  2
Standard
  9
$CMLJUST
 70
           0
  9
$CMLSCALE
 40
1.0
  9
$PROXYGRAPHICS
 70
           1
  9
$MEASUREMENT
 70
           0
  9
$CELWEIGHT
370
           0
  9
$ENDCAPS
280
           0
  9
$JOINSTYLE
280
           0
  9
$LWDISPLAY
290
           0
  9
$INSUNITS
 70
           0
  9
$HYPERLINKBASE
  1

  9
$STYLESHEET
  1

  9
$XEDIT
290
           0
  9
$CEPSNTYPE
380
           0
  9
$PSTYLEMODE
290
           1
  9
$FINGERPRINTGUID
  2

  9
$VERSIONGUID
  2

  9
$EXTNAMES
290
           1
  9
$PSVPSCALE
 40
0.0
  0
ENDSEC
  0
SECTION
  2
CLASSES
  0
CLASS
  1
DICTIONARYVAR
  2
AcDbDictionaryVar
  3
"AutoCAD"
 90
        0
280
           0
281
           0
  0
CLASS
  1
LWPOLYLINE
  2
AcDbPolyline
  3
"AutoCAD"
 90
        0
280
           0
281
           1
  0
CLASS
  1
IMAGE
  2
AcDbRasterImage
  3
ISM
 90
      127
280
           0
281
           1
  0
CLASS
  1
OLE2FRAME
  2
AcDbOle2Frame
  3
AutoCAD 2000
 90
        0
280
           0
281
           1
  0
CLASS
  1
HATCH
  2
AcDbHatch
  3
AutoCAD 2000
 90
        0
280
           0
281
           1
  0
CLASS
  1
RASTERVARIABLES
  2
AcDbRasterVariables
  3
ISM
 90
        0
280
           0
281
           0
  0
CLASS
  1
IMAGEDEF
  2
AcDbRasterImageDef
  3
ISM
 90
        0
280
           0
281
           0
  0
CLASS
  1
IMAGEDEF_REACTOR
  2
AcDbRasterImageDefReactor
  3
ISM
 90
        1
280
           0
281
           0
  0
CLASS
  1
IDBUFFER
  2
AcDbIdBuffer
  3
AutoCAD 2000
 90
        0
280
           0
281
           0
  0
CLASS
  1
SPATIAL_FILTER
  2
AcDbSpatialFilter
  3
AutoCAD 2000
 90
        0
280
           0
281
           0
  0
CLASS
  1
XRECORD
  2
AcDbXrecord
  3
AutoCAD 2000
 90
        0
280
           0
281
           0
  0
CLASS
  1
SORTENTSTABLE
  2
AcDbSortentsTable
  3
AutoCAD 2000
 90
        0
280
           0
281
           0
  0
CLASS
  1
LAYER_INDEX
  2
AcDbLayerIndex
  3
AutoCAD 2000
 90
        0
280
           0
281
           0
  0
CLASS
  1
SPATIAL_INDEX
  2
AcDbSpatialIndex
  3
AutoCAD 2000
 90
        0
280
           0
281
           0
  0
CLASS
  1
OBJECT_PTR
  2
CAseDLPNTableRecord
  3
"ASE-LPNTableRecord"
 90
        1
280
           0
281
           0
  0
CLASS
  1
LAYOUT
  2
AcDbLayout
  3
AutoCAD 2000
 90
        0
280
           0
281
           0
  0
CLASS
  1
PLOTSETTINGS
  2
AcDbPlotSettings
  3
AutoCAD 2000
 90
        0
280
           0
281
           0
  0
CLASS
  1
ACDBDICTIONARYWDFLT
  2
AcDbDictionaryWithDefault
  3
AutoCAD 2000
 90
        0
280
           0
281
           0
  0
CLASS
  1
ACDBPLACEHOLDER
  2
AcDbPlaceHolder
  3
AutoCAD 2000
 90
        0
280
           0
281
           0
  0
CLASS
  1
VBA_PROJECT
  2
AcDbVbaProject
  3
acadvba
 90
        0
280
           0
281
           0
  0
CLASS
  1
WIPEOUT
  2
AcDbWipeout
  3
WipeOut|AutoCAD Express Tool|expresstools@autodesk.com
 90
      127
280
           0
281
           1
  0
CLASS
  1
WIPEOUTVARIABLES
  2
AcDbWipeoutVariables
  3
WipeOut|AutoCAD Express Tool|expresstools@autodesk.com
 90
        0
280
           0
281
           0
  0
CLASS
  1
RTEXT
  2
RText
  3
RText|AutoCAD Express Tool|expresstools@autodesk.com
 90
        0
280
           0
281
           1
  0
CLASS
  1
ARCALIGNEDTEXT
  2
AcDbArcAlignedText
  3
ATEXT|AutoCAD Express Tool|expresstools@autodesk.com
 90
        0
280
           0
281
           1
  0
CLASS
  1
DIMASSOC
  2
AcDbDimAssoc
  3
AcDbDimAssoc|Product Desc:     AcDim ARX App For Dimension|Company:          Autodesk, Inc.|WEB Address:      www.autodesk.com
 90
        1
280
           0
281
           0
  0
ENDSEC
  0
SECTION
  2
TABLES
  0
TABLE
  2
VPORT
  5
8
100
AcDbSymbolTable
 70
           1
  0
VPORT
  5
36C
100
AcDbSymbolTableRecord
100
AcDbViewportTableRecord
  2
*ACTIVE
 70
          64
 10
0.0
 20
0.0
 11
1.0
 21
1.0
 12
5.0623375
 22
3.7827425
 13
0.0
 23
0.0
 14
0.005
 24
0.005
 15
0.25
 25
0.25
 16
0.0
 26
0.0
 36
1.0
 17
0.0
 27
0.0
 37
0.0
 40
7.7167947
 41
2.146005509642
 42
50.0
 43
0.0
 44
0.0
 50
0.0
 51
0.0
 71
           0
 72
         100
 73
           0
 74
           0
 75
           0
 76
           0
 77
           0
 78
           0
281
           0
 65
           0
110
0.0
120
0.0
130
0.0
111
1.0
121
0.0
131
0.0
112
0.0
122
1.0
132
0.0
345
0
346
0
 79
           0
146
0.0
  0
ENDTAB
  0
TABLE
  2
LTYPE
  5
5
100
AcDbSymbolTable
 70
           6
  0
LTYPE
  5
11
100
AcDbSymbolTableRecord
100
AcDbLinetypeTableRecord
  2
ByBlock
 70
          64
  3

 72
          65
 73
           0
 40
0.0
  0
LTYPE
  5
12
100
AcDbSymbolTableRecord
100
AcDbLinetypeTableRecord
  2
ByLayer
 70
          64
  3

 72
          65
 73
           0
 40
0.0
  0
LTYPE
  5
13
100
AcDbSymbolTableRecord
100
AcDbLinetypeTableRecord
  2
CONTINUOUS
 70
          64
  3
Solid line
 72
          65
 73
           0
 40
0.0
  0
LTYPE
  5
1E
100
AcDbSymbolTableRecord
100
AcDbLinetypeTableRecord
  2
DASHED
 70
          64
  3
__ __ __ __ __ __ __ __ __ __ __ __ __ __ __
 72
          65
 73
           2
 40
0.75
 49
0.5
 74
           0
 49
-0.25
 74
           0
  0
LTYPE
  5
1F
100
AcDbSymbolTableRecord
100
AcDbLinetypeTableRecord
  2
HIDDEN
 70
          64
  3
_ _ _ _ _ _ _ _ _ _ _ _ _ _ _ _ _ _ _ _ _ _ _
 72
          65
 73
           2
 40
0.375
 49
0.25
 74
           0
 49
-0.125
 74
           0
  0
LTYPE
  5
20
100
AcDbSymbolTableRecord
100
AcDbLinetypeTableRecord
  2
CENTER
 70
          64
  3
____ _ ____ _ ____ _ ____ _ ____ _ ____ _ ____
 72
          65
 73
           4
 40
2.0
 49
1.25
 74
           0
 49
-0.25
 74
           0
 49
0.25
 74
           0
 49
-0.25
 74
           0
  0
ENDTAB
  0
TABLE
  2
LAYER
  5
2
100
AcDbSymbolTable
 70
          14
  0
LAYER
  5
E
100
AcDbSymbolTableRecord
100
AcDbLayerTableRecord
  2
0
 70
          64
 62
           1
  6
CONTINUOUS
290
           1
370
          -3
390
36D
  0
LAYER
  5
23
100
AcDbSymbolTableRecord
100
AcDbLayerTableRecord
  2
BORDER
 70
          64
 62
          20
  6
CONTINUOUS
290
           1
370
          -3
390
36D
  0
LAYER
  5
24
100
AcDbSymbolTableRecord
100
AcDbLayerTableRecord
  2
1
 70
          64
 62
           3
  6
CONTINUOUS
290
           1
370
          -3
390
36D
  0
LAYER
  5
25
100
AcDbSymbolTableRecord
100
AcDbLayerTableRecord
  2
2
 70
          64
 62
           4
  6
CONTINUOUS
290
           1
370
          -3
390
36D
  0
LAYER
  5
26
100
AcDbSymbolTableRecord
100
AcDbLayerTableRecord
  2
DIM
 70
          64
 62
           6
  6
CONTINUOUS
290
           1
370
          -3
390
36D
  0
LAYER
  5
27
100
AcDbSymbolTableRecord
100
AcDbLayerTableRecord
  2
HIDDEN
 70
          64
 62
           7
  6
HIDDEN
290
           1
370
          -3
390
36D
  0
LAYER
  5
28
100
AcDbSymbolTableRecord
100
AcDbLayerTableRecord
  2
X
 70
          64
 62
           1
  6
CONTINUOUS
290
           1
370
          -3
390
36D
  0
LAYER
  5
29
100
AcDbSymbolTableRecord
100
AcDbLayerTableRecord
  2
SHEET1
 70
          64
 62
           2
  6
CONTINUOUS
290
           1
370
          -3
390
36D
  0
LAYER
  5
2A
100
AcDbSymbolTableRecord
100
AcDbLayerTableRecord
  2
DIM1
 70
          64
 62
           6
  6
CONTINUOUS
290
           1
370
          -3
390
36D
  0
LAYER
  5
2B
100
AcDbSymbolTableRecord
100
AcDbLayerTableRecord
  2
SHEET2
 70
          64
 62
           3
  6
CONTINUOUS
290
           1
370
          -3
390
36D
  0
LAYER
  5
2C
100
AcDbSymbolTableRecord
100
AcDbLayerTableRecord
  2
SHEET3
 70
          64
 62
           7
  6
CONTINUOUS
290
           1
370
          -3
390
36D
  0
LAYER
  5
2D
100
AcDbSymbolTableRecord
100
AcDbLayerTableRecord
  2
DIM2
 70
          64
 62
           6
  6
CONTINUOUS
290
           1
370
          -3
390
36D
  0
LAYER
  5
2E
100
AcDbSymbolTableRecord
100
AcDbLayerTableRecord
  2
DIM3
 70
          64
 62
           6
  6
CONTINUOUS
290
           1
370
          -3
390
36D
  0
LAYER
  5
35B
100
AcDbSymbolTableRecord
100
AcDbLayerTableRecord
  2
D1
 70
          64
 62
           6
  6
CONTINUOUS
290
           1
370
          -3
390
36D
  0
ENDTAB
  0
TABLE
  2
STYLE
  5
3
100
AcDbSymbolTable
 70
           1
  0
STYLE
  5
F
100
AcDbSymbolTableRecord
100
AcDbTextStyleTableRecord
  2
STANDARD
 70
          64
 40
0.0
 41
1.0
 50
0.0
 71
           0
 42
0.04
  3
TXT
  4

  0
ENDTAB
  0
TABLE
  2
VIEW
  5
6
100
AcDbSymbolTable
 70
           0
  0
ENDTAB
  0
TABLE
  2
UCS
  5
7
100
AcDbSymbolTable
 70
           0
  0
ENDTAB
  0
TABLE
  2
APPID
  5
9
100
AcDbSymbolTable
 70
           2
  0
APPID
  5
10
100
AcDbSymbolTableRecord
100
AcDbRegAppTableRecord
  2
ACAD
 70
          64
  0
APPID
  5
35C
100
AcDbSymbolTableRecord
100
AcDbRegAppTableRecord
  2
CONTENTBLOCKDESCRIPTION
 70
          64
  0
ENDTAB
  0
TABLE
  2
DIMSTYLE
  5
A
100
AcDbSymbolTable
 70
           1
100
AcDbDimStyleTable
 71
           0
  0
DIMSTYLE
105
34A
100
AcDbSymbolTableRecord
100
AcDbDimStyleTableRecord
  2
STANDARD
 70
          64
  3

  4

 40
1.0
 41
0.18
 42
0.0625
 43
0.38
 44
0.18
 45
0.0
 46
0.0
 47
0.0
 48
0.0
 71
           0
 72
           0
 73
           1
 74
           1
 75
           0
 76
           0
 77
           0
 78
           0
 79
           0
140
0.18
141
0.09
142
0.0
143
25.4
144
1.0
145
0.0
146
1.0
147
0.09
148
0.0
170
           0
171
           2
172
           0
173
           0
174
           0
175
           0
176
           0
177
           0
178
           0
179
           0
271
           4
272
           4
273
           2
274
           2
275
           0
276
           0
277
           2
278
           0
279
           0
280
           0
281
           0
282
           0
283
           1
284
           0
285
           0
286
           0
288
           0
289
           3
340
F
341
0
342
0
343
0
344
0
371
          -2
372
          -2
  0
ENDTAB
  0
TABLE
  2
BLOCK_RECORD
  5
1
100
AcDbSymbolTable
 70
           4
  0
BLOCK_RECORD
  5
17
100
AcDbSymbolTableRecord
100
AcDbBlockTableRecord
  2
*MODEL_SPACE
340
370
  0
BLOCK_RECORD
  5
14
100
AcDbSymbolTableRecord
100
AcDbBlockTableRecord
  2
*PAPER_SPACE
340
371
  0
BLOCK_RECORD
  5
1C
100
AcDbSymbolTableRecord
100
AcDbBlockTableRecord
  2
ENLARGE
340
0
  0
BLOCK_RECORD
  5
1D
100
AcDbSymbolTableRecord
100
AcDbBlockTableRecord
  2
THOR-A
340
0
  0
BLOCK_RECORD
  5
35D
100
AcDbSymbolTableRecord
100
AcDbBlockTableRecord
  2
COPYRIGHT00
340
0
  0
BLOCK_RECORD
  5
364
100
AcDbSymbolTableRecord
100
AcDbBlockTableRecord
  2
ESD-INFO
340
0
  0
ENDTAB
  0
ENDSEC
  0
SECTION
  2
BLOCKS
  0
BLOCK
  5
31
100
AcDbEntity
  8
0
390
0
100
AcDbBlockBegin
  2
*MODEL_SPACE
 70
           0
 10
0.0
 20
0.0
 30
0.0
  3
*MODEL_SPACE
  1

  0
ENDBLK
  5
32
100
AcDbEntity
  8
0
390
0
100
AcDbBlockEnd
  0
BLOCK
  5
2F
100
AcDbEntity
 67
           1
  8
0
390
0
100
AcDbBlockBegin
  2
*PAPER_SPACE
 70
           0
 10
0.0
 20
0.0
 30
0.0
  3
*PAPER_SPACE
  1

  0
ENDBLK
  5
30
100
AcDbEntity
 67
           1
  8
0
390
0
100
AcDbBlockEnd
  0
BLOCK
  5
35
100
AcDbEntity
  8
0
390
36D
100
AcDbBlockBegin
  2
ENLARGE
 70
          64
 10
14.003
 20
4.655
 30
0.0
  3
ENLARGE
  1

  0
CIRCLE
  5
36
100
AcDbEntity
  8
0
390
36D
100
AcDbCircle
 10
14.011
 20
4.662
 30
0.0
 40
0.276123160926
  0
LINE
  5
37
100
AcDbEntity
  8
0
390
36D
100
AcDbLine
 10
13.783
 20
4.503
 30
0.0
 11
14.132
 21
4.503
 31
0.0
  0
LINE
  5
38
100
AcDbEntity
  8
0
390
36D
100
AcDbLine
 10
13.788
 20
4.803
 30
0.0
 11
14.132
 21
4.803
 31
0.0
  0
LINE
  5
39
100
AcDbEntity
  8
0
390
36D
100
AcDbLine
 10
13.899
 20
4.503
 30
0.0
 11
13.899
 21
4.803
 31
0.0
  0
LINE
  5
3A
100
AcDbEntity
  8
0
390
36D
100
AcDbLine
 10
14.132
 20
4.803
 30
0.0
 11
14.132
 21
4.774
 31
0.0
  0
LINE
  5
3B
100
AcDbEntity
  8
0
390
36D
100
AcDbLine
 10
14.132192631645
 20
4.773888784068
 30
0.0
 11
14.062298094716
 21
4.652827894935
 31
0.0
  0
LINE
  5
3C
100
AcDbEntity
  8
0
390
36D
100
AcDbLine
 10
14.132
 20
4.503
 30
0.0
 11
14.132
 21
4.532
 31
0.0
  0
LINE
  5
3D
100
AcDbEntity
  8
0
390
36D
100
AcDbLine
 10
14.132192631645
 20
4.532111215932
 30
0.0
 11
14.062298094716
 21
4.653172105065
 31
0.0
  0
ENDBLK
  5
3E
100
AcDbEntity
  8
0
390
36D
100
AcDbBlockEnd
  0
BLOCK
  5
3F
100
AcDbEntity
  8
0
390
36D
100
AcDbBlockBegin
  2
THOR-A
 70
          64
 10
0.0
 20
0.0
 30
0.0
  3
THOR-A
  1

  0
TRACE
  5
40
100
AcDbEntity
  8
BORDER
390
36D
100
AcDbTrace
 10
-0.001475
 20
0.1347
 30
0.0
 11
0.030875
 21
0.1347
 31
0.0
 12
-0.001475
 22
7.560485
 32
0.0
 13
0.030875
 23
7.528135
 33
0.0
  0
TRACE
  5
41
100
AcDbEntity
  8
BORDER
390
36D
100
AcDbTrace
 10
-0.001475
 20
7.560485
 30
0.0
 11
0.030875
 21
7.528135
 31
0.0
 12
9.994675
 22
7.560485
 32
0.0
 13
9.962325
 23
7.528135
 33
0.0
  0
TRACE
  5
42
100
AcDbEntity
  8
BORDER
390
36D
100
AcDbTrace
 10
9.994675
 20
7.560485
 30
0.0
 11
9.962325
 21
7.528135
 31
0.0
 12
9.994675
 22
0.1347
 32
0.0
 13
9.962325
 23
0.1347
 33
0.0
  0
TRACE
  5
43
100
AcDbEntity
  8
BORDER
390
36D
100
AcDbTrace
 10
0.0147
 20
0.150875
 30
0.0
 11
0.0147
 21
0.118525
 31
0.0
 12
9.9785
 22
0.150875
 32
0.0
 13
9.9785
 23
0.118525
 33
0.0
  0
TEXT
  5
44
100
AcDbEntity
  8
BORDER
390
36D
100
AcDbText
 10
7.752845528307
 20
0.962320076728
 30
0.11646
 40
0.04529
  1
TOL: X.XXX=+/-0.005 X.XX=+/-0.010 ANGULAR +/-30'
100
AcDbText
  0
TRACE
  5
46
100
AcDbEntity
  8
BORDER
390
36D
100
AcDbTrace
 10
7.697850528307
 20
1.052900076728
 30
0.11646
 11
7.697850528307
 21
1.039960076728
 31
0.11646
 12
9.959115528307
 22
1.052900076728
 32
0.11646
 13
9.959115528307
 23
1.039960076728
 33
0.11646
 39
0.11646
  0
LINE
  5
47
100
AcDbEntity
  8
BORDER
390
36D
100
AcDbLine
 39
0.11646
 10
7.694615528307
 20
1.046430076728
 30
0.11646
 11
9.959115528307
 21
1.046430076728
 31
0.11646
  0
TRACE
  5
48
100
AcDbEntity
  8
BORDER
390
36D
100
AcDbTrace
 10
9.959115528307
 20
1.234060076728
 30
0.11646
 11
9.959115528307
 21
1.247000076728
 31
0.11646
 12
7.697850528307
 22
1.234060076728
 32
0.11646
 13
7.697850528307
 23
1.247000076728
 33
0.11646
 39
0.11646
  0
TRACE
  5
49
100
AcDbEntity
  8
BORDER
390
36D
100
AcDbTrace
 10
9.072725528307
 20
0.923500076728
 30
0.11646
 11
9.072725528307
 21
0.936440076728
 31
0.11646
 12
7.694615528307
 22
0.923500076728
 32
0.11646
 13
7.694615528307
 23
0.936440076728
 33
0.11646
 39
0.11646
  0
TRACE
  5
4A
100
AcDbEntity
  8
BORDER
390
36D
100
AcDbTrace
 10
9.066255528307
 20
0.936440076728
 30
0.11646
 11
9.079195528307
 21
0.923500076728
 31
0.11646
 12
9.959115528307
 22
0.936440076728
 32
0.11646
 13
9.959115528307
 23
0.923500076728
 33
0.11646
 39
0.11646
  0
TRACE
  5
4B
100
AcDbEntity
  8
BORDER
390
36D
100
AcDbTrace
 10
9.066255528307
 20
0.153570076728
 30
0.11646
 11
9.079195528307
 21
0.153570076728
 31
0.11646
 12
9.066255528307
 22
0.936440076728
 32
0.11646
 13
9.079195528307
 23
0.923500076728
 33
0.11646
 39
0.11646
  0
TEXT
  5
4C
100
AcDbEntity
  8
BORDER
390
36D
100
AcDbText
 10
9.101840528307
 20
0.858800076728
 30
0.11646
 40
0.04529
  1
WHERE USED
100
AcDbText
  0
LINE
  5
4D
100
AcDbEntity
  8
BORDER
390
36D
100
AcDbLine
 39
0.11646
 10
8.649758265355
 20
0.347670076728
 30
0.11646
 11
8.649758265355
 21
0.541770076728
 31
0.11646
  0
TEXT
  5
4E
100
AcDbEntity
  8
BORDER
390
36D
100
AcDbText
 10
8.671612874348
 20
0.667935076728
 30
0.11646
 40
0.04
  1
APPROVED
100
AcDbText
  0
TEXT
  5
4F
100
AcDbEntity
  8
BORDER
390
36D
100
AcDbText
 10
8.261045415892
 20
0.667935076728
 30
0.11646
 40
0.04
  1
ENGR.
100
AcDbText
  0
LINE
  5
50
100
AcDbEntity
  8
BORDER
390
36D
100
AcDbLine
 39
0.11646
 10
8.246151786493
 20
0.118294581979
 30
0.0
 11
8.246151786493
 21
0.733699829353
 31
0.0
  0
LINE
  5
51
100
AcDbEntity
  8
BORDER
390
36D
100
AcDbLine
 39
0.11646
 10
8.649758265355
 20
0.541770076728
 30
0.11646
 11
8.649758265355
 21
0.735870076728
 31
0.11646
  0
LINE
  5
52
100
AcDbEntity
  8
BORDER
390
36D
100
AcDbLine
 10
7.694615528307
 20
0.347670076728
 30
0.11646
 11
9.072813049599
 21
0.347670076728
 31
0.11646
  0
LINE
  5
53
100
AcDbEntity
  8
BORDER
390
36D
100
AcDbLine
 10
7.694615528307
 20
0.541770076728
 30
0.11646
 11
9.072813049599
 21
0.541770076728
 31
0.11646
  0
LINE
  5
54
100
AcDbEntity
  8
BORDER
390
36D
100
AcDbLine
 10
7.694615528307
 20
0.735870076728
 30
0.11646
 11
9.072813049599
 21
0.735870076728
 31
0.11646
  0
LINE
  5
55
100
AcDbEntity
  8
BORDER
390
36D
100
AcDbLine
 10
7.694615528307
 20
0.929970076728
 30
0.11646
 11
9.959115528307
 21
0.929970076728
 31
0.11646
  0
TEXT
  5
56
100
AcDbEntity
  8
BORDER
390
36D
100
AcDbText
 10
9.175095394672
 20
1.384271153455
 30
0.23292
 40
0.0727875
  1
PO BOX 366
100
AcDbText
  0
TEXT
  5
57
100
AcDbEntity
  8
BORDER
390
36D
100
AcDbText
 10
9.175095394672
 20
1.262958653455
 30
0.23292
 40
0.0727875
  1
NEWTON NJ
100
AcDbText
  0
LINE
  5
58
100
AcDbEntity
  8
BORDER
390
36D
100
AcDbLine
 10
8.612835404891
 20
1.334229747205
 30
0.23292
 11
8.586439572239
 21
1.41991293782
 31
0.23292
  0
LINE
  5
59
100
AcDbEntity
  8
BORDER
390
36D
100
AcDbLine
 10
8.560043739586
 20
1.334229747205
 30
0.23292
 11
8.612835404891
 21
1.334229747205
 31
0.23292
  0
LINE
  5
5A
100
AcDbEntity
  8
BORDER
390
36D
100
AcDbLine
 10
8.586439572239
 20
1.41991293782
 30
0.23292
 11
8.560043739586
 21
1.334229747205
 31
0.23292
  0
LINE
  5
5B
100
AcDbEntity
  8
BORDER
390
36D
100
AcDbLine
 10
8.751699519231
 20
1.348787247205
 30
0.23292
 11
8.703334927581
 21
1.348787247205
 31
0.23292
  0
ARC
  5
5C
100
AcDbEntity
  8
BORDER
390
36D
100
AcDbCircle
 10
8.751699519231
 20
1.323331295229
 30
0.23292
 40
0.025455951976
100
AcDbArc
 50
313.227508124748
 51
90.0
  0
ARC
  5
5D
100
AcDbEntity
  8
BORDER
390
36D
100
AcDbCircle
 10
8.747007427581
 20
1.328323060531
 30
0.23292
 40
0.032306750825
100
AcDbArc
 50
270.0
 51
313.227508124747
  0
LINE
  5
5E
100
AcDbEntity
  8
BORDER
390
36D
100
AcDbLine
 10
8.703334927581
 20
1.296016309705
 30
0.23292
 11
8.747007427581
 21
1.296016309705
 31
0.23292
  0
LINE
  5
5F
100
AcDbEntity
  8
BORDER
390
36D
100
AcDbLine
 10
8.703334927581
 20
1.348787247205
 30
0.23292
 11
8.703334927581
 21
1.296016309705
 31
0.23292
  0
ARC
  5
60
100
AcDbEntity
  8
BORDER
390
36D
100
AcDbCircle
 10
8.749348382659
 20
1.399738497205
 30
0.23292
 40
0.02274609375
100
AcDbArc
 50
270.0
 51
90.000004829675
  0
LINE
  5
61
100
AcDbEntity
  8
BORDER
390
36D
100
AcDbLine
 10
8.703334927581
 20
1.376992403455
 30
0.23292
 11
8.749348382659
 21
1.376992403455
 31
0.23292
  0
LINE
  5
62
100
AcDbEntity
  8
BORDER
390
36D
100
AcDbLine
 10
8.703334927581
 20
1.422484590955
 30
0.23292
 11
8.703334927581
 21
1.376992403455
 31
0.23292
  0
LINE
  5
63
100
AcDbEntity
  8
BORDER
390
36D
100
AcDbLine
 10
8.749348380741
 20
1.422484590955
 30
0.23292
 11
8.703334927581
 21
1.422484590955
 31
0.23292
  0
SOLID
  5
64
100
AcDbEntity
  8
BORDER
390
36D
100
AcDbTrace
 10
8.98704324745
 20
1.263189038821
 30
0.23292
 11
8.98704324745
 21
1.281164639821
 31
0.23292
 12
9.07264134745
 22
1.263189038821
 32
0.23292
 13
9.07264134745
 23
1.281164639821
 33
0.23292
  0
SOLID
  5
65
100
AcDbEntity
  8
BORDER
390
36D
100
AcDbTrace
 10
9.072641342081
 20
1.296144306504
 30
0.23292
 11
8.987043242081
 21
1.296144306504
 31
0.23292
 12
9.072641342081
 22
1.314119907504
 32
0.23292
 13
8.987043242081
 23
1.314119907504
 33
0.23292
  0
SOLID
  5
66
100
AcDbEntity
  8
BORDER
390
36D
100
AcDbTrace
 10
8.987043242081
 20
1.368902691504
 30
0.23292
 11
9.072641342081
 21
1.368902691504
 31
0.23292
 12
8.987043242081
 22
1.350927090504
 32
0.23292
 13
9.072641342081
 23
1.350927090504
 33
0.23292
  0
SOLID
  5
67
100
AcDbEntity
  8
BORDER
390
36D
100
AcDbTrace
 10
8.987043242081
 20
1.314547898004
 30
0.23292
 11
9.072639477051
 21
1.368441823726
 31
0.23292
 12
8.987049620796
 22
1.297394425782
 32
0.23292
 13
9.072641342081
 23
1.350499100004
 33
0.23292
  0
LWPOLYLINE
  5
68
100
AcDbEntity
  8
BORDER
390
36D
100
AcDbPolyline
 90
        6
 70
           0
 43
0.003423924
 38
0.23292
 10
9.01314327855
 20
1.438552462274
 42
0.342627443964
 10
8.996634668724
 20
1.420997430912
 42
0.294280948996
 10
9.008398509338
 20
1.398284820399
 42
0.273537537364
 10
9.051213159319
 20
1.398863629573
 42
0.208169861593
 10
9.062095078516
 20
1.414341174845
 42
0.418984908217
 10
9.045317895727
 20
1.439332447492
 42
0.418984908217
  0
LWPOLYLINE
  5
70
100
AcDbEntity
  8
BORDER
390
36D
100
AcDbPolyline
 90
        2
 70
           0
 43
0.003423924
 38
0.23292
 10
8.988364965576
 20
1.431151902845
 42
0.398620806069
 10
9.011234598938
 20
1.382333158664
 42
0.398620806069
  0
LWPOLYLINE
  5
74
100
AcDbEntity
  8
BORDER
390
36D
100
AcDbPolyline
 90
        2
 70
           0
 43
0.003423924
 38
0.23292
 10
9.011234598938
 20
1.382333158664
 42
0.270661132293
 10
9.059848055819
 20
1.389908861855
 42
0.270661132293
  0
LWPOLYLINE
  5
78
100
AcDbEntity
  8
BORDER
390
36D
100
AcDbPolyline
 90
        2
 70
           0
 43
0.003423924
 38
0.23292
 10
9.059848055819
 20
1.389908861855
 42
0.179000650425
 10
9.072468498978
 20
1.41128651413
 42
0.179000650425
  0
LWPOLYLINE
  5
7C
100
AcDbEntity
  8
BORDER
390
36D
100
AcDbPolyline
 90
        2
 70
           0
 43
0.003423924
 38
0.23292
 10
9.072468498978
 20
1.41128651413
 42
0.152190792067
 10
9.069485769095
 20
1.435411065952
 42
0.152190792067
  0
SOLID
  5
80
100
AcDbEntity
  8
BORDER
390
36D
100
AcDbTrace
 10
9.007446263706
 20
1.437009215206
 30
0.23292
 11
8.998818064292
 21
1.446415531377
 31
0.23292
 12
8.996778671703
 22
1.425564863865
 32
0.23292
 13
8.986895461464
 23
1.429640934206
 33
0.23292
  0
SOLID
  5
81
100
AcDbEntity
  8
BORDER
390
36D
100
AcDbTrace
 10
8.996778671703
 20
1.425564863865
 30
0.23292
 11
8.986895461464
 21
1.429640934206
 31
0.23292
 12
8.998504311586
 22
1.407379319268
 32
0.23292
 13
8.988150472288
 23
1.403146476991
 33
0.23292
  0
SOLID
  5
82
100
AcDbEntity
  8
BORDER
390
36D
100
AcDbTrace
 10
8.998504311586
 20
1.407379319268
 30
0.23292
 11
8.988150472288
 21
1.403146476991
 31
0.23292
 12
9.014819452297
 22
1.394367248565
 32
0.23292
 13
9.006034376529
 23
1.383863528841
 33
0.23292
  0
SOLID
  5
83
100
AcDbEntity
  8
BORDER
390
36D
100
AcDbTrace
 10
9.014819452297
 20
1.394367248565
 30
0.23292
 11
9.006034376529
 21
1.383863528841
 31
0.23292
 12
9.032389603833
 22
1.39295630114
 32
0.23292
 13
9.033330861951
 23
1.378376511075
 33
0.23292
  0
SOLID
  5
84
100
AcDbEntity
  8
BORDER
390
36D
100
AcDbTrace
 10
9.032389603833
 20
1.39295630114
 30
0.23292
 11
9.033330861951
 21
1.378376511075
 31
0.23292
 12
9.055155651995
 22
1.40019688887
 32
0.23292
 13
9.06156860549
 23
1.389631218945
 33
0.23292
  0
SOLID
  5
85
100
AcDbEntity
  8
BORDER
390
36D
100
AcDbTrace
 10
9.055155651995
 20
1.40019688887
 30
0.23292
 11
9.06156860549
 21
1.389631218945
 31
0.23292
 12
9.062608543894
 22
1.416998036127
 32
0.23292
 13
9.073701220209
 23
1.411455389609
 33
0.23292
  0
SOLID
  5
86
100
AcDbEntity
  8
BORDER
390
36D
100
AcDbTrace
 10
9.062608543894
 20
1.416998036127
 30
0.23292
 11
9.073701220209
 21
1.411455389609
 31
0.23292
 12
9.058102144141
 22
1.431893898643
 32
0.23292
 13
9.068674851254
 23
1.438995414494
 33
0.23292
  0
SOLID
  5
87
100
AcDbEntity
  8
BORDER
390
36D
100
AcDbTrace
 10
9.058102144141
 20
1.431893898643
 30
0.23292
 11
9.068674851254
 21
1.438995414494
 31
0.23292
 12
9.047353051975
 22
1.438225498647
 32
0.23292
 13
9.049173356726
 23
1.453944798613
 33
0.23292
  0
LWPOLYLINE
  5
88
100
AcDbEntity
  8
BORDER
390
36D
100
AcDbPolyline
 90
        2
 70
           0
 43
0.003423924
 38
0.23292
 10
9.069485769095
 20
1.435411065952
 42
0.261966093676
 10
9.045237691726
 20
1.453213572451
 42
0.265646577079
  0
LWPOLYLINE
  5
8C
100
AcDbEntity
  8
BORDER
390
36D
100
AcDbPolyline
 90
        2
 70
           0
 43
0.003423924
 38
0.23292
 10
9.013092897585
 20
1.451837043898
 42
0.28412093169
 10
8.988364965576
 20
1.431151902845
 42
0.288844763467
  0
SOLID
  5
90
100
AcDbEntity
  8
BORDER
390
36D
100
AcDbTrace
 10
9.007446263706
 20
1.437009215206
 30
0.23292
 11
8.998818064292
 21
1.446415531377
 31
0.23292
 12
9.011059480353
 22
1.437934675345
 32
0.23292
 13
9.009946164299
 23
1.452752151894
 33
0.23292
  0
SOLID
  5
91
100
AcDbEntity
  8
BORDER
390
36D
100
AcDbTrace
 10
9.011059480353
 20
1.437934675345
 30
0.23292
 11
9.009946164299
 21
1.452752151894
 31
0.23292
 12
9.013409135041
 22
1.43686126914
 32
0.23292
 13
9.013409135041
 23
1.45360718298
 33
0.23292
  0
SOLID
  5
92
100
AcDbEntity
  8
BORDER
390
36D
100
AcDbTrace
 10
9.047353051975
 20
1.438225498647
 30
0.23292
 11
9.049173356726
 21
1.453944798613
 31
0.23292
 12
9.045001222309
 22
1.437650029044
 32
0.23292
 13
9.045001222309
 23
1.454963753892
 33
0.23292
  0
SOLID
  5
93
100
AcDbEntity
  8
BORDER
390
36D
100
AcDbTrace
 10
8.236678345403
 20
1.267811153455
 30
0.23292
 11
8.236678345403
 21
1.449779903455
 31
0.23292
 12
8.273851814756
 22
1.267811153455
 32
0.23292
 13
8.273851814756
 23
1.445815225126
 33
0.23292
  0
LWPOLYLINE
  5
94
100
AcDbEntity
  8
BORDER
390
36D
100
AcDbPolyline
 90
        2
 70
           0
 43
0.00727875
 38
0.23292
 10
8.342574605137
 20
1.358153802409
 42
0.939934318016
 10
8.337120756328
 20
1.446140528455
 42
0.939934318016
  0
LWPOLYLINE
  5
98
100
AcDbEntity
  8
BORDER
390
36D
100
AcDbPolyline
 90
        2
 70
           0
 43
0.00727875
 38
0.23292
 10
8.320356106233
 20
1.364327120669
 42
1.0
 10
8.320356106233
 20
1.425678004192
 42
1.0
  0
SOLID
  5
9C
100
AcDbEntity
  8
BORDER
390
36D
100
AcDbTrace
 10
8.273851814756
 20
1.422038629192
 30
0.23292
 11
8.273851814756
 21
1.445815225126
 31
0.23292
 12
8.320356106233
 22
1.422038629192
 32
0.23292
 13
8.337120756328
 23
1.449779903455
 33
0.23292
  0
SOLID
  5
9D
100
AcDbEntity
  8
BORDER
390
36D
100
AcDbTrace
 10
8.273851814756
 20
1.367966495669
 30
0.23292
 11
8.273851814756
 21
1.340535615286
 31
0.23292
 12
8.320356106233
 22
1.367966495669
 32
0.23292
 13
8.309294624782
 23
1.340535615286
 33
0.23292
  0
LWPOLYLINE
  5
9E
100
AcDbEntity
  8
BORDER
390
36D
100
AcDbPolyline
 90
        2
 70
           0
 43
0.00727875
 38
0.23292
 10
8.373635497657
 20
1.319994683557
 42
0.358134556776
 10
8.342671693342
 20
1.350920008731
 42
0.358134556776
  0
LWPOLYLINE
  5
A2
100
AcDbEntity
  8
BORDER
390
36D
100
AcDbPolyline
 90
        2
 70
           0
 43
0.00727875
 38
0.23292
 10
8.3463075395
 20
1.310197466386
 42
0.389397748799
 10
8.309294624782
 20
1.344174990286
 42
0.389397748799
  0
LWPOLYLINE
  5
A6
100
AcDbEntity
  8
BORDER
390
36D
100
AcDbPolyline
 90
        2
 70
           0
 43
0.00727875
 38
0.23292
 10
8.349116334014
 20
1.277412065245
 42
0.114836022525
 10
8.351624832068
 20
1.269691033052
 42
0.114836022525
  0
SOLID
  5
AA
100
AcDbEntity
  8
BORDER
390
36D
100
AcDbTrace
 10
8.342681447404
 20
1.309886811422
 30
0.23292
 11
8.345490241919
 21
1.277101410282
 31
0.23292
 12
8.377257334237
 22
1.320351545125
 32
0.23292
 13
8.381246114178
 23
1.279868875059
 33
0.23292
  0
SOLID
  5
AB
100
AcDbEntity
  8
BORDER
390
36D
100
AcDbTrace
 10
8.342681447404
 20
1.309886811422
 30
0.23292
 11
8.377257334237
 21
1.320351545125
 31
0.23292
 12
8.343410953459
 22
1.320749317132
 32
0.23292
 13
8.372932706312
 23
1.331088812593
 33
0.23292
  0
SOLID
  5
AC
100
AcDbEntity
  8
BORDER
390
36D
100
AcDbTrace
 10
8.343410953459
 20
1.320749317132
 30
0.23292
 11
8.372932706312
 21
1.331088812593
 31
0.23292
 12
8.335046456818
 22
1.332073526447
 32
0.23292
 13
8.354727625386
 23
1.345859520395
 33
0.23292
  0
SOLID
  5
AD
100
AcDbEntity
  8
BORDER
390
36D
100
AcDbTrace
 10
8.335046456818
 20
1.332073526447
 30
0.23292
 11
8.354727625386
 21
1.345859520395
 31
0.23292
 12
8.325172262754
 22
1.341900817513
 32
0.23292
 13
8.343024050932
 23
1.354542286264
 33
0.23292
  0
SOLID
  5
AE
100
AcDbEntity
  8
BORDER
390
36D
100
AcDbTrace
 10
8.325172262754
 20
1.341900817513
 30
0.23292
 11
8.343024050932
 21
1.354542286264
 31
0.23292
 12
8.309294624782
 22
1.340535615286
 32
0.23292
 13
8.320356106233
 23
1.367966495669
 33
0.23292
  0
SOLID
  5
AF
100
AcDbEntity
  8
BORDER
390
36D
100
AcDbTrace
 10
8.339490651978
 20
1.367323463502
 30
0.23292
 11
8.353397358807
 21
1.360840021714
 31
0.23292
 12
8.352173589683
 22
1.39577428506
 32
0.23292
 13
8.380429615209
 23
1.386726334581
 33
0.23292
  0
SOLID
  5
B0
100
AcDbEntity
  8
BORDER
390
36D
100
AcDbTrace
 10
8.352173589683
 20
1.39577428506
 30
0.23292
 11
8.380429615209
 21
1.386726334581
 31
0.23292
 12
8.348406119612
 22
1.410854202526
 32
0.23292
 13
8.376662145139
 23
1.425557122055
 33
0.23292
  0
SOLID
  5
B1
100
AcDbEntity
  8
BORDER
390
36D
100
AcDbTrace
 10
8.348406119612
 20
1.410854202526
 30
0.23292
 11
8.376662145139
 21
1.425557122055
 31
0.23292
 12
8.335973468381
 22
1.424049130309
 32
0.23292
 13
8.348782866619
 23
1.444784016824
 33
0.23292
  0
SOLID
  5
B2
100
AcDbEntity
  8
BORDER
390
36D
100
AcDbTrace
 10
8.335973468381
 20
1.424049130309
 30
0.23292
 11
8.348782866619
 21
1.444784016824
 31
0.23292
 12
8.320356106233
 22
1.422038629192
 32
0.23292
 13
8.337120756328
 23
1.449779903455
 33
0.23292
  0
SOLID
  5
B3
100
AcDbEntity
  8
BORDER
390
36D
100
AcDbTrace
 10
8.339490651978
 20
1.367323463502
 30
0.23292
 11
8.353397358807
 21
1.360840021714
 31
0.23292
 12
8.320356106233
 22
1.367966495669
 32
0.23292
 13
8.343024050932
 23
1.354542286264
 33
0.23292
  0
LWPOLYLINE
  5
B4
100
AcDbEntity
  8
BORDER
390
36D
100
AcDbPolyline
 90
        2
 70
           0
 43
0.00727875
 38
0.23292
 10
8.337120756328
 20
1.446140528455
 10
8.236678345403
 20
1.446140528455
  0
LWPOLYLINE
  5
B8
100
AcDbEntity
  8
BORDER
390
36D
100
AcDbPolyline
 90
        2
 70
           0
 43
0.00727875
 38
0.23292
 10
8.377624277598
 20
1.279512013491
 42
0.095066976449
 10
8.380530988736
 20
1.269691853988
 42
0.140491545427
  0
SOLID
  5
BC
100
AcDbEntity
  8
BORDER
390
36D
100
AcDbTrace
 10
8.348508567783
 20
1.267811153455
 30
0.23292
 11
8.386025383076
 21
1.267811153455
 31
0.23292
 12
8.346789783448
 22
1.272871049064
 32
0.23292
 13
8.380543617519
 23
1.276418834923
 33
0.23292
  0
SOLID
  5
BD
100
AcDbEntity
  8
BORDER
390
36D
100
AcDbTrace
 10
8.346789783448
 20
1.272871049064
 30
0.23292
 11
8.380543617519
 21
1.276418834923
 31
0.23292
 12
8.345490241919
 22
1.277101410282
 32
0.23292
 13
8.381246114178
 23
1.279868875059
 33
0.23292
  0
LWPOLYLINE
  5
BE
100
AcDbEntity
  8
BORDER
390
36D
100
AcDbPolyline
 90
        4
 70
           1
 43
0.00727875
 38
0.23292
 10
8.105436087691
 20
1.399432010618
 42
0.228526832398
 10
8.106286124416
 20
1.316810574204
 42
0.623004310532
 10
8.193827026902
 20
1.317086772334
 42
0.229006249556
 10
8.194080660321
 20
1.399792460476
 42
0.632312199274
  0
LWPOLYLINE
  5
C4
100
AcDbEntity
  8
BORDER
390
36D
100
AcDbPolyline
 90
        2
 70
           0
 43
0.00727875
 38
0.23292
 10
8.228274463452
 20
1.393826974933
 42
0.741471343119
 10
8.071716558036
 20
1.392902634538
 42
0.741471343119
  0
LWPOLYLINE
  5
C8
100
AcDbEntity
  8
BORDER
390
36D
100
AcDbPolyline
 90
        2
 70
           0
 43
0.00727875
 38
0.23292
 10
8.229629527058
 20
1.329630563504
 42
0.140694817201
 10
8.228274463452
 20
1.393826974933
 42
0.140694817201
  0
LWPOLYLINE
  5
CC
100
AcDbEntity
  8
BORDER
390
36D
100
AcDbPolyline
 90
        2
 70
           0
 43
0.00727875
 38
0.23292
 10
8.071413203307
 20
1.327964568315
 42
0.76163903364
 10
8.229629527058
 20
1.329630563504
 42
0.76163903364
  0
LWPOLYLINE
  5
D0
100
AcDbEntity
  8
BORDER
390
36D
100
AcDbPolyline
 90
        2
 70
           0
 43
0.00727875
 38
0.23292
 10
8.071716558036
 20
1.392902634538
 42
0.143054065021
 10
8.071413203307
 20
1.327964568315
 42
0.143054065021
  0
SOLID
  5
D4
100
AcDbEntity
  8
BORDER
390
36D
100
AcDbTrace
 10
8.14960859264
 20
1.45347202302
 30
0.23292
 11
8.148839913037
 21
1.427319509433
 31
0.23292
 12
8.101181777677
 22
1.436549808347
 32
0.23292
 13
8.115018010523
 23
1.415781635792
 33
0.23292
  0
SOLID
  5
D5
100
AcDbEntity
  8
BORDER
390
36D
100
AcDbTrace
 10
8.101181777677
 20
1.436549808347
 30
0.23292
 11
8.115018010523
 21
1.415781635792
 31
0.23292
 12
8.076584030394
 22
1.408858911607
 32
0.23292
 13
8.102719136882
 23
1.390398313781
 33
0.23292
  0
SOLID
  5
D6
100
AcDbEntity
  8
BORDER
390
36D
100
AcDbTrace
 10
8.076584030394
 20
1.408858911607
 30
0.23292
 11
8.102719136882
 21
1.390398313781
 31
0.23292
 12
8.066030467927
 22
1.358504732634
 32
0.23292
 13
8.095645056481
 23
1.355950050467
 33
0.23292
  0
SOLID
  5
D7
100
AcDbEntity
  8
BORDER
390
36D
100
AcDbTrace
 10
8.066030467927
 20
1.358504732634
 30
0.23292
 11
8.095645056481
 21
1.355950050467
 31
0.23292
 12
8.079305973141
 22
1.306389216428
 32
0.23292
 13
8.105346387214
 23
1.316097008662
 33
0.23292
  0
SOLID
  5
D8
100
AcDbEntity
  8
BORDER
390
36D
100
AcDbTrace
 10
8.079305973141
 20
1.306389216428
 30
0.23292
 11
8.105346387214
 21
1.316097008662
 31
0.23292
 12
8.117600699719
 22
1.273178348257
 32
0.23292
 13
8.130876204933
 23
1.292082996293
 33
0.23292
  0
SOLID
  5
D9
100
AcDbEntity
  8
BORDER
390
36D
100
AcDbTrace
 10
8.117600699719
 20
1.273178348257
 30
0.23292
 11
8.130876204933
 21
1.292082996293
 31
0.23292
 12
8.1502788664
 22
1.267047111057
 32
0.23292
 13
8.1502788664
 23
1.290039250559
 33
0.23292
  0
SOLID
  5
DA
100
AcDbEntity
  8
BORDER
390
36D
100
AcDbTrace
 10
8.1502788664
 20
1.267047111057
 30
0.23292
 11
8.1502788664
 21
1.290039250559
 31
0.23292
 12
8.197764327357
 22
1.283397076925
 32
0.23292
 13
8.184999418497
 23
1.30076891566
 33
0.23292
  0
SOLID
  5
DB
100
AcDbEntity
  8
BORDER
390
36D
100
AcDbTrace
 10
8.197764327357
 20
1.283397076925
 30
0.23292
 11
8.184999418497
 21
1.30076891566
 31
0.23292
 12
8.223294145075
 22
1.312009517195
 32
0.23292
 13
8.201849098192
 23
1.334490720264
 33
0.23292
  0
SOLID
  5
DC
100
AcDbEntity
  8
BORDER
390
36D
100
AcDbTrace
 10
8.223294145075
 20
1.312009517195
 30
0.23292
 11
8.201849098192
 21
1.334490720264
 31
0.23292
 12
8.234527264872
 22
1.366168779135
 32
0.23292
 13
8.2028702909
 23
1.369234397735
 33
0.23292
  0
SOLID
  5
DD
100
AcDbEntity
  8
BORDER
390
36D
100
AcDbTrace
 10
8.234527264872
 20
1.366168779135
 30
0.23292
 11
8.2028702909
 21
1.369234397735
 31
0.23292
 12
8.21920937424
 22
1.417773358907
 32
0.23292
 13
8.192147767458
 23
1.404999948072
 33
0.23292
  0
SOLID
  5
DE
100
AcDbEntity
  8
BORDER
390
36D
100
AcDbTrace
 10
8.21920937424
 20
1.417773358907
 30
0.23292
 11
8.192147767458
 21
1.404999948072
 31
0.23292
 12
8.18295703308
 22
1.446385799177
 32
0.23292
 13
8.173766298701
 23
1.420328041074
 33
0.23292
  0
SOLID
  5
DF
100
AcDbEntity
  8
BORDER
390
36D
100
AcDbTrace
 10
8.18295703308
 20
1.446385799177
 30
0.23292
 11
8.173766298701
 21
1.420328041074
 31
0.23292
 12
8.14960859264
 22
1.45347202302
 32
0.23292
 13
8.148839913037
 23
1.427319509433
 33
0.23292
  0
SOLID
  5
E0
100
AcDbEntity
  8
BORDER
390
36D
100
AcDbTrace
 10
7.915429806614
 20
1.449779903455
 30
0.23292
 11
7.951823556614
 21
1.449779903455
 31
0.23292
 12
7.915429806614
 22
1.267811153455
 32
0.23292
 13
7.951823556614
 23
1.267811153455
 33
0.23292
  0
SOLID
  5
E1
100
AcDbEntity
  8
BORDER
390
36D
100
AcDbTrace
 10
8.027340587864
 20
1.449779903455
 30
0.23292
 11
8.063734337864
 21
1.449779903455
 31
0.23292
 12
8.027340587864
 22
1.267811153455
 32
0.23292
 13
8.063734337864
 23
1.267811153455
 33
0.23292
  0
SOLID
  5
E2
100
AcDbEntity
  8
BORDER
390
36D
100
AcDbTrace
 10
8.027340587864
 20
1.378812090955
 30
0.23292
 11
7.951823556614
 21
1.378812090955
 31
0.23292
 12
8.027340587864
 22
1.347877403455
 32
0.23292
 13
7.951823556614
 23
1.347877403455
 33
0.23292
  0
SOLID
  5
E3
100
AcDbEntity
  8
BORDER
390
36D
100
AcDbTrace
 10
7.762576056614
 20
1.449779903455
 30
0.23292
 11
7.915429806614
 21
1.449779903455
 31
0.23292
 12
7.762576056614
 22
1.419755059705
 32
0.23292
 13
7.915429806614
 23
1.419755059705
 33
0.23292
  0
LWPOLYLINE
  5
E4
100
AcDbEntity
  8
BORDER
390
36D
100
AcDbPolyline
 90
        4
 70
           0
 38
0.23292
 10
8.621244084537
 20
1.306934434705
 10
8.55163505994
 20
1.306934434705
 10
8.539582619114
 20
1.267811153455
 10
8.501369181614
 20
1.267811153455
  0
LINE
  5
EA
100
AcDbEntity
  8
BORDER
390
36D
100
AcDbLine
 10
8.384909181614
 20
1.267811153455
 30
0.23292
 11
8.514106994114
 21
1.267811153455
 31
0.23292
  0
LINE
  5
EB
100
AcDbEntity
  8
BORDER
390
36D
100
AcDbLine
 10
8.512350995676
 20
1.298745840955
 30
0.23292
 11
8.423122619114
 21
1.298745840955
 31
0.23292
  0
LINE
  5
EC
100
AcDbEntity
  8
BORDER
390
36D
100
AcDbLine
 10
8.423122619114
 20
1.298745840955
 30
0.23292
 11
8.423122619114
 21
1.449779903455
 31
0.23292
  0
LINE
  5
ED
100
AcDbEntity
  8
BORDER
390
36D
100
AcDbLine
 10
8.423122619114
 20
1.449779903455
 30
0.23292
 11
8.384909181614
 21
1.449779903455
 31
0.23292
  0
LINE
  5
EE
100
AcDbEntity
  8
BORDER
390
36D
100
AcDbLine
 10
8.384909181614
 20
1.449779903455
 30
0.23292
 11
8.384909181614
 21
1.267811153455
 31
0.23292
  0
LWPOLYLINE
  5
EF
100
AcDbEntity
  8
BORDER
390
36D
100
AcDbPolyline
 90
        4
 70
           0
 38
0.23292
 10
8.512350995676
 20
1.298745840955
 10
8.565968087864
 20
1.449779903455
 10
8.606911056614
 20
1.449779903455
 10
8.666941177581
 20
1.280680971152
  0
LWPOLYLINE
  5
F5
100
AcDbEntity
  8
BORDER
390
36D
100
AcDbPolyline
 90
        3
 70
           0
 38
0.23292
 10
8.671509962864
 20
1.267811153455
 10
8.633296525364
 20
1.267811153455
 10
8.621244084537
 20
1.306934434705
  0
ARC
  5
FA
100
AcDbEntity
  8
BORDER
390
36D
100
AcDbCircle
 10
8.751957353963
 20
1.374949864379
 30
0.23292
 40
0.074830039076
100
AcDbArc
 50
58.670205836284
 51
90.000000000001
  0
LINE
  5
FB
100
AcDbEntity
  8
BORDER
390
36D
100
AcDbLine
 10
8.751957353963
 20
1.449779903455
 30
0.23292
 11
8.666941177581
 21
1.449779903455
 31
0.23292
  0
LINE
  5
FC
100
AcDbEntity
  8
BORDER
390
36D
100
AcDbLine
 10
8.666941177581
 20
1.449779903455
 30
0.23292
 11
8.666941177581
 21
1.280680971152
 31
0.23292
  0
LINE
  5
FD
100
AcDbEntity
  8
BORDER
390
36D
100
AcDbLine
 10
8.666941177581
 20
1.267811153455
 30
0.23292
 11
8.755196021331
 21
1.267811153455
 31
0.23292
  0
ARC
  5
FE
100
AcDbEntity
  8
BORDER
390
36D
100
AcDbCircle
 10
8.755196021331
 20
1.344956517491
 30
0.23292
 40
0.077145364036
100
AcDbArc
 50
269.999999999995
 51
297.452647876119
  0
ARC
  5
FF
100
AcDbEntity
  8
BORDER
390
36D
100
AcDbCircle
 10
8.769306268611
 20
1.317796203606
 30
0.23292
 40
0.046538473821
100
AcDbArc
 50
297.452647876124
 51
341.33231151504
  0
ARC
  5
100
100
AcDbEntity
  8
BORDER
390
36D
100
AcDbCircle
 10
8.75530740265
 20
1.305270347628
 30
0.23292
 40
0.065323183459
100
AcDbArc
 50
41.821431110538
 51
67.211169878313
  0
ARC
  5
101
100
AcDbEntity
  8
BORDER
390
36D
100
AcDbCircle
 10
8.748827115081
 20
1.432492872205
 30
0.23292
 40
0.074154709264
100
AcDbArc
 50
295.378395342112
 51
313.157562911559
  0
ARC
  5
102
100
AcDbEntity
  8
BORDER
390
36D
100
AcDbCircle
 10
8.775790337718
 20
1.403737305273
 30
0.23292
 40
0.034735196272
100
AcDbArc
 50
313.15756291156
 51
358.653260821401
  0
ARC
  5
103
100
AcDbEntity
  8
BORDER
390
36D
100
AcDbCircle
 10
8.769569920737
 20
1.403883543311
 30
0.23292
 40
0.040957331997
100
AcDbArc
 50
358.6532608214
 51
58.670205836283
  0
LWPOLYLINE
  5
104
100
AcDbEntity
  8
BORDER
390
36D
100
AcDbPolyline
 90
        7
 70
           0
 38
0.23292
 10
8.865634253608
 20
1.381980375018
 42
0.001956891708
 10
8.917743910978
 20
1.371364120449
 42
-0.213696403129
 10
8.953184875186
 20
1.346592878346
 42
-0.207558558303
 10
8.958085884733
 20
1.309225914586
 42
-0.231198410138
 10
8.923613188334
 20
1.270960525463
 42
-0.176335766587
 10
8.851657867203
 20
1.268513296692
 42
-0.211590609527
 10
8.813396396807
 20
1.302900226256
  0
LWPOLYLINE
  5
10D
100
AcDbEntity
  8
BORDER
390
36D
100
AcDbPolyline
 90
       14
 70
           0
 38
0.23292
 10
8.81560668991
 20
1.322497324014
 10
8.844784370155
 20
1.322497324014
 42
0.302044086476
 10
8.863443988055
 20
1.295006720223
 42
0.26536997124
 10
8.91347321971
 20
1.301597239316
 42
0.635606440247
 10
8.905398230272
 20
1.339234138267
 42
-0.000943783614
 10
8.845749952256
 20
1.353134835383
 42
-0.344245433117
 10
8.810552563096
 20
1.396939813417
 42
-0.322222187521
 10
8.846650327683
 20
1.448627401729
 42
-0.141736434076
 10
8.90835278491
 20
1.452094031372
 42
-0.333774480508
 10
8.952626184496
 20
1.39964034064
 10
8.916644116835
 20
1.39964034064
 42
0.301979239631
 10
8.89945464175
 20
1.423528725444
 42
0.197287562224
 10
8.861295967061
 20
1.422419448277
 42
0.728374493268
 10
8.865634253608
 20
1.381980375018
 42
0.001956891708
  0
ARC
  5
11D
100
AcDbEntity
  8
BORDER
390
36D
100
AcDbCircle
 10
8.769306268611
 20
1.317796203606
 30
0.23292
 40
0.046538473821
100
AcDbArc
 50
5.7976668128
 51
41.821431110538
  0
SOLID
  5
11E
100
AcDbEntity
  8
BORDER
390
36D
100
AcDbTrace
 10
7.820806056614
 20
1.267811153455
 30
0.23292
 11
7.857199806614
 21
1.267811153455
 31
0.23292
 12
7.820806056614
 22
1.419755059705
 32
0.23292
 13
7.857199806614
 23
1.419755059705
 33
0.23292
  0
TEXT
  5
11F
100
AcDbEntity
  8
BORDER
390
36D
100
AcDbText
 10
8.822083377769
 20
0.376785076728
 30
0.11646
 40
0.04529
  1
OF
100
AcDbText
  0
TEXT
  5
120
100
AcDbEntity
  8
BORDER
390
36D
100
AcDbText
 10
7.756080528307
 20
0.477070076728
 30
0.11646
 40
0.04
  1
DATE
100
AcDbText
  0
TEXT
  5
121
100
AcDbEntity
  8
BORDER
390
36D
100
AcDbText
 10
7.752845528307
 20
0.858800076728
 30
0.11646
 40
0.04529
  1
MATERIAL
100
AcDbText
  0
TRACE
  5
122
100
AcDbEntity
  8
BORDER
390
36D
100
AcDbTrace
 10
7.710790528307
 20
1.483155076728
 30
0.11646
 11
7.678440528307
 21
1.515505076728
 31
0.11646
 12
7.710790528307
 22
0.153570076728
 32
0.11646
 13
7.678440528307
 23
0.153570076728
 33
0.11646
  0
TRACE
  5
123
100
AcDbEntity
  8
BORDER
390
36D
100
AcDbTrace
 10
9.959115528307
 20
1.483155076728
 30
0.11646
 11
9.959115528307
 21
1.515505076728
 31
0.11646
 12
7.710790528307
 22
1.483155076728
 32
0.11646
 13
7.678440528307
 23
1.515505076728
 33
0.11646
  0
TEXT
  5
124
100
AcDbEntity
  8
BORDER
390
36D
100
AcDbText
 10
8.676043587935
 20
0.474000160183
 30
0.11646
 40
0.04
  1
SHEET
100
AcDbText
  0
TEXT
  5
125
100
AcDbEntity
  8
BORDER
390
36D
100
AcDbText
 10
8.262505415892
 20
0.473835076728
 30
0.11646
 40
0.04
  1
REV
100
AcDbText
  0
TEXT
  5
126
100
AcDbEntity
  8
BORDER
390
36D
100
AcDbText
 10
7.756080528307
 20
0.282970076728
 30
0.11646
 40
0.04529
  1
DWG NO.
100
AcDbText
  0
TEXT
  5
127
100
AcDbEntity
  8
BORDER
390
36D
100
AcDbText
 10
7.752845528307
 20
0.667935076728
 30
0.11646
 40
0.04
  1
DRAWN
100
AcDbText
  0
TEXT
  5
128
100
AcDbEntity
  8
BORDER
390
36D
100
AcDbText
 10
7.752845528307
 20
1.172595076728
 30
0.11646
 40
0.04529
  1
TITLE
100
AcDbText
  0
LINE
  5
129
100
AcDbEntity
  8
BORDER
390
36D
100
AcDbLine
 10
7.694615528307
 20
1.240530076728
 30
0.11646
 11
9.959115528307
 21
1.240530076728
 31
0.11646
  0
LINE
  5
12A
100
AcDbEntity
  8
BORDER
390
36D
100
AcDbLine
 10
9.072725528307
 20
0.929970076728
 30
0.11646
 11
9.072725528307
 21
0.150335076728
 31
0.11646
  0
TEXT
  5
12B
100
AcDbEntity
  8
BORDER
390
36D
100
AcDbText
 10
8.469602737048
 20
0.475
 30
0.0
 40
0.04
  1
SIZE
 72
           1
 11
8.536402737048
 21
0.475
 31
0.0
100
AcDbText
  0
LINE
  5
12C
100
AcDbEntity
  8
BORDER
390
36D
100
AcDbLine
 39
0.18
 10
8.430474047368
 20
0.541770076728
 30
0.0
 11
8.430474047368
 21
0.347670076728
 31
0.0
  0
TEXT
  5
12D
100
AcDbEntity
  8
BORDER
390
36D
100
AcDbText
 10
8.520053519062
 20
0.38
 30
0.0
 40
0.05
  1
A
 72
           1
 11
8.536803519062
 21
0.38
 31
0.0
100
AcDbText
  0
LWPOLYLINE
  5
12E
100
AcDbEntity
  8
0
390
36D
100
AcDbPolyline
 90
        2
 70
           0
 43
0.015
 10
0.0
 20
0.0
 10
0.0
 20
0.0
  0
TEXT
  5
156
100
AcDbEntity
  8
BORDER
390
36D
100
AcDbText
 10
8.266085415892
 20
0.282970076728
 30
0.11646
 40
0.04529
  1
PART NO.
100
AcDbText
  0
TEXT
  5
157
100
AcDbEntity
  8
DIM1
390
36D
100
AcDbText
 10
7.99605755132
 20
1.092095947253
 30
0.0
 40
0.08
  1
XXX XXXXXXXXX XXXXX
100
AcDbText
  0
TEXT
  5
158
100
AcDbEntity
  8
DIM1
390
36D
100
AcDbText
 10
7.88605755132
 20
0.762095947253
 30
0.0
 40
0.06
  1
XXXX-XX XXXXXXXX
100
AcDbText
  0
TEXT
  5
159
100
AcDbEntity
  8
DIM1
390
36D
100
AcDbText
 10
9.24105755132
 20
0.762095947253
 30
0.0
 40
0.06
  1
XXXXXX
100
AcDbText
  0
TEXT
  5
15A
100
AcDbEntity
  8
DIM1
390
36D
100
AcDbText
 10
7.83605755132
 20
0.567095947253
 30
0.0
 40
0.06
  1
XX
100
AcDbText
  0
TEXT
  5
15B
100
AcDbEntity
  8
DIM1
390
36D
100
AcDbText
 10
8.35105755132
 20
0.567095947253
 30
0.0
 40
0.06
  1
XX
100
AcDbText
  0
TEXT
  5
15C
100
AcDbEntity
  8
DIM1
390
36D
100
AcDbText
 10
7.75605755132
 20
0.372095947253
 30
0.0
 40
0.06
  1
XX/XX/XX
100
AcDbText
  0
TEXT
  5
15D
100
AcDbEntity
  8
DIM1
390
36D
100
AcDbText
 10
7.76605755132
 20
0.182095947253
 30
0.0
 40
0.06
  1
XXXX-XXX
100
AcDbText
  0
TEXT
  5
15E
100
AcDbEntity
  8
DIM1
390
36D
100
AcDbText
 10
8.42105755132
 20
0.182095947253
 30
0.0
 40
0.06
  1
XXXXX-X
100
AcDbText
  0
TEXT
  5
15F
100
AcDbEntity
  8
DIM1
390
36D
100
AcDbText
 10
8.70605755132
 20
0.372095947253
 30
0.0
 40
0.06
  1
1
100
AcDbText
  0
TEXT
  5
160
100
AcDbEntity
  8
DIM1
390
36D
100
AcDbText
 10
8.95105755132
 20
0.372095947253
 30
0.0
 40
0.06
  1
1
100
AcDbText
  0
LWPOLYLINE
  5
161
100
AcDbEntity
  8
0
390
36D
100
AcDbPolyline
 90
        2
 70
           0
 43
0.015
 10
0.0
 20
0.0
 10
0.0
 20
0.0
  0
TEXT
  5
189
100
AcDbEntity
  8
DIM1
390
36D
100
AcDbText
 10
8.3
 20
0.37
 30
0.0
 40
0.08
  1
 
100
AcDbText
  0
ENDBLK
  5
18A
100
AcDbEntity
  8
0
390
36D
100
AcDbBlockEnd
  0
BLOCK
  5
35F
100
AcDbEntity
  8
0
390
36D
100
AcDbBlockBegin
  2
COPYRIGHT00
 70
          64
 10
0.0
 20
0.0
 30
0.0
  3
COPYRIGHT00
  1

  0
MTEXT
  5
35E
100
AcDbEntity
  8
BORDER
390
36D
100
AcDbMText
 10
13.885874101485
 20
0.198333401186
 30
0.0
 40
0.25
 41
9.341
 71
           1
 72
           5
  1
\fVerdana|b0|i0|c0|p34;COPYRIGHT \fSymbol|b0|i0|c2|p18;\H0.3;Ó\fVerdana|b0|i0|c0|p34;\H0.25; 2000 by THORLABS INC.
 73
           1
 44
1.0
  0
ENDBLK
  5
360
100
AcDbEntity
  8
0
390
36D
100
AcDbBlockEnd
  0
BLOCK
  5
368
100
AcDbEntity
  8
0
390
36D
100
AcDbBlockBegin
  2
ESD-INFO
 70
          64
 10
0.0
 20
0.0
 30
0.0
  3
ESD-INFO
  1

  0
LINE
  5
365
100
AcDbEntity
  8
D1
390
36D
100
AcDbLine
 10
2.987898049942
 20
0.000296665122
 30
0.0
 11
-2.987323406216
 21
0.000296665122
 31
0.0
  0
LINE
  5
366
100
AcDbEntity
  8
D1
390
36D
100
AcDbLine
 10
-2.892290062977
 20
0.059636699093
 30
0.0
 11
2.892864706703
 21
0.059636699093
 31
0.0
  0
TEXT
  5
367
100
AcDbEntity
  8
D1
390
36D
100
AcDbText
 10
-2.794564803034
 20
0.106518796107
 30
0.0
 40
0.15
  1
INFORMATION ONLY, NOT FOR MANUFACTURING
100
AcDbText
  0
ENDBLK
  5
369
100
AcDbEntity
  8
0
390
36D
100
AcDbBlockEnd
  0
ENDSEC
  0
SECTION
  2
ENTITIES
  0
LINE
  5
1B3
100
AcDbEntity
  8
0
390
36D
 62
           0
100
AcDbLine
 10
1.976259724445
 20
4.789427046897
 30
0.0
 11
2.227356632654
 21
4.934397914444
 31
0.0
  0
LINE
  5
1B4
100
AcDbEntity
  8
0
390
36D
 62
           0
100
AcDbLine
 10
1.976104741232
 20
4.500769230769
 30
0.0
 11
1.976104741232
 21
4.79
 31
0.0
  0
LINE
  5
1B5
100
AcDbEntity
  8
0
390
36D
 62
           0
100
AcDbLine
 10
2.225642144006
 20
4.356057784772
 30
0.0
 11
2.47583884397
 21
4.500508916847
 31
0.0
  0
LINE
  5
1B6
100
AcDbEntity
  8
0
390
36D
 62
           0
100
AcDbLine
 10
2.226456424409
 20
4.356121821028
 30
0.0
 11
1.976259724445
 21
4.500572953103
 31
0.0
  0
LINE
  5
1B7
100
AcDbEntity
  8
0
390
36D
 62
           0
100
AcDbLine
 10
2.476104741232
 20
4.500769230769
 30
0.0
 11
2.476104741232
 21
4.789230769231
 31
0.0
  0
LINE
  5
1B8
100
AcDbEntity
  8
0
390
36D
 62
           0
100
AcDbLine
 10
2.47583884397
 20
4.789491083153
 30
0.0
 11
2.226141774046
 21
4.933653753689
 31
0.0
  0
CIRCLE
  5
1BA
100
AcDbEntity
  8
0
390
36D
  6
HIDDEN
 62
           0
100
AcDbCircle
 10
2.226104741232
 20
4.645
 30
0.0
 40
0.125
  0
CIRCLE
  5
1BB
100
AcDbEntity
  8
0
390
36D
 62
           0
100
AcDbCircle
 10
2.226104741232
 20
4.645
 30
0.0
 40
0.105
  0
LINE
  5
1BC
100
AcDbEntity
  8
0
390
36D
 62
           0
100
AcDbLine
 10
7.009844540918
 20
4.935
 30
0.0
 11
7.009844540918
 21
4.355
 31
0.0
  0
LINE
  5
1BD
100
AcDbEntity
  8
0
390
36D
 62
           0
100
AcDbLine
 10
7.009844540918
 20
4.355
 30
0.0
 11
6.879844540918
 21
4.355
 31
0.0
  0
LINE
  5
1BE
100
AcDbEntity
  8
0
390
36D
 62
           0
100
AcDbLine
 10
7.009844540918
 20
4.455
 30
0.0
 11
7.489844540918
 21
4.455
 31
0.0
  0
LINE
  5
1BF
100
AcDbEntity
  8
0
390
36D
 62
           0
100
AcDbLine
 10
7.509844540918
 20
4.475
 30
0.0
 11
7.509844540918
 21
4.815
 31
0.0
  0
LINE
  5
1C0
100
AcDbEntity
  8
0
390
36D
 62
           0
100
AcDbLine
 10
7.489844540918
 20
4.835
 30
0.0
 11
7.009844540918
 21
4.835
 31
0.0
  0
LINE
  5
1C1
100
AcDbEntity
  8
0
390
36D
 62
           0
100
AcDbLine
 10
7.489844540918
 20
4.835
 30
0.0
 11
7.509844540918
 21
4.815
 31
0.0
  0
LINE
  5
1C2
100
AcDbEntity
  8
0
390
36D
 62
           0
100
AcDbLine
 10
7.509844540918
 20
4.475
 30
0.0
 11
7.489844540918
 21
4.455
 31
0.0
  0
LINE
  5
1C3
100
AcDbEntity
  8
0
390
36D
 62
           0
100
AcDbLine
 10
7.484844540918
 20
4.525
 30
0.0
 11
7.484844540918
 21
4.765
 31
0.0
  0
LINE
  5
1C4
100
AcDbEntity
  8
0
390
36D
 62
           0
100
AcDbLine
 10
7.459844540918
 20
4.455
 30
0.0
 11
7.459844540918
 21
4.835
 31
0.0
  0
LINE
  5
1C5
100
AcDbEntity
  8
0
390
36D
 62
           0
100
AcDbLine
 10
7.434844540918
 20
4.525
 30
0.0
 11
7.434844540918
 21
4.765
 31
0.0
  0
LINE
  5
1C6
100
AcDbEntity
  8
0
390
36D
 62
           0
100
AcDbLine
 10
7.409844540918
 20
4.455
 30
0.0
 11
7.409844540918
 21
4.835
 31
0.0
  0
LINE
  5
1CD
100
AcDbEntity
  8
0
390
36D
 62
           0
100
AcDbLine
 10
7.009844540918
 20
4.79
 30
0.0
 11
6.879844540918
 21
4.79
 31
0.0
  0
LINE
  5
1CE
100
AcDbEntity
  8
0
390
36D
 62
           0
100
AcDbLine
 10
6.879844540918
 20
4.5
 30
0.0
 11
7.009844540918
 21
4.5
 31
0.0
  0
TEXT
  5
1CF
100
AcDbEntity
  8
0
390
36D
 62
           0
100
AcDbText
 10
8.675218026693
 20
3.707491246394
 30
0.0
 40
0.1
  1
3/8"-40 THREAD
100
AcDbText
  0
LINE
  5
1D0
100
AcDbEntity
  8
0
390
36D
 62
           0
100
AcDbLine
 10
1.976104741232
 20
4.8475
 30
0.0
 11
1.976104741232
 21
5.735
 31
0.0
  0
LINE
  5
1D1
100
AcDbEntity
  8
0
390
36D
 62
           0
100
AcDbLine
 10
2.471104741232
 20
4.8475
 30
0.0
 11
2.471104741232
 21
5.735
 31
0.0
  0
LINE
  5
1D2
100
AcDbEntity
  8
0
390
36D
 62
           0
100
AcDbLine
 10
2.651104741232
 20
5.645
 30
0.0
 11
2.831104741232
 21
5.645
 31
0.0
  0
LINE
  5
1D3
100
AcDbEntity
  8
0
390
36D
 62
           0
100
AcDbLine
 10
1.796104741232
 20
5.645
 30
0.0
 11
1.616104741232
 21
5.645
 31
0.0
  0
TEXT
  5
1D6
100
AcDbEntity
  8
0
390
36D
 62
           0
100
AcDbText
 10
2.898104036588
 20
5.595
 30
0.0
 40
0.1
  1
0.50"
100
AcDbText
  0
LINE
  5
1D7
100
AcDbEntity
  8
0
390
36D
 62
           0
100
AcDbLine
 10
2.136104741232
 20
4.645
 30
0.0
 11
2.316104741232
 21
4.645
 31
0.0
  0
LINE
  5
1D8
100
AcDbEntity
  8
0
390
36D
 62
           0
100
AcDbLine
 10
2.226104741232
 20
4.555
 30
0.0
 11
2.226104741232
 21
4.735
 31
0.0
  0
LINE
  5
1DA
100
AcDbEntity
  8
0
390
36D
 62
           0
100
AcDbLine
 10
2.086537316585
 20
4.383986827547
 30
0.0
 11
1.88894183089
 21
3.912452145774
 31
0.0
  0
LINE
  5
1DB
100
AcDbEntity
  8
0
390
36D
 62
           0
100
AcDbLine
 10
1.88894183089
 20
3.912452145774
 30
0.0
 11
1.67894183089
 21
3.912452145774
 31
0.0
  0
TEXT
  5
1DC
100
AcDbEntity
  8
0
390
36D
 62
           0
100
AcDbText
 10
0.282275164223
 20
3.862452145774
 30
0.0
 40
0.1
  1
1/4"-80 THREAD
100
AcDbText
  0
ARC
  5
1DD
100
AcDbEntity
  8
0
390
36D
 62
           0
100
AcDbCircle
 10
7.395469540918
 20
4.645
 30
0.0
 40
0.535625
100
AcDbArc
 50
164.293373396044
 51
195.706626603956
  0
ARC
  5
1DE
100
AcDbEntity
  8
0
390
36D
 62
           0
100
AcDbCircle
 10
7.001094540918
 20
4.8625
 30
0.0
 40
0.141272122161
100
AcDbArc
 50
149.12318692094
 51
210.87681307906
  0
LINE
  5
1DF
100
AcDbEntity
  8
0
390
36D
 62
           0
100
AcDbLine
 10
6.879844540918
 20
4.935
 30
0.0
 11
7.009844540918
 21
4.935
 31
0.0
  0
ARC
  5
1E0
100
AcDbEntity
  8
0
390
36D
 62
           0
100
AcDbCircle
 10
7.001094540918
 20
4.4275
 30
0.0
 40
0.141272122161
100
AcDbArc
 50
149.12318692094
 51
210.87681307906
  0
LINE
  5
1E1
100
AcDbEntity
  8
0
390
36D
 62
           0
100
AcDbLine
 10
6.859844540918
 20
4.42
 30
0.0
 11
6.859844540918
 21
4.865
 31
0.0
  0
LINE
  5
1E2
100
AcDbEntity
  8
0
390
36D
 62
           0
100
AcDbLine
 10
7.209844540918
 20
4.455
 30
0.0
 11
7.209844540918
 21
4.835
 31
0.0
  0
LINE
  5
1E5
100
AcDbEntity
  8
0
390
36D
 62
           0
100
AcDbLine
 10
7.550619531194
 20
4.342828693007
 30
0.0
 11
8.285218026693
 21
3.757491246394
 31
0.0
  0
LINE
  5
1E6
100
AcDbEntity
  8
0
390
36D
 62
           0
100
AcDbLine
 10
8.285218026693
 20
3.757491246394
 30
0.0
 11
8.570218026693
 21
3.757491246394
 31
0.0
  0
CIRCLE
  5
1E7
100
AcDbEntity
  8
0
390
36D
 62
           0
100
AcDbCircle
 10
2.226104741232
 20
4.645
 30
0.0
 40
0.25
  0
LINE
  5
1E8
100
AcDbEntity
  8
0
390
36D
 62
           0
100
AcDbLine
 10
7.509844540918
 20
4.8775
 30
0.0
 11
7.509844540918
 21
5.64
 31
0.0
  0
LINE
  5
1E9
100
AcDbEntity
  8
0
390
36D
 62
           0
100
AcDbLine
 10
7.209844540918
 20
4.8975
 30
0.0
 11
7.209844540918
 21
5.64
 31
0.0
  0
LINE
  5
1EA
100
AcDbEntity
  8
0
390
36D
 62
           0
100
AcDbLine
 10
7.029844540918
 20
5.55
 30
0.0
 11
6.884844540918
 21
5.55
 31
0.0
  0
LINE
  5
1EB
100
AcDbEntity
  8
0
390
36D
 62
           0
100
AcDbLine
 10
7.689844540918
 20
5.55
 30
0.0
 11
7.869844540918
 21
5.55
 31
0.0
  0
TEXT
  5
1EE
100
AcDbEntity
  8
0
390
36D
 62
           0
100
AcDbText
 10
7.914844540918
 20
5.5
 30
0.0
 40
0.1
  1
0.31"
100
AcDbText
  0
LINE
  5
1EF
100
AcDbEntity
  8
0
390
36D
 62
           0
100
AcDbLine
 10
7.009844540918
 20
4.9975
 30
0.0
 11
7.009844540918
 21
6.118734995627
 31
0.0
  0
LINE
  5
1F0
100
AcDbEntity
  8
0
390
36D
 62
           0
100
AcDbLine
 10
7.509844540918
 20
4.8775
 30
0.0
 11
7.509844540918
 21
6.118734995627
 31
0.0
  0
LINE
  5
1F1
100
AcDbEntity
  8
0
390
36D
 62
           0
100
AcDbLine
 10
7.689844540918
 20
6.028734995627
 30
0.0
 11
7.869844540918
 21
6.028734995627
 31
0.0
  0
LINE
  5
1F2
100
AcDbEntity
  8
0
390
36D
 62
           0
100
AcDbLine
 10
6.829844540918
 20
6.028734995627
 30
0.0
 11
6.649844540918
 21
6.028734995627
 31
0.0
  0
TEXT
  5
1F5
100
AcDbEntity
  8
0
390
36D
 62
           0
100
AcDbText
 10
7.094844540918
 20
5.978734995627
 30
0.0
 40
0.1
  1
0.50"
100
AcDbText
  0
LINE
  5
1F6
100
AcDbEntity
  8
0
390
36D
 62
           0
100
AcDbLine
 10
6.859844540918
 20
4.3575
 30
0.0
 11
6.859844540918
 21
3.805
 31
0.0
  0
LINE
  5
1F7
100
AcDbEntity
  8
0
390
36D
 62
           0
100
AcDbLine
 10
7.509844540918
 20
4.4125
 30
0.0
 11
7.509844540918
 21
3.805
 31
0.0
  0
LINE
  5
1F8
100
AcDbEntity
  8
0
390
36D
 62
           0
100
AcDbLine
 10
7.689844540918
 20
3.895
 30
0.0
 11
7.869844540918
 21
3.895
 31
0.0
  0
LINE
  5
1F9
100
AcDbEntity
  8
0
390
36D
 62
           0
100
AcDbLine
 10
6.679844540918
 20
3.895
 30
0.0
 11
6.499844540918
 21
3.895
 31
0.0
  0
TEXT
  5
1FC
100
AcDbEntity
  8
0
390
36D
 62
           0
100
AcDbText
 10
7.019844540918
 20
3.845
 30
0.0
 40
0.1
  1
0.65"
100
AcDbText
  0
TEXT
  5
201
100
AcDbEntity
  8
0
390
36D
 62
           0
100
AcDbText
 10
7.882845528307
 20
0.967320076728
 30
0.11646
 40
0.04529
  1
TOL: X.XXX=+/-0.005 X.XX=+/-0.010 ANGULAR +/-30'
100
AcDbText
  0
LINE
  5
203
100
AcDbEntity
  8
0
390
36D
 62
           0
100
AcDbLine
 39
0.11646
 10
7.824615528307
 20
1.051430076728
 30
0.11646
 11
10.089115528307
 21
1.051430076728
 31
0.11646
  0
TEXT
  5
208
100
AcDbEntity
  8
0
390
36D
 62
           0
100
AcDbText
 10
9.231840528307
 20
0.863800076728
 30
0.11646
 40
0.04529
  1
WHERE USED
100
AcDbText
  0
LINE
  5
209
100
AcDbEntity
  8
0
390
36D
 62
           0
100
AcDbLine
 39
0.11646
 10
8.779758265355
 20
0.352670076728
 30
0.11646
 11
8.779758265355
 21
0.546770076728
 31
0.11646
  0
TEXT
  5
20A
100
AcDbEntity
  8
0
390
36D
 62
           0
100
AcDbText
 10
8.801612874348
 20
0.672935076728
 30
0.11646
 40
0.04
  1
APPROVED
100
AcDbText
  0
TEXT
  5
20B
100
AcDbEntity
  8
0
390
36D
 62
           0
100
AcDbText
 10
8.391045415892
 20
0.672935076728
 30
0.11646
 40
0.04
  1
ENGR.
100
AcDbText
  0
LINE
  5
20C
100
AcDbEntity
  8
0
390
36D
 62
           0
100
AcDbLine
 39
0.11646
 10
8.376151786493
 20
0.123294581979
 30
0.0
 11
8.376151786493
 21
0.738699829353
 31
0.0
  0
LINE
  5
20D
100
AcDbEntity
  8
0
390
36D
 62
           0
100
AcDbLine
 39
0.11646
 10
8.779758265355
 20
0.546770076728
 30
0.11646
 11
8.779758265355
 21
0.740870076728
 31
0.11646
  0
LINE
  5
20E
100
AcDbEntity
  8
0
390
36D
 62
           0
100
AcDbLine
 10
7.824615528307
 20
0.352670076728
 30
0.11646
 11
9.202813049599
 21
0.352670076728
 31
0.11646
  0
LINE
  5
20F
100
AcDbEntity
  8
0
390
36D
 62
           0
100
AcDbLine
 10
7.824615528307
 20
0.546770076728
 30
0.11646
 11
9.202813049599
 21
0.546770076728
 31
0.11646
  0
LINE
  5
210
100
AcDbEntity
  8
0
390
36D
 62
           0
100
AcDbLine
 10
7.824615528307
 20
0.740870076728
 30
0.11646
 11
9.202813049599
 21
0.740870076728
 31
0.11646
  0
LINE
  5
211
100
AcDbEntity
  8
0
390
36D
 62
           0
100
AcDbLine
 10
7.824615528307
 20
0.934970076728
 30
0.11646
 11
10.089115528307
 21
0.934970076728
 31
0.11646
  0
TEXT
  5
212
100
AcDbEntity
  8
0
390
36D
 62
           0
100
AcDbText
 10
9.305095394672
 20
1.389271153455
 30
0.23292
 40
0.0727875
  1
PO BOX 366
100
AcDbText
  0
TEXT
  5
213
100
AcDbEntity
  8
0
390
36D
 62
           0
100
AcDbText
 10
9.305095394672
 20
1.267958653455
 30
0.23292
 40
0.0727875
  1
NEWTON NJ
100
AcDbText
  0
LINE
  5
214
100
AcDbEntity
  8
0
390
36D
 62
           0
100
AcDbLine
 10
8.742835404891
 20
1.339229747205
 30
0.23292
 11
8.716439572239
 21
1.42491293782
 31
0.23292
  0
LINE
  5
215
100
AcDbEntity
  8
0
390
36D
 62
           0
100
AcDbLine
 10
8.690043739586
 20
1.339229747205
 30
0.23292
 11
8.742835404891
 21
1.339229747205
 31
0.23292
  0
LINE
  5
216
100
AcDbEntity
  8
0
390
36D
 62
           0
100
AcDbLine
 10
8.716439572239
 20
1.42491293782
 30
0.23292
 11
8.690043739586
 21
1.339229747205
 31
0.23292
  0
LINE
  5
217
100
AcDbEntity
  8
0
390
36D
 62
           0
100
AcDbLine
 10
8.881699519231
 20
1.353787247205
 30
0.23292
 11
8.833334927581
 21
1.353787247205
 31
0.23292
  0
ARC
  5
218
100
AcDbEntity
  8
0
390
36D
 62
           0
100
AcDbCircle
 10
8.881699519231
 20
1.328331295229
 30
0.23292
 40
0.025455951976
100
AcDbArc
 50
313.227508124748
 51
90.0
  0
ARC
  5
219
100
AcDbEntity
  8
0
390
36D
 62
           0
100
AcDbCircle
 10
8.877007427581
 20
1.333323060531
 30
0.23292
 40
0.032306750825
100
AcDbArc
 50
270.0
 51
313.227508124747
  0
LINE
  5
21A
100
AcDbEntity
  8
0
390
36D
 62
           0
100
AcDbLine
 10
8.833334927581
 20
1.301016309705
 30
0.23292
 11
8.877007427581
 21
1.301016309705
 31
0.23292
  0
LINE
  5
21B
100
AcDbEntity
  8
0
390
36D
 62
           0
100
AcDbLine
 10
8.833334927581
 20
1.353787247205
 30
0.23292
 11
8.833334927581
 21
1.301016309705
 31
0.23292
  0
ARC
  5
21C
100
AcDbEntity
  8
0
390
36D
 62
           0
100
AcDbCircle
 10
8.879348382659
 20
1.404738497205
 30
0.23292
 40
0.02274609375
100
AcDbArc
 50
270.0
 51
90.000004829675
  0
LINE
  5
21D
100
AcDbEntity
  8
0
390
36D
 62
           0
100
AcDbLine
 10
8.833334927581
 20
1.381992403455
 30
0.23292
 11
8.879348382659
 21
1.381992403455
 31
0.23292
  0
LINE
  5
21E
100
AcDbEntity
  8
0
390
36D
 62
           0
100
AcDbLine
 10
8.833334927581
 20
1.427484590955
 30
0.23292
 11
8.833334927581
 21
1.381992403455
 31
0.23292
  0
LINE
  5
21F
100
AcDbEntity
  8
0
390
36D
 62
           0
100
AcDbLine
 10
8.879348380741
 20
1.427484590955
 30
0.23292
 11
8.833334927581
 21
1.427484590955
 31
0.23292
  0
LINE
  5
2A6
100
AcDbEntity
  8
0
390
36D
 62
           0
100
AcDbLine
 10
8.514909181614
 20
1.272811153455
 30
0.23292
 11
8.644106994114
 21
1.272811153455
 31
0.23292
  0
LINE
  5
2A7
100
AcDbEntity
  8
0
390
36D
 62
           0
100
AcDbLine
 10
8.642350995676
 20
1.303745840955
 30
0.23292
 11
8.553122619114
 21
1.303745840955
 31
0.23292
  0
LINE
  5
2A8
100
AcDbEntity
  8
0
390
36D
 62
           0
100
AcDbLine
 10
8.553122619114
 20
1.303745840955
 30
0.23292
 11
8.553122619114
 21
1.454779903455
 31
0.23292
  0
LINE
  5
2A9
100
AcDbEntity
  8
0
390
36D
 62
           0
100
AcDbLine
 10
8.553122619114
 20
1.454779903455
 30
0.23292
 11
8.514909181614
 21
1.454779903455
 31
0.23292
  0
LINE
  5
2AA
100
AcDbEntity
  8
0
390
36D
 62
           0
100
AcDbLine
 10
8.514909181614
 20
1.454779903455
 30
0.23292
 11
8.514909181614
 21
1.272811153455
 31
0.23292
  0
ARC
  5
2B6
100
AcDbEntity
  8
0
390
36D
 62
           0
100
AcDbCircle
 10
8.881957353963
 20
1.379949864379
 30
0.23292
 40
0.074830039076
100
AcDbArc
 50
58.670205836284
 51
90.000000000001
  0
LINE
  5
2B7
100
AcDbEntity
  8
0
390
36D
 62
           0
100
AcDbLine
 10
8.881957353963
 20
1.454779903455
 30
0.23292
 11
8.796941177581
 21
1.454779903455
 31
0.23292
  0
LINE
  5
2B8
100
AcDbEntity
  8
0
390
36D
 62
           0
100
AcDbLine
 10
8.796941177581
 20
1.454779903455
 30
0.23292
 11
8.796941177581
 21
1.285680971152
 31
0.23292
  0
LINE
  5
2B9
100
AcDbEntity
  8
0
390
36D
 62
           0
100
AcDbLine
 10
8.796941177581
 20
1.272811153455
 30
0.23292
 11
8.885196021331
 21
1.272811153455
 31
0.23292
  0
ARC
  5
2BA
100
AcDbEntity
  8
0
390
36D
 62
           0
100
AcDbCircle
 10
8.885196021331
 20
1.349956517491
 30
0.23292
 40
0.077145364036
100
AcDbArc
 50
269.999999999995
 51
297.452647876119
  0
ARC
  5
2BB
100
AcDbEntity
  8
0
390
36D
 62
           0
100
AcDbCircle
 10
8.899306268611
 20
1.322796203606
 30
0.23292
 40
0.046538473821
100
AcDbArc
 50
297.452647876124
 51
341.33231151504
  0
ARC
  5
2BC
100
AcDbEntity
  8
0
390
36D
 62
           0
100
AcDbCircle
 10
8.88530740265
 20
1.310270347628
 30
0.23292
 40
0.065323183459
100
AcDbArc
 50
41.821431110538
 51
67.211169878313
  0
ARC
  5
2BD
100
AcDbEntity
  8
0
390
36D
 62
           0
100
AcDbCircle
 10
8.878827115081
 20
1.437492872205
 30
0.23292
 40
0.074154709264
100
AcDbArc
 50
295.378395342112
 51
313.157562911559
  0
ARC
  5
2BE
100
AcDbEntity
  8
0
390
36D
 62
           0
100
AcDbCircle
 10
8.905790337718
 20
1.408737305273
 30
0.23292
 40
0.034735196272
100
AcDbArc
 50
313.15756291156
 51
358.653260821401
  0
ARC
  5
2BF
100
AcDbEntity
  8
0
390
36D
 62
           0
100
AcDbCircle
 10
8.899569920737
 20
1.408883543311
 30
0.23292
 40
0.040957331997
100
AcDbArc
 50
358.6532608214
 51
58.670205836283
  0
ARC
  5
2D9
100
AcDbEntity
  8
0
390
36D
 62
           0
100
AcDbCircle
 10
8.899306268611
 20
1.322796203606
 30
0.23292
 40
0.046538473821
100
AcDbArc
 50
5.7976668128
 51
41.821431110538
  0
TEXT
  5
2DB
100
AcDbEntity
  8
0
390
36D
 62
           0
100
AcDbText
 10
8.952083377769
 20
0.381785076728
 30
0.11646
 40
0.04529
  1
OF
100
AcDbText
  0
TEXT
  5
2DC
100
AcDbEntity
  8
0
390
36D
 62
           0
100
AcDbText
 10
7.886080528307
 20
0.482070076728
 30
0.11646
 40
0.04
  1
DATE
100
AcDbText
  0
TEXT
  5
2DD
100
AcDbEntity
  8
0
390
36D
 62
           0
100
AcDbText
 10
7.882845528307
 20
0.863800076728
 30
0.11646
 40
0.04529
  1
MATERIAL
100
AcDbText
  0
TEXT
  5
2E0
100
AcDbEntity
  8
0
390
36D
 62
           0
100
AcDbText
 10
8.806043587935
 20
0.479000160183
 30
0.11646
 40
0.04
  1
SHEET
100
AcDbText
  0
TEXT
  5
2E1
100
AcDbEntity
  8
0
390
36D
 62
           0
100
AcDbText
 10
8.392505415892
 20
0.478835076728
 30
0.11646
 40
0.04
  1
REV
100
AcDbText
  0
TEXT
  5
2E2
100
AcDbEntity
  8
0
390
36D
 62
           0
100
AcDbText
 10
7.886080528307
 20
0.287970076728
 30
0.11646
 40
0.04529
  1
DWG NO.
100
AcDbText
  0
TEXT
  5
2E3
100
AcDbEntity
  8
0
390
36D
 62
           0
100
AcDbText
 10
7.882845528307
 20
0.672935076728
 30
0.11646
 40
0.04
  1
DRAWN
100
AcDbText
  0
TEXT
  5
2E4
100
AcDbEntity
  8
0
390
36D
 62
           0
100
AcDbText
 10
7.882845528307
 20
1.177595076728
 30
0.11646
 40
0.04529
  1
TITLE
100
AcDbText
  0
LINE
  5
2E5
100
AcDbEntity
  8
0
390
36D
 62
           0
100
AcDbLine
 10
7.824615528307
 20
1.245530076728
 30
0.11646
 11
10.089115528307
 21
1.245530076728
 31
0.11646
  0
LINE
  5
2E6
100
AcDbEntity
  8
0
390
36D
 62
           0
100
AcDbLine
 10
9.202725528307
 20
0.934970076728
 30
0.11646
 11
9.202725528307
 21
0.155335076728
 31
0.11646
  0
TEXT
  5
2E7
100
AcDbEntity
  8
0
390
36D
 62
           0
100
AcDbText
 10
8.599602737048
 20
0.48
 30
0.0
 40
0.04
  1
SIZE
 72
           1
 11
8.666402737048
 21
0.48
 31
0.0
100
AcDbText
  0
LINE
  5
2E8
100
AcDbEntity
  8
0
390
36D
 62
           0
100
AcDbLine
 39
0.18
 10
8.560474047368
 20
0.546770076728
 30
0.0
 11
8.560474047368
 21
0.352670076728
 31
0.0
  0
TEXT
  5
2E9
100
AcDbEntity
  8
0
390
36D
 62
           0
100
AcDbText
 10
8.650053519062
 20
0.385
 30
0.0
 40
0.05
  1
A
 72
           1
 11
8.666803519062
 21
0.385
 31
0.0
100
AcDbText
  0
TEXT
  5
312
100
AcDbEntity
  8
0
390
36D
 62
           0
100
AcDbText
 10
8.396085415892
 20
0.287970076728
 30
0.11646
 40
0.04529
  1
PART NO.
100
AcDbText
  0
TEXT
  5
313
100
AcDbEntity
  8
0
390
36D
 62
           0
100
AcDbText
 10
8.12605755132
 20
1.097095947253
 30
0.0
 40
0.08
  1
BUSHING 1/4-80 X 0.500
100
AcDbText
  0
TEXT
  5
314
100
AcDbEntity
  8
0
390
36D
 62
           0
100
AcDbText
 10
8.01605755132
 20
0.767095947253
 30
0.0
 40
0.06
  1
360 HALF HARD BRASS
100
AcDbText
  0
TEXT
  5
315
100
AcDbEntity
  8
0
390
36D
 62
           0
100
AcDbText
 10
7.96605755132
 20
0.572095947253
 30
0.0
 40
0.06
  1
BT
100
AcDbText
  0
TEXT
  5
316
100
AcDbEntity
  8
0
390
36D
 62
           0
100
AcDbText
 10
8.48105755132
 20
0.572095947253
 30
0.0
 40
0.06
  1
AC
100
AcDbText
  0
TEXT
  5
317
100
AcDbEntity
  8
0
390
36D
 62
           0
100
AcDbText
 10
7.88605755132
 20
0.377095947253
 30
0.0
 40
0.06
  1
04/04/96
100
AcDbText
  0
TEXT
  5
318
100
AcDbEntity
  8
0
390
36D
 62
           0
100
AcDbText
 10
7.89605755132
 20
0.187095947253
 30
0.0
 40
0.06
  1
0240-E01
100
AcDbText
  0
TEXT
  5
319
100
AcDbEntity
  8
0
390
36D
 62
           0
100
AcDbText
 10
8.55105755132
 20
0.187095947253
 30
0.0
 40
0.06
  1
N80L6
100
AcDbText
  0
TEXT
  5
31A
100
AcDbEntity
  8
0
390
36D
 62
           0
100
AcDbText
 10
8.83605755132
 20
0.377095947253
 30
0.0
 40
0.06
  1
1
100
AcDbText
  0
TEXT
  5
31B
100
AcDbEntity
  8
0
390
36D
 62
           0
100
AcDbText
 10
9.08105755132
 20
0.377095947253
 30
0.0
 40
0.06
  1
1
100
AcDbText
  0
TEXT
  5
344
100
AcDbEntity
  8
DIM1
390
36D
100
AcDbText
 10
8.43
 20
0.375
 30
0.0
 40
0.08
  1
 
100
AcDbText
  0
TEXT
  5
345
100
AcDbEntity
  8
0
390
36D
 62
           0
100
AcDbText
 10
9.275
 20
0.75
 30
0.0
 40
0.06
  1
ENGINEERING
100
AcDbText
  0
TEXT
  5
346
100
AcDbEntity
  8
0
390
36D
 62
           0
100
AcDbText
 10
9.275
 20
0.65
 30
0.0
 40
0.06
  1
SUPPORT
100
AcDbText
  0
TEXT
  5
347
100
AcDbEntity
  8
0
390
36D
 62
           0
100
AcDbText
 10
9.275
 20
0.55
 30
0.0
 40
0.06
  1
DRAWING
100
AcDbText
  0
TEXT
  5
348
100
AcDbEntity
  8
0
390
36D
 62
           0
100
AcDbText
 10
8.44105755132
 20
0.377095947253
 30
0.0
 40
0.06
  1
B
100
AcDbText
  0
TEXT
  5
34C
100
AcDbEntity
  8
0
390
36D
 62
           0
100
AcDbText
 10
8.92105755132
 20
0.572095947253
 30
0.0
 40
0.06
  1
AC
100
AcDbText
  0
CIRCLE
  5
351
100
AcDbEntity
  8
0
390
36D
  6
HIDDEN
 62
           0
100
AcDbCircle
 10
6.934844540918
 20
4.645
 30
0.0
 40
0.043
  0
CIRCLE
  5
353
100
AcDbEntity
  8
0
390
36D
 62
           0
100
AcDbCircle
 10
6.934844540918
 20
4.645
 30
0.0
 40
0.031
  0
LINE
  5
355
100
AcDbEntity
  8
0
390
36D
 62
           0
100
AcDbLine
 10
6.76356265338
 20
4.787798862046
 30
0.0
 11
6.558109609071
 21
4.9590864474
 31
0.0
  0
LINE
  5
356
100
AcDbEntity
  8
0
390
36D
 62
           0
100
AcDbLine
 10
6.558109609071
 20
4.9590864474
 30
0.0
 11
6.378109609071
 21
4.9590864474
 31
0.0
  0
MTEXT
  5
358
100
AcDbEntity
  8
0
390
36D
 62
           0
100
AcDbMText
 10
6.320632024829
 20
5.163290844951
 30
0.0
 40
0.1
 41
0.0
 71
           3
 72
           1
  1
#2-56 MOUNTING HOLE\PFOR USE WITH NYLON-TIPPED SET SCREW\PTO LOCK ADJUSTER SCREW IN PLACE
 73
           1
 44
1.0
  0
LINE
  5
359
100
AcDbEntity
  8
0
390
36D
 62
           0
100
AcDbLine
 10
6.844844540918
 20
4.645
 30
0.0
 11
7.024844540918
 21
4.645
 31
0.0
  0
LINE
  5
35A
100
AcDbEntity
  8
0
390
36D
 62
           0
100
AcDbLine
 10
6.934844540918
 20
4.555
 30
0.0
 11
6.934844540918
 21
4.735
 31
0.0
  0
ARC
  5
39E
100
AcDbEntity
  8
0
 62
           0
100
AcDbCircle
 10
7.379396434511
 20
4.4275
 30
0.0
 40
0.141272122161
100
AcDbArc
 50
149.12318692094
 51
210.87681307906
  0
LINE
  5
39F
100
AcDbEntity
  8
0
 62
           0
100
AcDbLine
 10
7.368146294168
 20
4.355
 30
0.0
 11
7.258146434511
 21
4.355
 31
0.0
  0
ARC
  5
3A0
100
AcDbEntity
  8
0
 62
           0
100
AcDbCircle
 10
7.246896294168
 20
4.4275
 30
0.0
 40
0.141272122161
100
AcDbArc
 50
329.12318692094
 51
30.87681307906
  0
LINE
  5
3A1
100
AcDbEntity
  8
0
 62
           0
100
AcDbLine
 10
7.258146434511
 20
4.5
 30
0.0
 11
7.388146434511
 21
4.5
 31
0.0
  0
LINE
  5
3A2
100
AcDbEntity
  8
0
 62
           0
100
AcDbLine
 10
7.388146434511
 20
4.4225
 30
0.0
 11
7.388146434511
 21
4.8675
 31
0.0
  0
ARC
  5
3A3
100
AcDbEntity
  8
0
 62
           0
100
AcDbCircle
 10
6.852521294168
 20
4.645
 30
0.0
 40
0.535625
100
AcDbArc
 50
344.293373396044
 51
15.706626603956
  0
ARC
  5
3A4
100
AcDbEntity
  8
0
 62
           0
100
AcDbCircle
 10
7.773771434511
 20
4.645
 30
0.0
 40
0.535625
100
AcDbArc
 50
164.293373396044
 51
195.706626603956
  0
LINE
  5
3A5
100
AcDbEntity
  8
0
 62
           0
100
AcDbLine
 10
7.238146434511
 20
4.42
 30
0.0
 11
7.238146434511
 21
4.865
 31
0.0
  0
ARC
  5
3A6
100
AcDbEntity
  8
0
 62
           0
100
AcDbCircle
 10
7.246896294168
 20
4.8625
 30
0.0
 40
0.141272122161
100
AcDbArc
 50
329.12318692094
 51
30.87681307906
  0
LINE
  5
3A7
100
AcDbEntity
  8
0
 62
           0
100
AcDbLine
 10
7.388146434511
 20
4.79
 30
0.0
 11
7.258146434511
 21
4.79
 31
0.0
  0
ARC
  5
3A8
100
AcDbEntity
  8
0
 62
           0
100
AcDbCircle
 10
7.379396434511
 20
4.8625
 30
0.0
 40
0.141272122161
100
AcDbArc
 50
149.12318692094
 51
210.87681307906
  0
LINE
  5
3A9
100
AcDbEntity
  8
0
 62
           0
100
AcDbLine
 10
7.258146434511
 20
4.935
 30
0.0
 11
7.368146294168
 21
4.935
 31
0.0
  0
TEXT
  5
3AA
100
AcDbEntity
  8
0
 62
           0
100
AcDbText
 10
2.898104036588
 20
5.455922209668
 30
0.0
 40
0.1
  1
(13mm)
100
AcDbText
  0
TEXT
  5
3AB
100
AcDbEntity
  8
0
 62
           0
100
AcDbText
 10
7.032738163266
 20
5.84323017166
 30
0.0
 40
0.1
  1
(13mm)
100
AcDbText
  0
TEXT
  5
3AC
100
AcDbEntity
  8
0
 62
           0
100
AcDbText
 10
7.914844540918
 20
5.359820529459
 30
0.0
 40
0.1
  1
(8mm)
100
AcDbText
  0
TEXT
  5
3AD
100
AcDbEntity
  8
0
 62
           0
100
AcDbText
 10
6.944642571977
 20
3.706165595802
 30
0.0
 40
0.1
  1
(17mm)
100
AcDbText
  0
MTEXT
  5
3AE
100
AcDbEntity
  8
0
 62
           0
100
AcDbMText
 10
0.209723987144
 20
7.462918376531
 30
0.0
 40
0.125
 41
6.400071679788
 71
           1
 72
           5
  1
\fVerdana|b0|i0|c0|p34;COPYRIGHT \fSymbol|b0|i0|c2|p18;\H0.3;Ó\fVerdana|b0|i0|c0|p34;\H0.25; 2000 by THORLABS INC.
 73
           1
 44
0.5
  0
LINE
  5
3AF
100
AcDbEntity
  8
0
 62
           0
100
AcDbLine
 10
5.805179717782
 20
0.286389247796
 30
0.0
 11
2.817568989703
 21
0.286389247796
 31
0.0
  0
LINE
  5
3B0
100
AcDbEntity
  8
0
 62
           0
100
AcDbLine
 10
2.865085661323
 20
0.316059264781
 30
0.0
 11
5.757663046163
 21
0.316059264781
 31
0.0
  0
TEXT
  5
3B1
100
AcDbEntity
  8
0
 62
           0
100
AcDbText
 10
2.913948291294
 20
0.339500313289
 30
0.0
 40
0.075
  1
INFORMATION ONLY, NOT FOR MANUFACTURING
100
AcDbText
  0
LINE
  5
3B2
100
AcDbEntity
  8
0
370
           0
100
AcDbLine
 10
0.0
 20
0.0
 30
0.0
 11
0.0
 21
0.0
 31
0.0
  0
LINE
  5
3B3
100
AcDbEntity
  8
0
370
           0
 62
           0
100
AcDbLine
 10
2.651104741232
 20
5.615
 30
0.0
 11
2.651104741232
 21
5.675
 31
0.0
  0
LINE
  5
3B4
100
AcDbEntity
  8
0
370
           0
 62
           0
100
AcDbLine
 10
2.651104741232
 20
5.675
 30
0.0
 11
2.471104741232
 21
5.645
 31
0.0
  0
LINE
  5
3B5
100
AcDbEntity
  8
0
370
           0
 62
           0
100
AcDbLine
 10
2.651104741232
 20
5.615
 30
0.0
 11
2.471104741232
 21
5.645
 31
0.0
  0
LINE
  5
3B6
100
AcDbEntity
  8
0
370
           0
 62
           0
100
AcDbLine
 10
1.796104741232
 20
5.615
 30
0.0
 11
1.796104741232
 21
5.675
 31
0.0
  0
LINE
  5
3B7
100
AcDbEntity
  8
0
370
           0
 62
           0
100
AcDbLine
 10
1.796104741232
 20
5.675
 30
0.0
 11
1.976104741232
 21
5.645
 31
0.0
  0
LINE
  5
3B8
100
AcDbEntity
  8
0
370
           0
 62
           0
100
AcDbLine
 10
1.796104741232
 20
5.615
 30
0.0
 11
1.976104741232
 21
5.645
 31
0.0
  0
LINE
  5
3B9
100
AcDbEntity
  8
0
370
           0
 62
           0
100
AcDbLine
 10
2.058868454509
 20
4.395581398321
 30
0.0
 11
2.11420617866
 21
4.372392256772
 31
0.0
  0
LINE
  5
3BA
100
AcDbEntity
  8
0
370
           0
 62
           0
100
AcDbLine
 10
2.11420617866
 20
4.372392256772
 30
0.0
 11
2.156104741232
 21
4.55
 31
0.0
  0
LINE
  5
3BB
100
AcDbEntity
  8
0
370
           0
 62
           0
100
AcDbLine
 10
2.058868454509
 20
4.395581398321
 30
0.0
 11
2.156104741232
 21
4.55
 31
0.0
  0
LINE
  5
3BC
100
AcDbEntity
  8
0
370
           0
 62
           0
100
AcDbLine
 10
7.531924313362
 20
4.319366194627
 30
0.0
 11
7.569314749026
 21
4.366291191386
 31
0.0
  0
LINE
  5
3BD
100
AcDbEntity
  8
0
370
           0
 62
           0
100
AcDbLine
 10
7.569314749026
 20
4.366291191386
 30
0.0
 11
7.409844540918
 21
4.455
 31
0.0
  0
LINE
  5
3BE
100
AcDbEntity
  8
0
370
           0
 62
           0
100
AcDbLine
 10
7.531924313362
 20
4.319366194627
 30
0.0
 11
7.409844540918
 21
4.455
 31
0.0
  0
LINE
  5
3BF
100
AcDbEntity
  8
0
370
           0
 62
           0
100
AcDbLine
 10
7.029844540918
 20
5.52
 30
0.0
 11
7.029844540918
 21
5.58
 31
0.0
  0
LINE
  5
3C0
100
AcDbEntity
  8
0
370
           0
 62
           0
100
AcDbLine
 10
7.029844540918
 20
5.58
 30
0.0
 11
7.209844540918
 21
5.55
 31
0.0
  0
LINE
  5
3C1
100
AcDbEntity
  8
0
370
           0
 62
           0
100
AcDbLine
 10
7.029844540918
 20
5.52
 30
0.0
 11
7.209844540918
 21
5.55
 31
0.0
  0
LINE
  5
3C2
100
AcDbEntity
  8
0
370
           0
 62
           0
100
AcDbLine
 10
7.689844540918
 20
5.52
 30
0.0
 11
7.689844540918
 21
5.58
 31
0.0
  0
LINE
  5
3C3
100
AcDbEntity
  8
0
370
           0
 62
           0
100
AcDbLine
 10
7.689844540918
 20
5.58
 30
0.0
 11
7.509844540918
 21
5.55
 31
0.0
  0
LINE
  5
3C4
100
AcDbEntity
  8
0
370
           0
 62
           0
100
AcDbLine
 10
7.689844540918
 20
5.52
 30
0.0
 11
7.509844540918
 21
5.55
 31
0.0
  0
LINE
  5
3C5
100
AcDbEntity
  8
0
370
           0
 62
           0
100
AcDbLine
 10
7.689844540918
 20
5.998734995627
 30
0.0
 11
7.689844540918
 21
6.058734995627
 31
0.0
  0
LINE
  5
3C6
100
AcDbEntity
  8
0
370
           0
 62
           0
100
AcDbLine
 10
7.689844540918
 20
6.058734995627
 30
0.0
 11
7.509844540918
 21
6.028734995627
 31
0.0
  0
LINE
  5
3C7
100
AcDbEntity
  8
0
370
           0
 62
           0
100
AcDbLine
 10
7.689844540918
 20
5.998734995627
 30
0.0
 11
7.509844540918
 21
6.028734995627
 31
0.0
  0
LINE
  5
3C8
100
AcDbEntity
  8
0
370
           0
 62
           0
100
AcDbLine
 10
6.829844540918
 20
5.998734995627
 30
0.0
 11
6.829844540918
 21
6.058734995627
 31
0.0
  0
LINE
  5
3C9
100
AcDbEntity
  8
0
370
           0
 62
           0
100
AcDbLine
 10
6.829844540918
 20
6.058734995627
 30
0.0
 11
7.009844540918
 21
6.028734995627
 31
0.0
  0
LINE
  5
3CA
100
AcDbEntity
  8
0
370
           0
 62
           0
100
AcDbLine
 10
6.829844540918
 20
5.998734995627
 30
0.0
 11
7.009844540918
 21
6.028734995627
 31
0.0
  0
LINE
  5
3CB
100
AcDbEntity
  8
0
370
           0
 62
           0
100
AcDbLine
 10
7.689844540918
 20
3.865
 30
0.0
 11
7.689844540918
 21
3.925
 31
0.0
  0
LINE
  5
3CC
100
AcDbEntity
  8
0
370
           0
 62
           0
100
AcDbLine
 10
7.689844540918
 20
3.925
 30
0.0
 11
7.509844540918
 21
3.895
 31
0.0
  0
LINE
  5
3CD
100
AcDbEntity
  8
0
370
           0
 62
           0
100
AcDbLine
 10
7.689844540918
 20
3.865
 30
0.0
 11
7.509844540918
 21
3.895
 31
0.0
  0
LINE
  5
3CE
100
AcDbEntity
  8
0
370
           0
 62
           0
100
AcDbLine
 10
6.679844540918
 20
3.865
 30
0.0
 11
6.679844540918
 21
3.925
 31
0.0
  0
LINE
  5
3CF
100
AcDbEntity
  8
0
370
           0
 62
           0
100
AcDbLine
 10
6.679844540918
 20
3.925
 30
0.0
 11
6.859844540918
 21
3.895
 31
0.0
  0
LINE
  5
3D0
100
AcDbEntity
  8
0
370
           0
 62
           0
100
AcDbLine
 10
6.679844540918
 20
3.865
 30
0.0
 11
6.859844540918
 21
3.895
 31
0.0
  0
LINE
  5
3D1
100
AcDbEntity
  8
0
370
           0
 62
           0
100
AcDbLine
 10
0.128525
 20
0.1397
 30
0.0
 11
0.160875
 21
0.1397
 31
0.0
  0
LINE
  5
3D2
100
AcDbEntity
  8
0
370
           0
 62
           0
100
AcDbLine
 10
0.128525
 20
7.565485
 30
0.0
 11
0.160875
 21
7.533135
 31
0.0
  0
LINE
  5
3D3
100
AcDbEntity
  8
0
370
           0
 62
           0
100
AcDbLine
 10
0.160875
 20
0.1397
 30
0.0
 11
0.160875
 21
7.533135
 31
0.0
  0
LINE
  5
3D4
100
AcDbEntity
  8
0
370
           0
 62
           0
100
AcDbLine
 10
0.128525
 20
0.1397
 30
0.0
 11
0.128525
 21
7.565485
 31
0.0
  0
LINE
  5
3D5
100
AcDbEntity
  8
0
370
           0
 62
           0
100
AcDbLine
 10
0.128525
 20
7.565485
 30
0.0
 11
0.160875
 21
7.533135
 31
0.0
  0
LINE
  5
3D6
100
AcDbEntity
  8
0
370
           0
 62
           0
100
AcDbLine
 10
10.124675
 20
7.565485
 30
0.0
 11
10.092325
 21
7.533135
 31
0.0
  0
LINE
  5
3D7
100
AcDbEntity
  8
0
370
           0
 62
           0
100
AcDbLine
 10
0.160875
 20
7.533135
 30
0.0
 11
10.092325
 21
7.533135
 31
0.0
  0
LINE
  5
3D8
100
AcDbEntity
  8
0
370
           0
 62
           0
100
AcDbLine
 10
0.128525
 20
7.565485
 30
0.0
 11
10.124675
 21
7.565485
 31
0.0
  0
LINE
  5
3D9
100
AcDbEntity
  8
0
370
           0
 62
           0
100
AcDbLine
 10
10.124675
 20
7.565485
 30
0.0
 11
10.092325
 21
7.533135
 31
0.0
  0
LINE
  5
3DA
100
AcDbEntity
  8
0
370
           0
 62
           0
100
AcDbLine
 10
10.124675
 20
0.1397
 30
0.0
 11
10.092325
 21
0.1397
 31
0.0
  0
LINE
  5
3DB
100
AcDbEntity
  8
0
370
           0
 62
           0
100
AcDbLine
 10
10.092325
 20
7.533135
 30
0.0
 11
10.092325
 21
0.1397
 31
0.0
  0
LINE
  5
3DC
100
AcDbEntity
  8
0
370
           0
 62
           0
100
AcDbLine
 10
10.124675
 20
7.565485
 30
0.0
 11
10.124675
 21
0.1397
 31
0.0
  0
LINE
  5
3DD
100
AcDbEntity
  8
0
370
           0
 62
           0
100
AcDbLine
 10
0.1447
 20
0.155875
 30
0.0
 11
0.1447
 21
0.123525
 31
0.0
  0
LINE
  5
3DE
100
AcDbEntity
  8
0
370
           0
 62
           0
100
AcDbLine
 10
10.1085
 20
0.155875
 30
0.0
 11
10.1085
 21
0.123525
 31
0.0
  0
LINE
  5
3DF
100
AcDbEntity
  8
0
370
           0
 62
           0
100
AcDbLine
 10
0.1447
 20
0.123525
 30
0.0
 11
10.1085
 21
0.123525
 31
0.0
  0
LINE
  5
3E0
100
AcDbEntity
  8
0
370
           0
 62
           0
100
AcDbLine
 10
0.1447
 20
0.155875
 30
0.0
 11
10.1085
 21
0.155875
 31
0.0
  0
LINE
  5
3E1
100
AcDbEntity
  8
0
370
           0
 62
           0
100
AcDbLine
 39
0.11646
 10
7.827850528307
 20
1.057900076728
 30
0.11646
 11
7.827850528307
 21
1.044960076728
 31
0.11646
  0
LINE
  5
3E2
100
AcDbEntity
  8
0
370
           0
 62
           0
100
AcDbLine
 39
0.11646
 10
10.089115528307
 20
1.057900076728
 30
0.11646
 11
10.089115528307
 21
1.044960076728
 31
0.11646
  0
LINE
  5
3E3
100
AcDbEntity
  8
0
370
           0
 62
           0
100
AcDbLine
 39
0.11646
 10
7.827850528307
 20
1.044960076728
 30
0.11646
 11
10.089115528307
 21
1.044960076728
 31
0.11646
  0
LINE
  5
3E4
100
AcDbEntity
  8
0
370
           0
 62
           0
100
AcDbLine
 39
0.11646
 10
7.827850528307
 20
1.057900076728
 30
0.11646
 11
10.089115528307
 21
1.057900076728
 31
0.11646
  0
LINE
  5
3E5
100
AcDbEntity
  8
0
370
           0
 62
           0
100
AcDbLine
 39
0.11646
 10
10.089115528307
 20
1.239060076728
 30
0.11646
 11
10.089115528307
 21
1.252000076728
 31
0.11646
  0
LINE
  5
3E6
100
AcDbEntity
  8
0
370
           0
 62
           0
100
AcDbLine
 39
0.11646
 10
7.827850528307
 20
1.239060076728
 30
0.11646
 11
7.827850528307
 21
1.252000076728
 31
0.11646
  0
LINE
  5
3E7
100
AcDbEntity
  8
0
370
           0
 62
           0
100
AcDbLine
 39
0.11646
 10
10.089115528307
 20
1.252000076728
 30
0.11646
 11
7.827850528307
 21
1.252000076728
 31
0.11646
  0
LINE
  5
3E8
100
AcDbEntity
  8
0
370
           0
 62
           0
100
AcDbLine
 39
0.11646
 10
10.089115528307
 20
1.239060076728
 30
0.11646
 11
7.827850528307
 21
1.239060076728
 31
0.11646
  0
LINE
  5
3E9
100
AcDbEntity
  8
0
370
           0
 62
           0
100
AcDbLine
 39
0.11646
 10
9.202725528307
 20
0.928500076728
 30
0.11646
 11
9.202725528307
 21
0.941440076728
 31
0.11646
  0
LINE
  5
3EA
100
AcDbEntity
  8
0
370
           0
 62
           0
100
AcDbLine
 39
0.11646
 10
7.824615528307
 20
0.928500076728
 30
0.11646
 11
7.824615528307
 21
0.941440076728
 31
0.11646
  0
LINE
  5
3EB
100
AcDbEntity
  8
0
370
           0
 62
           0
100
AcDbLine
 39
0.11646
 10
9.202725528307
 20
0.941440076728
 30
0.11646
 11
7.824615528307
 21
0.941440076728
 31
0.11646
  0
LINE
  5
3EC
100
AcDbEntity
  8
0
370
           0
 62
           0
100
AcDbLine
 39
0.11646
 10
9.202725528307
 20
0.928500076728
 30
0.11646
 11
7.824615528307
 21
0.928500076728
 31
0.11646
  0
LINE
  5
3ED
100
AcDbEntity
  8
0
370
           0
 62
           0
100
AcDbLine
 39
0.11646
 10
9.196255528307
 20
0.941440076728
 30
0.11646
 11
9.209195528307
 21
0.928500076728
 31
0.11646
  0
LINE
  5
3EE
100
AcDbEntity
  8
0
370
           0
 62
           0
100
AcDbLine
 39
0.11646
 10
10.089115528307
 20
0.941440076728
 30
0.11646
 11
10.089115528307
 21
0.928500076728
 31
0.11646
  0
LINE
  5
3EF
100
AcDbEntity
  8
0
370
           0
 62
           0
100
AcDbLine
 39
0.11646
 10
9.209195528307
 20
0.928500076728
 30
0.11646
 11
10.089115528307
 21
0.928500076728
 31
0.11646
  0
LINE
  5
3F0
100
AcDbEntity
  8
0
370
           0
 62
           0
100
AcDbLine
 39
0.11646
 10
9.196255528307
 20
0.941440076728
 30
0.11646
 11
10.089115528307
 21
0.941440076728
 31
0.11646
  0
LINE
  5
3F1
100
AcDbEntity
  8
0
370
           0
 62
           0
100
AcDbLine
 39
0.11646
 10
9.196255528307
 20
0.158570076728
 30
0.11646
 11
9.209195528307
 21
0.158570076728
 31
0.11646
  0
LINE
  5
3F2
100
AcDbEntity
  8
0
370
           0
 62
           0
100
AcDbLine
 39
0.11646
 10
9.196255528307
 20
0.941440076728
 30
0.11646
 11
9.209195528307
 21
0.928500076728
 31
0.11646
  0
LINE
  5
3F3
100
AcDbEntity
  8
0
370
           0
 62
           0
100
AcDbLine
 39
0.11646
 10
9.209195528307
 20
0.158570076728
 30
0.11646
 11
9.209195528307
 21
0.928500076728
 31
0.11646
  0
LINE
  5
3F4
100
AcDbEntity
  8
0
370
           0
 62
           0
100
AcDbLine
 39
0.11646
 10
9.196255528307
 20
0.158570076728
 30
0.11646
 11
9.196255528307
 21
0.941440076728
 31
0.11646
  0
LINE
  5
3F5
100
AcDbEntity
  8
0
370
           0
 62
           0
100
AcDbLine
 10
9.11704324745
 20
1.268189038821
 30
0.23292
 11
9.11704324745
 21
1.286164639821
 31
0.23292
  0
LINE
  5
3F6
100
AcDbEntity
  8
0
370
           0
 62
           0
100
AcDbLine
 10
9.20264134745
 20
1.268189038821
 30
0.23292
 11
9.20264134745
 21
1.286164639821
 31
0.23292
  0
LINE
  5
3F7
100
AcDbEntity
  8
0
370
           0
 62
           0
100
AcDbLine
 10
9.11704324745
 20
1.286164639821
 30
0.23292
 11
9.20264134745
 21
1.286164639821
 31
0.23292
  0
LINE
  5
3F8
100
AcDbEntity
  8
0
370
           0
 62
           0
100
AcDbLine
 10
9.11704324745
 20
1.268189038821
 30
0.23292
 11
9.20264134745
 21
1.268189038821
 31
0.23292
  0
LINE
  5
3F9
100
AcDbEntity
  8
0
370
           0
 62
           0
100
AcDbLine
 10
9.202641342081
 20
1.301144306504
 30
0.23292
 11
9.117043242081
 21
1.301144306504
 31
0.23292
  0
LINE
  5
3FA
100
AcDbEntity
  8
0
370
           0
 62
           0
100
AcDbLine
 10
9.202641342081
 20
1.319119907504
 30
0.23292
 11
9.117043242081
 21
1.319119907504
 31
0.23292
  0
LINE
  5
3FB
100
AcDbEntity
  8
0
370
           0
 62
           0
100
AcDbLine
 10
9.117043242081
 20
1.301144306504
 30
0.23292
 11
9.117043242081
 21
1.319119907504
 31
0.23292
  0
LINE
  5
3FC
100
AcDbEntity
  8
0
370
           0
 62
           0
100
AcDbLine
 10
9.202641342081
 20
1.301144306504
 30
0.23292
 11
9.202641342081
 21
1.319119907504
 31
0.23292
  0
LINE
  5
3FD
100
AcDbEntity
  8
0
370
           0
 62
           0
100
AcDbLine
 10
9.117043242081
 20
1.373902691504
 30
0.23292
 11
9.202641342081
 21
1.373902691504
 31
0.23292
  0
LINE
  5
3FE
100
AcDbEntity
  8
0
370
           0
 62
           0
100
AcDbLine
 10
9.117043242081
 20
1.355927090504
 30
0.23292
 11
9.202641342081
 21
1.355927090504
 31
0.23292
  0
LINE
  5
3FF
100
AcDbEntity
  8
0
370
           0
 62
           0
100
AcDbLine
 10
9.202641342081
 20
1.373902691504
 30
0.23292
 11
9.202641342081
 21
1.355927090504
 31
0.23292
  0
LINE
  5
400
100
AcDbEntity
  8
0
370
           0
 62
           0
100
AcDbLine
 10
9.117043242081
 20
1.373902691504
 30
0.23292
 11
9.117043242081
 21
1.355927090504
 31
0.23292
  0
LINE
  5
401
100
AcDbEntity
  8
0
370
           0
 62
           0
100
AcDbLine
 10
9.117043242081
 20
1.319547898004
 30
0.23292
 11
9.202639477051
 21
1.373441823726
 31
0.23292
  0
LINE
  5
402
100
AcDbEntity
  8
0
370
           0
 62
           0
100
AcDbLine
 10
9.117049620796
 20
1.302394425782
 30
0.23292
 11
9.202641342081
 21
1.355499100004
 31
0.23292
  0
LINE
  5
403
100
AcDbEntity
  8
0
370
           0
 62
           0
100
AcDbLine
 10
9.202639477051
 20
1.373441823726
 30
0.23292
 11
9.202641342081
 21
1.355499100004
 31
0.23292
  0
LINE
  5
404
100
AcDbEntity
  8
0
370
           0
 62
           0
100
AcDbLine
 10
9.117043242081
 20
1.319547898004
 30
0.23292
 11
9.117049620796
 21
1.302394425782
 31
0.23292
  0
ARC
  5
405
100
AcDbEntity
  8
0
370
           0
 62
           0
100
AcDbCircle
 10
9.146194389997
 20
1.424143424282
 30
0.23292
 40
0.019647392622
100
AcDbArc
 50
98.933815965911
 51
174.585284534451
  0
ARC
  5
406
100
AcDbEntity
  8
0
370
           0
 62
           0
100
AcDbCircle
 10
9.150140622723
 20
1.423769372856
 30
0.23292
 40
0.023611313307
100
AcDbArc
 50
174.585284534451
 51
240.177890614084
  0
ARC
  5
407
100
AcDbEntity
  8
0
370
           0
 62
           0
100
AcDbCircle
 10
9.159316412415
 20
1.439776878414
 30
0.23292
 40
0.042062203548
100
AcDbArc
 50
240.177890614087
 51
301.371172743127
  0
ARC
  5
408
100
AcDbEntity
  8
0
370
           0
 62
           0
100
AcDbCircle
 10
9.168871969148
 20
1.424104637773
 30
0.23292
 40
0.023706610635
100
AcDbArc
 50
301.371172743125
 51
348.408420779146
  0
ARC
  5
409
100
AcDbEntity
  8
0
370
           0
 62
           0
100
AcDbCircle
 10
9.171412431009
 20
1.423583544938
 30
0.23292
 40
0.02111325678
100
AcDbArc
 50
348.408420779148
 51
79.340214574605
  0
ARC
  5
40A
100
AcDbEntity
  8
0
370
           0
 62
           0
100
AcDbCircle
 10
9.155552023509
 20
1.423806428046
 30
0.23292
 40
0.039182751635
100
AcDbArc
 50
161.634705724254
 51
248.567724519311
  0
ARC
  5
40B
100
AcDbEntity
  8
0
370
           0
 62
           0
100
AcDbCircle
 10
9.159056533603
 20
1.432734077015
 30
0.23292
 40
0.048773607026
100
AcDbArc
 50
248.567724519312
 51
309.147226551964
  0
ARC
  5
40C
100
AcDbEntity
  8
0
370
           0
 62
           0
100
AcDbCircle
 10
9.167257983054
 20
1.422659174322
 30
0.23292
 40
0.035782554821
100
AcDbArc
 50
309.147226551967
 51
349.741236613776
  0
ARC
  5
40D
100
AcDbEntity
  8
0
370
           0
 62
           0
100
AcDbCircle
 10
9.162266221018
 20
1.423562620419
 30
0.23292
 40
0.040855414279
100
AcDbArc
 50
349.741236613777
 51
24.355184603599
  0
LINE
  5
40E
100
AcDbEntity
  8
0
370
           0
 62
           0
100
AcDbLine
 10
9.137446263706
 20
1.442009215206
 30
0.23292
 11
9.128818064292
 21
1.451415531377
 31
0.23292
  0
LINE
  5
40F
100
AcDbEntity
  8
0
370
           0
 62
           0
100
AcDbLine
 10
9.126778671703
 20
1.430564863865
 30
0.23292
 11
9.116895461464
 21
1.434640934206
 31
0.23292
  0
LINE
  5
410
100
AcDbEntity
  8
0
370
           0
 62
           0
100
AcDbLine
 10
9.128818064292
 20
1.451415531377
 30
0.23292
 11
9.116895461464
 21
1.434640934206
 31
0.23292
  0
LINE
  5
411
100
AcDbEntity
  8
0
370
           0
 62
           0
100
AcDbLine
 10
9.137446263706
 20
1.442009215206
 30
0.23292
 11
9.126778671703
 21
1.430564863865
 31
0.23292
  0
LINE
  5
412
100
AcDbEntity
  8
0
370
           0
 62
           0
100
AcDbLine
 10
9.126778671703
 20
1.430564863865
 30
0.23292
 11
9.116895461464
 21
1.434640934206
 31
0.23292
  0
LINE
  5
413
100
AcDbEntity
  8
0
370
           0
 62
           0
100
AcDbLine
 10
9.128504311586
 20
1.412379319268
 30
0.23292
 11
9.118150472288
 21
1.408146476991
 31
0.23292
  0
LINE
  5
414
100
AcDbEntity
  8
0
370
           0
 62
           0
100
AcDbLine
 10
9.116895461464
 20
1.434640934206
 30
0.23292
 11
9.118150472288
 21
1.408146476991
 31
0.23292
  0
LINE
  5
415
100
AcDbEntity
  8
0
370
           0
 62
           0
100
AcDbLine
 10
9.126778671703
 20
1.430564863865
 30
0.23292
 11
9.128504311586
 21
1.412379319268
 31
0.23292
  0
LINE
  5
416
100
AcDbEntity
  8
0
370
           0
 62
           0
100
AcDbLine
 10
9.128504311586
 20
1.412379319268
 30
0.23292
 11
9.118150472288
 21
1.408146476991
 31
0.23292
  0
LINE
  5
417
100
AcDbEntity
  8
0
370
           0
 62
           0
100
AcDbLine
 10
9.144819452297
 20
1.399367248565
 30
0.23292
 11
9.136034376529
 21
1.388863528841
 31
0.23292
  0
LINE
  5
418
100
AcDbEntity
  8
0
370
           0
 62
           0
100
AcDbLine
 10
9.118150472288
 20
1.408146476991
 30
0.23292
 11
9.136034376529
 21
1.388863528841
 31
0.23292
  0
LINE
  5
419
100
AcDbEntity
  8
0
370
           0
 62
           0
100
AcDbLine
 10
9.128504311586
 20
1.412379319268
 30
0.23292
 11
9.144819452297
 21
1.399367248565
 31
0.23292
  0
LINE
  5
41A
100
AcDbEntity
  8
0
370
           0
 62
           0
100
AcDbLine
 10
9.144819452297
 20
1.399367248565
 30
0.23292
 11
9.136034376529
 21
1.388863528841
 31
0.23292
  0
LINE
  5
41B
100
AcDbEntity
  8
0
370
           0
 62
           0
100
AcDbLine
 10
9.162389603833
 20
1.39795630114
 30
0.23292
 11
9.163330861951
 21
1.383376511075
 31
0.23292
  0
LINE
  5
41C
100
AcDbEntity
  8
0
370
           0
 62
           0
100
AcDbLine
 10
9.136034376529
 20
1.388863528841
 30
0.23292
 11
9.163330861951
 21
1.383376511075
 31
0.23292
  0
LINE
  5
41D
100
AcDbEntity
  8
0
370
           0
 62
           0
100
AcDbLine
 10
9.144819452297
 20
1.399367248565
 30
0.23292
 11
9.162389603833
 21
1.39795630114
 31
0.23292
  0
LINE
  5
41E
100
AcDbEntity
  8
0
370
           0
 62
           0
100
AcDbLine
 10
9.162389603833
 20
1.39795630114
 30
0.23292
 11
9.163330861951
 21
1.383376511075
 31
0.23292
  0
LINE
  5
41F
100
AcDbEntity
  8
0
370
           0
 62
           0
100
AcDbLine
 10
9.185155651995
 20
1.40519688887
 30
0.23292
 11
9.19156860549
 21
1.394631218945
 31
0.23292
  0
LINE
  5
420
100
AcDbEntity
  8
0
370
           0
 62
           0
100
AcDbLine
 10
9.163330861951
 20
1.383376511075
 30
0.23292
 11
9.19156860549
 21
1.394631218945
 31
0.23292
  0
LINE
  5
421
100
AcDbEntity
  8
0
370
           0
 62
           0
100
AcDbLine
 10
9.162389603833
 20
1.39795630114
 30
0.23292
 11
9.185155651995
 21
1.40519688887
 31
0.23292
  0
LINE
  5
422
100
AcDbEntity
  8
0
370
           0
 62
           0
100
AcDbLine
 10
9.185155651995
 20
1.40519688887
 30
0.23292
 11
9.19156860549
 21
1.394631218945
 31
0.23292
  0
LINE
  5
423
100
AcDbEntity
  8
0
370
           0
 62
           0
100
AcDbLine
 10
9.192608543894
 20
1.421998036127
 30
0.23292
 11
9.203701220209
 21
1.416455389609
 31
0.23292
  0
LINE
  5
424
100
AcDbEntity
  8
0
370
           0
 62
           0
100
AcDbLine
 10
9.19156860549
 20
1.394631218945
 30
0.23292
 11
9.203701220209
 21
1.416455389609
 31
0.23292
  0
LINE
  5
425
100
AcDbEntity
  8
0
370
           0
 62
           0
100
AcDbLine
 10
9.185155651995
 20
1.40519688887
 30
0.23292
 11
9.192608543894
 21
1.421998036127
 31
0.23292
  0
LINE
  5
426
100
AcDbEntity
  8
0
370
           0
 62
           0
100
AcDbLine
 10
9.192608543894
 20
1.421998036127
 30
0.23292
 11
9.203701220209
 21
1.416455389609
 31
0.23292
  0
LINE
  5
427
100
AcDbEntity
  8
0
370
           0
 62
           0
100
AcDbLine
 10
9.188102144141
 20
1.436893898643
 30
0.23292
 11
9.198674851254
 21
1.443995414494
 31
0.23292
  0
LINE
  5
428
100
AcDbEntity
  8
0
370
           0
 62
           0
100
AcDbLine
 10
9.203701220209
 20
1.416455389609
 30
0.23292
 11
9.198674851254
 21
1.443995414494
 31
0.23292
  0
LINE
  5
429
100
AcDbEntity
  8
0
370
           0
 62
           0
100
AcDbLine
 10
9.192608543894
 20
1.421998036127
 30
0.23292
 11
9.188102144141
 21
1.436893898643
 31
0.23292
  0
LINE
  5
42A
100
AcDbEntity
  8
0
370
           0
 62
           0
100
AcDbLine
 10
9.188102144141
 20
1.436893898643
 30
0.23292
 11
9.198674851254
 21
1.443995414494
 31
0.23292
  0
LINE
  5
42B
100
AcDbEntity
  8
0
370
           0
 62
           0
100
AcDbLine
 10
9.177353051975
 20
1.443225498647
 30
0.23292
 11
9.179173356726
 21
1.458944798613
 31
0.23292
  0
LINE
  5
42C
100
AcDbEntity
  8
0
370
           0
 62
           0
100
AcDbLine
 10
9.198674851254
 20
1.443995414494
 30
0.23292
 11
9.179173356726
 21
1.458944798613
 31
0.23292
  0
LINE
  5
42D
100
AcDbEntity
  8
0
370
           0
 62
           0
100
AcDbLine
 10
9.188102144141
 20
1.436893898643
 30
0.23292
 11
9.177353051975
 21
1.443225498647
 31
0.23292
  0
ARC
  5
42E
100
AcDbEntity
  8
0
370
           0
 62
           0
100
AcDbCircle
 10
9.171538320513
 20
1.427759889634
 30
0.23292
 40
0.030677551149
100
AcDbArc
 50
24.355184603593
 51
83.073910880473
  0
ARC
  5
42F
100
AcDbEntity
  8
0
370
           0
 62
           0
100
AcDbCircle
 10
9.147460661847
 20
1.426492623379
 30
0.23292
 40
0.030657156119
100
AcDbArc
 50
98.190873886347
 51
161.634705724257
  0
LINE
  5
430
100
AcDbEntity
  8
0
370
           0
 62
           0
100
AcDbLine
 10
9.137446263706
 20
1.442009215206
 30
0.23292
 11
9.128818064292
 21
1.451415531377
 31
0.23292
  0
LINE
  5
431
100
AcDbEntity
  8
0
370
           0
 62
           0
100
AcDbLine
 10
9.141059480353
 20
1.442934675345
 30
0.23292
 11
9.139946164299
 21
1.457752151894
 31
0.23292
  0
LINE
  5
432
100
AcDbEntity
  8
0
370
           0
 62
           0
100
AcDbLine
 10
9.128818064292
 20
1.451415531377
 30
0.23292
 11
9.139946164299
 21
1.457752151894
 31
0.23292
  0
LINE
  5
433
100
AcDbEntity
  8
0
370
           0
 62
           0
100
AcDbLine
 10
9.137446263706
 20
1.442009215206
 30
0.23292
 11
9.141059480353
 21
1.442934675345
 31
0.23292
  0
LINE
  5
434
100
AcDbEntity
  8
0
370
           0
 62
           0
100
AcDbLine
 10
9.141059480353
 20
1.442934675345
 30
0.23292
 11
9.139946164299
 21
1.457752151894
 31
0.23292
  0
LINE
  5
435
100
AcDbEntity
  8
0
370
           0
 62
           0
100
AcDbLine
 10
9.143409135041
 20
1.44186126914
 30
0.23292
 11
9.143409135041
 21
1.45860718298
 31
0.23292
  0
LINE
  5
436
100
AcDbEntity
  8
0
370
           0
 62
           0
100
AcDbLine
 10
9.139946164299
 20
1.457752151894
 30
0.23292
 11
9.143409135041
 21
1.45860718298
 31
0.23292
  0
LINE
  5
437
100
AcDbEntity
  8
0
370
           0
 62
           0
100
AcDbLine
 10
9.141059480353
 20
1.442934675345
 30
0.23292
 11
9.143409135041
 21
1.44186126914
 31
0.23292
  0
LINE
  5
438
100
AcDbEntity
  8
0
370
           0
 62
           0
100
AcDbLine
 10
9.177353051975
 20
1.443225498647
 30
0.23292
 11
9.179173356726
 21
1.458944798613
 31
0.23292
  0
LINE
  5
439
100
AcDbEntity
  8
0
370
           0
 62
           0
100
AcDbLine
 10
9.175001222309
 20
1.442650029044
 30
0.23292
 11
9.175001222309
 21
1.459963753892
 31
0.23292
  0
LINE
  5
43A
100
AcDbEntity
  8
0
370
           0
 62
           0
100
AcDbLine
 10
9.179173356726
 20
1.458944798613
 30
0.23292
 11
9.175001222309
 21
1.459963753892
 31
0.23292
  0
LINE
  5
43B
100
AcDbEntity
  8
0
370
           0
 62
           0
100
AcDbLine
 10
9.177353051975
 20
1.443225498647
 30
0.23292
 11
9.175001222309
 21
1.442650029044
 31
0.23292
  0
LINE
  5
43C
100
AcDbEntity
  8
0
370
           0
 62
           0
100
AcDbLine
 10
8.366678345403
 20
1.272811153455
 30
0.23292
 11
8.366678345403
 21
1.454779903455
 31
0.23292
  0
LINE
  5
43D
100
AcDbEntity
  8
0
370
           0
 62
           0
100
AcDbLine
 10
8.403851814756
 20
1.272811153455
 30
0.23292
 11
8.403851814756
 21
1.450815225126
 31
0.23292
  0
LINE
  5
43E
100
AcDbEntity
  8
0
370
           0
 62
           0
100
AcDbLine
 10
8.366678345403
 20
1.454779903455
 30
0.23292
 11
8.403851814756
 21
1.450815225126
 31
0.23292
  0
LINE
  5
43F
100
AcDbEntity
  8
0
370
           0
 62
           0
100
AcDbLine
 10
8.366678345403
 20
1.272811153455
 30
0.23292
 11
8.403851814756
 21
1.272811153455
 31
0.23292
  0
ARC
  5
440
100
AcDbEntity
  8
0
370
           0
 62
           0
100
AcDbCircle
 10
8.467120756328
 20
1.406978137283
 30
0.23292
 40
0.044162391172
100
AcDbArc
 50
277.093870941068
 51
90.0
  0
ARC
  5
441
100
AcDbEntity
  8
0
370
           0
 62
           0
100
AcDbCircle
 10
8.450356106233
 20
1.40000256243
 30
0.23292
 40
0.030675441761
100
AcDbArc
 50
270.0
 51
90.0
  0
LINE
  5
442
100
AcDbEntity
  8
0
370
           0
 62
           0
100
AcDbLine
 10
8.403851814756
 20
1.427038629192
 30
0.23292
 11
8.403851814756
 21
1.450815225126
 31
0.23292
  0
LINE
  5
443
100
AcDbEntity
  8
0
370
           0
 62
           0
100
AcDbLine
 10
8.450356106233
 20
1.427038629192
 30
0.23292
 11
8.467120756328
 21
1.454779903455
 31
0.23292
  0
LINE
  5
444
100
AcDbEntity
  8
0
370
           0
 62
           0
100
AcDbLine
 10
8.403851814756
 20
1.450815225126
 30
0.23292
 11
8.467120756328
 21
1.454779903455
 31
0.23292
  0
LINE
  5
445
100
AcDbEntity
  8
0
370
           0
 62
           0
100
AcDbLine
 10
8.403851814756
 20
1.427038629192
 30
0.23292
 11
8.450356106233
 21
1.427038629192
 31
0.23292
  0
LINE
  5
446
100
AcDbEntity
  8
0
370
           0
 62
           0
100
AcDbLine
 10
8.403851814756
 20
1.372966495669
 30
0.23292
 11
8.403851814756
 21
1.345535615286
 31
0.23292
  0
LINE
  5
447
100
AcDbEntity
  8
0
370
           0
 62
           0
100
AcDbLine
 10
8.450356106233
 20
1.372966495669
 30
0.23292
 11
8.439294624782
 21
1.345535615286
 31
0.23292
  0
LINE
  5
448
100
AcDbEntity
  8
0
370
           0
 62
           0
100
AcDbLine
 10
8.403851814756
 20
1.345535615286
 30
0.23292
 11
8.439294624782
 21
1.345535615286
 31
0.23292
  0
LINE
  5
449
100
AcDbEntity
  8
0
370
           0
 62
           0
100
AcDbLine
 10
8.403851814756
 20
1.372966495669
 30
0.23292
 11
8.450356106233
 21
1.372966495669
 31
0.23292
  0
ARC
  5
44A
100
AcDbEntity
  8
0
370
           0
 62
           0
100
AcDbCircle
 10
8.469334668855
 20
1.321615003865
 30
0.23292
 40
0.0344669275
100
AcDbArc
 50
5.627221652323
 51
84.444024851441
  0
ARC
  5
44B
100
AcDbEntity
  8
0
370
           0
 62
           0
100
AcDbCircle
 10
8.439294624782
 20
1.31202649186
 30
0.23292
 40
0.037148498426
100
AcDbArc
 50
4.896693616939
 51
90.0
  0
ARC
  5
44C
100
AcDbEntity
  8
0
370
           0
 62
           0
100
AcDbCircle
 10
8.496957740026
 20
1.283940576156
 30
0.23292
 40
0.017906761686
100
AcDbArc
 50
184.896693616938
 51
211.100388180095
  0
LINE
  5
44D
100
AcDbEntity
  8
0
370
           0
 62
           0
100
AcDbLine
 10
8.472681447404
 20
1.314886811422
 30
0.23292
 11
8.475490241919
 21
1.282101410282
 31
0.23292
  0
LINE
  5
44E
100
AcDbEntity
  8
0
370
           0
 62
           0
100
AcDbLine
 10
8.507257334237
 20
1.325351545125
 30
0.23292
 11
8.511246114178
 21
1.284868875059
 31
0.23292
  0
LINE
  5
44F
100
AcDbEntity
  8
0
370
           0
 62
           0
100
AcDbLine
 10
8.475490241919
 20
1.282101410282
 30
0.23292
 11
8.511246114178
 21
1.284868875059
 31
0.23292
  0
LINE
  5
450
100
AcDbEntity
  8
0
370
           0
 62
           0
100
AcDbLine
 10
8.472681447404
 20
1.314886811422
 30
0.23292
 11
8.507257334237
 21
1.325351545125
 31
0.23292
  0
LINE
  5
451
100
AcDbEntity
  8
0
370
           0
 62
           0
100
AcDbLine
 10
8.472681447404
 20
1.314886811422
 30
0.23292
 11
8.507257334237
 21
1.325351545125
 31
0.23292
  0
LINE
  5
452
100
AcDbEntity
  8
0
370
           0
 62
           0
100
AcDbLine
 10
8.473410953459
 20
1.325749317132
 30
0.23292
 11
8.502932706312
 21
1.336088812593
 31
0.23292
  0
LINE
  5
453
100
AcDbEntity
  8
0
370
           0
 62
           0
100
AcDbLine
 10
8.507257334237
 20
1.325351545125
 30
0.23292
 11
8.502932706312
 21
1.336088812593
 31
0.23292
  0
LINE
  5
454
100
AcDbEntity
  8
0
370
           0
 62
           0
100
AcDbLine
 10
8.472681447404
 20
1.314886811422
 30
0.23292
 11
8.473410953459
 21
1.325749317132
 31
0.23292
  0
LINE
  5
455
100
AcDbEntity
  8
0
370
           0
 62
           0
100
AcDbLine
 10
8.473410953459
 20
1.325749317132
 30
0.23292
 11
8.502932706312
 21
1.336088812593
 31
0.23292
  0
LINE
  5
456
100
AcDbEntity
  8
0
370
           0
 62
           0
100
AcDbLine
 10
8.465046456818
 20
1.337073526447
 30
0.23292
 11
8.484727625386
 21
1.350859520395
 31
0.23292
  0
LINE
  5
457
100
AcDbEntity
  8
0
370
           0
 62
           0
100
AcDbLine
 10
8.502932706312
 20
1.336088812593
 30
0.23292
 11
8.484727625386
 21
1.350859520395
 31
0.23292
  0
LINE
  5
458
100
AcDbEntity
  8
0
370
           0
 62
           0
100
AcDbLine
 10
8.473410953459
 20
1.325749317132
 30
0.23292
 11
8.465046456818
 21
1.337073526447
 31
0.23292
  0
LINE
  5
459
100
AcDbEntity
  8
0
370
           0
 62
           0
100
AcDbLine
 10
8.465046456818
 20
1.337073526447
 30
0.23292
 11
8.484727625386
 21
1.350859520395
 31
0.23292
  0
LINE
  5
45A
100
AcDbEntity
  8
0
370
           0
 62
           0
100
AcDbLine
 10
8.455172262754
 20
1.346900817513
 30
0.23292
 11
8.473024050932
 21
1.359542286264
 31
0.23292
  0
LINE
  5
45B
100
AcDbEntity
  8
0
370
           0
 62
           0
100
AcDbLine
 10
8.484727625386
 20
1.350859520395
 30
0.23292
 11
8.473024050932
 21
1.359542286264
 31
0.23292
  0
LINE
  5
45C
100
AcDbEntity
  8
0
370
           0
 62
           0
100
AcDbLine
 10
8.465046456818
 20
1.337073526447
 30
0.23292
 11
8.455172262754
 21
1.346900817513
 31
0.23292
  0
LINE
  5
45D
100
AcDbEntity
  8
0
370
           0
 62
           0
100
AcDbLine
 10
8.455172262754
 20
1.346900817513
 30
0.23292
 11
8.473024050932
 21
1.359542286264
 31
0.23292
  0
LINE
  5
45E
100
AcDbEntity
  8
0
370
           0
 62
           0
100
AcDbLine
 10
8.439294624782
 20
1.345535615286
 30
0.23292
 11
8.450356106233
 21
1.372966495669
 31
0.23292
  0
LINE
  5
45F
100
AcDbEntity
  8
0
370
           0
 62
           0
100
AcDbLine
 10
8.473024050932
 20
1.359542286264
 30
0.23292
 11
8.450356106233
 21
1.372966495669
 31
0.23292
  0
LINE
  5
460
100
AcDbEntity
  8
0
370
           0
 62
           0
100
AcDbLine
 10
8.455172262754
 20
1.346900817513
 30
0.23292
 11
8.439294624782
 21
1.345535615286
 31
0.23292
  0
LINE
  5
461
100
AcDbEntity
  8
0
370
           0
 62
           0
100
AcDbLine
 10
8.469490651978
 20
1.372323463502
 30
0.23292
 11
8.483397358807
 21
1.365840021714
 31
0.23292
  0
LINE
  5
462
100
AcDbEntity
  8
0
370
           0
 62
           0
100
AcDbLine
 10
8.482173589683
 20
1.40077428506
 30
0.23292
 11
8.510429615209
 21
1.391726334581
 31
0.23292
  0
LINE
  5
463
100
AcDbEntity
  8
0
370
           0
 62
           0
100
AcDbLine
 10
8.483397358807
 20
1.365840021714
 30
0.23292
 11
8.510429615209
 21
1.391726334581
 31
0.23292
  0
LINE
  5
464
100
AcDbEntity
  8
0
370
           0
 62
           0
100
AcDbLine
 10
8.469490651978
 20
1.372323463502
 30
0.23292
 11
8.482173589683
 21
1.40077428506
 31
0.23292
  0
LINE
  5
465
100
AcDbEntity
  8
0
370
           0
 62
           0
100
AcDbLine
 10
8.482173589683
 20
1.40077428506
 30
0.23292
 11
8.510429615209
 21
1.391726334581
 31
0.23292
  0
LINE
  5
466
100
AcDbEntity
  8
0
370
           0
 62
           0
100
AcDbLine
 10
8.478406119612
 20
1.415854202526
 30
0.23292
 11
8.506662145139
 21
1.430557122055
 31
0.23292
  0
LINE
  5
467
100
AcDbEntity
  8
0
370
           0
 62
           0
100
AcDbLine
 10
8.510429615209
 20
1.391726334581
 30
0.23292
 11
8.506662145139
 21
1.430557122055
 31
0.23292
  0
LINE
  5
468
100
AcDbEntity
  8
0
370
           0
 62
           0
100
AcDbLine
 10
8.482173589683
 20
1.40077428506
 30
0.23292
 11
8.478406119612
 21
1.415854202526
 31
0.23292
  0
LINE
  5
469
100
AcDbEntity
  8
0
370
           0
 62
           0
100
AcDbLine
 10
8.478406119612
 20
1.415854202526
 30
0.23292
 11
8.506662145139
 21
1.430557122055
 31
0.23292
  0
LINE
  5
46A
100
AcDbEntity
  8
0
370
           0
 62
           0
100
AcDbLine
 10
8.465973468381
 20
1.429049130309
 30
0.23292
 11
8.478782866619
 21
1.449784016824
 31
0.23292
  0
LINE
  5
46B
100
AcDbEntity
  8
0
370
           0
 62
           0
100
AcDbLine
 10
8.506662145139
 20
1.430557122055
 30
0.23292
 11
8.478782866619
 21
1.449784016824
 31
0.23292
  0
LINE
  5
46C
100
AcDbEntity
  8
0
370
           0
 62
           0
100
AcDbLine
 10
8.478406119612
 20
1.415854202526
 30
0.23292
 11
8.465973468381
 21
1.429049130309
 31
0.23292
  0
LINE
  5
46D
100
AcDbEntity
  8
0
370
           0
 62
           0
100
AcDbLine
 10
8.465973468381
 20
1.429049130309
 30
0.23292
 11
8.478782866619
 21
1.449784016824
 31
0.23292
  0
LINE
  5
46E
100
AcDbEntity
  8
0
370
           0
 62
           0
100
AcDbLine
 10
8.450356106233
 20
1.427038629192
 30
0.23292
 11
8.467120756328
 21
1.454779903455
 31
0.23292
  0
LINE
  5
46F
100
AcDbEntity
  8
0
370
           0
 62
           0
100
AcDbLine
 10
8.478782866619
 20
1.449784016824
 30
0.23292
 11
8.467120756328
 21
1.454779903455
 31
0.23292
  0
LINE
  5
470
100
AcDbEntity
  8
0
370
           0
 62
           0
100
AcDbLine
 10
8.465973468381
 20
1.429049130309
 30
0.23292
 11
8.450356106233
 21
1.427038629192
 31
0.23292
  0
LINE
  5
471
100
AcDbEntity
  8
0
370
           0
 62
           0
100
AcDbLine
 10
8.469490651978
 20
1.372323463502
 30
0.23292
 11
8.483397358807
 21
1.365840021714
 31
0.23292
  0
LINE
  5
472
100
AcDbEntity
  8
0
370
           0
 62
           0
100
AcDbLine
 10
8.450356106233
 20
1.372966495669
 30
0.23292
 11
8.473024050932
 21
1.359542286264
 31
0.23292
  0
LINE
  5
473
100
AcDbEntity
  8
0
370
           0
 62
           0
100
AcDbLine
 10
8.483397358807
 20
1.365840021714
 30
0.23292
 11
8.473024050932
 21
1.359542286264
 31
0.23292
  0
LINE
  5
474
100
AcDbEntity
  8
0
370
           0
 62
           0
100
AcDbLine
 10
8.469490651978
 20
1.372323463502
 30
0.23292
 11
8.450356106233
 21
1.372966495669
 31
0.23292
  0
LINE
  5
475
100
AcDbEntity
  8
0
370
           0
 62
           0
100
AcDbLine
 10
8.467120756328
 20
1.451140528455
 30
0.23292
 11
8.366678345403
 21
1.451140528455
 31
0.23292
  0
ARC
  5
476
100
AcDbEntity
  8
0
370
           0
 62
           0
100
AcDbCircle
 10
8.53466855842
 20
1.287176701485
 30
0.23292
 40
0.027175240336
100
AcDbArc
 50
185.627221652326
 51
207.349684128657
  0
LINE
  5
477
100
AcDbEntity
  8
0
370
           0
 62
           0
100
AcDbLine
 10
8.478508567783
 20
1.272811153455
 30
0.23292
 11
8.516025383076
 21
1.272811153455
 31
0.23292
  0
LINE
  5
478
100
AcDbEntity
  8
0
370
           0
 62
           0
100
AcDbLine
 10
8.476789783448
 20
1.277871049064
 30
0.23292
 11
8.510543617519
 21
1.281418834923
 31
0.23292
  0
LINE
  5
479
100
AcDbEntity
  8
0
370
           0
 62
           0
100
AcDbLine
 10
8.516025383076
 20
1.272811153455
 30
0.23292
 11
8.510543617519
 21
1.281418834923
 31
0.23292
  0
LINE
  5
47A
100
AcDbEntity
  8
0
370
           0
 62
           0
100
AcDbLine
 10
8.478508567783
 20
1.272811153455
 30
0.23292
 11
8.476789783448
 21
1.277871049064
 31
0.23292
  0
LINE
  5
47B
100
AcDbEntity
  8
0
370
           0
 62
           0
100
AcDbLine
 10
8.476789783448
 20
1.277871049064
 30
0.23292
 11
8.510543617519
 21
1.281418834923
 31
0.23292
  0
LINE
  5
47C
100
AcDbEntity
  8
0
370
           0
 62
           0
100
AcDbLine
 10
8.475490241919
 20
1.282101410282
 30
0.23292
 11
8.511246114178
 21
1.284868875059
 31
0.23292
  0
LINE
  5
47D
100
AcDbEntity
  8
0
370
           0
 62
           0
100
AcDbLine
 10
8.510543617519
 20
1.281418834923
 30
0.23292
 11
8.511246114178
 21
1.284868875059
 31
0.23292
  0
LINE
  5
47E
100
AcDbEntity
  8
0
370
           0
 62
           0
100
AcDbLine
 10
8.476789783448
 20
1.277871049064
 30
0.23292
 11
8.475490241919
 21
1.282101410282
 31
0.23292
  0
ARC
  5
47F
100
AcDbEntity
  8
0
370
           0
 62
           0
100
AcDbCircle
 10
8.32152563317
 20
1.364002637463
 30
0.23292
 40
0.095110167987
100
AcDbArc
 50
154.844310714821
 51
206.334603635427
  0
ARC
  5
480
100
AcDbEntity
  8
0
370
           0
 62
           0
100
AcDbCircle
 10
8.279988760662
 20
1.343442613384
 30
0.23292
 40
0.048763362619
100
AcDbArc
 50
206.334603635427
 51
334.02694015038
  0
ARC
  5
481
100
AcDbEntity
  8
0
370
           0
 62
           0
100
AcDbCircle
 10
8.238401284925
 20
1.363701980318
 30
0.23292
 40
0.095023065241
100
AcDbArc
 50
334.026940150379
 51
25.621643176438
  0
ARC
  5
482
100
AcDbEntity
  8
0
370
           0
 62
           0
100
AcDbCircle
 10
8.279843907409
 20
1.383577209905
 30
0.23292
 40
0.049060953567
100
AcDbArc
 50
25.621643176439
 51
154.844310714821
  0
ARC
  5
483
100
AcDbEntity
  8
0
370
           0
 62
           0
100
AcDbCircle
 10
8.280135825257
 20
1.374599375514
 30
0.23292
 40
0.081808455264
100
AcDbArc
 50
17.226527836555
 51
163.450029351103
  0
ARC
  5
484
100
AcDbEntity
  8
0
370
           0
 62
           0
100
AcDbCircle
 10
8.247139700587
 20
1.364368625281
 30
0.23292
 40
0.1163542581
100
AcDbArc
 50
345.191921923054
 51
17.226527836554
  0
ARC
  5
485
100
AcDbEntity
  8
0
370
           0
 62
           0
100
AcDbCircle
 10
8.280291741531
 20
1.355604477691
 30
0.23292
 40
0.08206332487
100
AcDbArc
 50
196.014666158639
 51
345.191921923056
  0
ARC
  5
486
100
AcDbEntity
  8
0
370
           0
 62
           0
100
AcDbCircle
 10
8.312727648741
 20
1.364914310457
 30
0.23292
 40
0.115808858837
100
AcDbArc
 50
163.450029351101
 51
196.014666158637
  0
LINE
  5
487
100
AcDbEntity
  8
0
370
           0
 62
           0
100
AcDbLine
 10
8.27960859264
 20
1.45847202302
 30
0.23292
 11
8.278839913037
 21
1.432319509433
 31
0.23292
  0
LINE
  5
488
100
AcDbEntity
  8
0
370
           0
 62
           0
100
AcDbLine
 10
8.231181777677
 20
1.441549808347
 30
0.23292
 11
8.245018010523
 21
1.420781635792
 31
0.23292
  0
LINE
  5
489
100
AcDbEntity
  8
0
370
           0
 62
           0
100
AcDbLine
 10
8.278839913037
 20
1.432319509433
 30
0.23292
 11
8.245018010523
 21
1.420781635792
 31
0.23292
  0
LINE
  5
48A
100
AcDbEntity
  8
0
370
           0
 62
           0
100
AcDbLine
 10
8.27960859264
 20
1.45847202302
 30
0.23292
 11
8.231181777677
 21
1.441549808347
 31
0.23292
  0
LINE
  5
48B
100
AcDbEntity
  8
0
370
           0
 62
           0
100
AcDbLine
 10
8.231181777677
 20
1.441549808347
 30
0.23292
 11
8.245018010523
 21
1.420781635792
 31
0.23292
  0
LINE
  5
48C
100
AcDbEntity
  8
0
370
           0
 62
           0
100
AcDbLine
 10
8.206584030394
 20
1.413858911607
 30
0.23292
 11
8.232719136882
 21
1.395398313781
 31
0.23292
  0
LINE
  5
48D
100
AcDbEntity
  8
0
370
           0
 62
           0
100
AcDbLine
 10
8.245018010523
 20
1.420781635792
 30
0.23292
 11
8.232719136882
 21
1.395398313781
 31
0.23292
  0
LINE
  5
48E
100
AcDbEntity
  8
0
370
           0
 62
           0
100
AcDbLine
 10
8.231181777677
 20
1.441549808347
 30
0.23292
 11
8.206584030394
 21
1.413858911607
 31
0.23292
  0
LINE
  5
48F
100
AcDbEntity
  8
0
370
           0
 62
           0
100
AcDbLine
 10
8.206584030394
 20
1.413858911607
 30
0.23292
 11
8.232719136882
 21
1.395398313781
 31
0.23292
  0
LINE
  5
490
100
AcDbEntity
  8
0
370
           0
 62
           0
100
AcDbLine
 10
8.196030467927
 20
1.363504732634
 30
0.23292
 11
8.225645056481
 21
1.360950050467
 31
0.23292
  0
LINE
  5
491
100
AcDbEntity
  8
0
370
           0
 62
           0
100
AcDbLine
 10
8.232719136882
 20
1.395398313781
 30
0.23292
 11
8.225645056481
 21
1.360950050467
 31
0.23292
  0
LINE
  5
492
100
AcDbEntity
  8
0
370
           0
 62
           0
100
AcDbLine
 10
8.206584030394
 20
1.413858911607
 30
0.23292
 11
8.196030467927
 21
1.363504732634
 31
0.23292
  0
LINE
  5
493
100
AcDbEntity
  8
0
370
           0
 62
           0
100
AcDbLine
 10
8.196030467927
 20
1.363504732634
 30
0.23292
 11
8.225645056481
 21
1.360950050467
 31
0.23292
  0
LINE
  5
494
100
AcDbEntity
  8
0
370
           0
 62
           0
100
AcDbLine
 10
8.209305973141
 20
1.311389216428
 30
0.23292
 11
8.235346387214
 21
1.321097008662
 31
0.23292
  0
LINE
  5
495
100
AcDbEntity
  8
0
370
           0
 62
           0
100
AcDbLine
 10
8.225645056481
 20
1.360950050467
 30
0.23292
 11
8.235346387214
 21
1.321097008662
 31
0.23292
  0
LINE
  5
496
100
AcDbEntity
  8
0
370
           0
 62
           0
100
AcDbLine
 10
8.196030467927
 20
1.363504732634
 30
0.23292
 11
8.209305973141
 21
1.311389216428
 31
0.23292
  0
LINE
  5
497
100
AcDbEntity
  8
0
370
           0
 62
           0
100
AcDbLine
 10
8.209305973141
 20
1.311389216428
 30
0.23292
 11
8.235346387214
 21
1.321097008662
 31
0.23292
  0
LINE
  5
498
100
AcDbEntity
  8
0
370
           0
 62
           0
100
AcDbLine
 10
8.247600699719
 20
1.278178348257
 30
0.23292
 11
8.260876204933
 21
1.297082996293
 31
0.23292
  0
LINE
  5
499
100
AcDbEntity
  8
0
370
           0
 62
           0
100
AcDbLine
 10
8.235346387214
 20
1.321097008662
 30
0.23292
 11
8.260876204933
 21
1.297082996293
 31
0.23292
  0
LINE
  5
49A
100
AcDbEntity
  8
0
370
           0
 62
           0
100
AcDbLine
 10
8.209305973141
 20
1.311389216428
 30
0.23292
 11
8.247600699719
 21
1.278178348257
 31
0.23292
  0
LINE
  5
49B
100
AcDbEntity
  8
0
370
           0
 62
           0
100
AcDbLine
 10
8.247600699719
 20
1.278178348257
 30
0.23292
 11
8.260876204933
 21
1.297082996293
 31
0.23292
  0
LINE
  5
49C
100
AcDbEntity
  8
0
370
           0
 62
           0
100
AcDbLine
 10
8.2802788664
 20
1.272047111057
 30
0.23292
 11
8.2802788664
 21
1.295039250559
 31
0.23292
  0
LINE
  5
49D
100
AcDbEntity
  8
0
370
           0
 62
           0
100
AcDbLine
 10
8.260876204933
 20
1.297082996293
 30
0.23292
 11
8.2802788664
 21
1.295039250559
 31
0.23292
  0
LINE
  5
49E
100
AcDbEntity
  8
0
370
           0
 62
           0
100
AcDbLine
 10
8.247600699719
 20
1.278178348257
 30
0.23292
 11
8.2802788664
 21
1.272047111057
 31
0.23292
  0
LINE
  5
49F
100
AcDbEntity
  8
0
370
           0
 62
           0
100
AcDbLine
 10
8.2802788664
 20
1.272047111057
 30
0.23292
 11
8.2802788664
 21
1.295039250559
 31
0.23292
  0
LINE
  5
4A0
100
AcDbEntity
  8
0
370
           0
 62
           0
100
AcDbLine
 10
8.327764327357
 20
1.288397076925
 30
0.23292
 11
8.314999418497
 21
1.30576891566
 31
0.23292
  0
LINE
  5
4A1
100
AcDbEntity
  8
0
370
           0
 62
           0
100
AcDbLine
 10
8.2802788664
 20
1.295039250559
 30
0.23292
 11
8.314999418497
 21
1.30576891566
 31
0.23292
  0
LINE
  5
4A2
100
AcDbEntity
  8
0
370
           0
 62
           0
100
AcDbLine
 10
8.2802788664
 20
1.272047111057
 30
0.23292
 11
8.327764327357
 21
1.288397076925
 31
0.23292
  0
LINE
  5
4A3
100
AcDbEntity
  8
0
370
           0
 62
           0
100
AcDbLine
 10
8.327764327357
 20
1.288397076925
 30
0.23292
 11
8.314999418497
 21
1.30576891566
 31
0.23292
  0
LINE
  5
4A4
100
AcDbEntity
  8
0
370
           0
 62
           0
100
AcDbLine
 10
8.353294145075
 20
1.317009517195
 30
0.23292
 11
8.331849098192
 21
1.339490720264
 31
0.23292
  0
LINE
  5
4A5
100
AcDbEntity
  8
0
370
           0
 62
           0
100
AcDbLine
 10
8.314999418497
 20
1.30576891566
 30
0.23292
 11
8.331849098192
 21
1.339490720264
 31
0.23292
  0
LINE
  5
4A6
100
AcDbEntity
  8
0
370
           0
 62
           0
100
AcDbLine
 10
8.327764327357
 20
1.288397076925
 30
0.23292
 11
8.353294145075
 21
1.317009517195
 31
0.23292
  0
LINE
  5
4A7
100
AcDbEntity
  8
0
370
           0
 62
           0
100
AcDbLine
 10
8.353294145075
 20
1.317009517195
 30
0.23292
 11
8.331849098192
 21
1.339490720264
 31
0.23292
  0
LINE
  5
4A8
100
AcDbEntity
  8
0
370
           0
 62
           0
100
AcDbLine
 10
8.364527264872
 20
1.371168779135
 30
0.23292
 11
8.3328702909
 21
1.374234397735
 31
0.23292
  0
LINE
  5
4A9
100
AcDbEntity
  8
0
370
           0
 62
           0
100
AcDbLine
 10
8.331849098192
 20
1.339490720264
 30
0.23292
 11
8.3328702909
 21
1.374234397735
 31
0.23292
  0
LINE
  5
4AA
100
AcDbEntity
  8
0
370
           0
 62
           0
100
AcDbLine
 10
8.353294145075
 20
1.317009517195
 30
0.23292
 11
8.364527264872
 21
1.371168779135
 31
0.23292
  0
LINE
  5
4AB
100
AcDbEntity
  8
0
370
           0
 62
           0
100
AcDbLine
 10
8.364527264872
 20
1.371168779135
 30
0.23292
 11
8.3328702909
 21
1.374234397735
 31
0.23292
  0
LINE
  5
4AC
100
AcDbEntity
  8
0
370
           0
 62
           0
100
AcDbLine
 10
8.34920937424
 20
1.422773358907
 30
0.23292
 11
8.322147767458
 21
1.409999948072
 31
0.23292
  0
LINE
  5
4AD
100
AcDbEntity
  8
0
370
           0
 62
           0
100
AcDbLine
 10
8.3328702909
 20
1.374234397735
 30
0.23292
 11
8.322147767458
 21
1.409999948072
 31
0.23292
  0
LINE
  5
4AE
100
AcDbEntity
  8
0
370
           0
 62
           0
100
AcDbLine
 10
8.364527264872
 20
1.371168779135
 30
0.23292
 11
8.34920937424
 21
1.422773358907
 31
0.23292
  0
LINE
  5
4AF
100
AcDbEntity
  8
0
370
           0
 62
           0
100
AcDbLine
 10
8.34920937424
 20
1.422773358907
 30
0.23292
 11
8.322147767458
 21
1.409999948072
 31
0.23292
  0
LINE
  5
4B0
100
AcDbEntity
  8
0
370
           0
 62
           0
100
AcDbLine
 10
8.31295703308
 20
1.451385799177
 30
0.23292
 11
8.303766298701
 21
1.425328041074
 31
0.23292
  0
LINE
  5
4B1
100
AcDbEntity
  8
0
370
           0
 62
           0
100
AcDbLine
 10
8.322147767458
 20
1.409999948072
 30
0.23292
 11
8.303766298701
 21
1.425328041074
 31
0.23292
  0
LINE
  5
4B2
100
AcDbEntity
  8
0
370
           0
 62
           0
100
AcDbLine
 10
8.34920937424
 20
1.422773358907
 30
0.23292
 11
8.31295703308
 21
1.451385799177
 31
0.23292
  0
LINE
  5
4B3
100
AcDbEntity
  8
0
370
           0
 62
           0
100
AcDbLine
 10
8.31295703308
 20
1.451385799177
 30
0.23292
 11
8.303766298701
 21
1.425328041074
 31
0.23292
  0
LINE
  5
4B4
100
AcDbEntity
  8
0
370
           0
 62
           0
100
AcDbLine
 10
8.27960859264
 20
1.45847202302
 30
0.23292
 11
8.278839913037
 21
1.432319509433
 31
0.23292
  0
LINE
  5
4B5
100
AcDbEntity
  8
0
370
           0
 62
           0
100
AcDbLine
 10
8.303766298701
 20
1.425328041074
 30
0.23292
 11
8.278839913037
 21
1.432319509433
 31
0.23292
  0
LINE
  5
4B6
100
AcDbEntity
  8
0
370
           0
 62
           0
100
AcDbLine
 10
8.31295703308
 20
1.451385799177
 30
0.23292
 11
8.27960859264
 21
1.45847202302
 31
0.23292
  0
LINE
  5
4B7
100
AcDbEntity
  8
0
370
           0
 62
           0
100
AcDbLine
 10
8.045429806614
 20
1.454779903455
 30
0.23292
 11
8.081823556614
 21
1.454779903455
 31
0.23292
  0
LINE
  5
4B8
100
AcDbEntity
  8
0
370
           0
 62
           0
100
AcDbLine
 10
8.045429806614
 20
1.272811153455
 30
0.23292
 11
8.081823556614
 21
1.272811153455
 31
0.23292
  0
LINE
  5
4B9
100
AcDbEntity
  8
0
370
           0
 62
           0
100
AcDbLine
 10
8.081823556614
 20
1.454779903455
 30
0.23292
 11
8.081823556614
 21
1.272811153455
 31
0.23292
  0
LINE
  5
4BA
100
AcDbEntity
  8
0
370
           0
 62
           0
100
AcDbLine
 10
8.045429806614
 20
1.454779903455
 30
0.23292
 11
8.045429806614
 21
1.272811153455
 31
0.23292
  0
LINE
  5
4BB
100
AcDbEntity
  8
0
370
           0
 62
           0
100
AcDbLine
 10
8.157340587864
 20
1.454779903455
 30
0.23292
 11
8.193734337864
 21
1.454779903455
 31
0.23292
  0
LINE
  5
4BC
100
AcDbEntity
  8
0
370
           0
 62
           0
100
AcDbLine
 10
8.157340587864
 20
1.272811153455
 30
0.23292
 11
8.193734337864
 21
1.272811153455
 31
0.23292
  0
LINE
  5
4BD
100
AcDbEntity
  8
0
370
           0
 62
           0
100
AcDbLine
 10
8.193734337864
 20
1.454779903455
 30
0.23292
 11
8.193734337864
 21
1.272811153455
 31
0.23292
  0
LINE
  5
4BE
100
AcDbEntity
  8
0
370
           0
 62
           0
100
AcDbLine
 10
8.157340587864
 20
1.454779903455
 30
0.23292
 11
8.157340587864
 21
1.272811153455
 31
0.23292
  0
LINE
  5
4BF
100
AcDbEntity
  8
0
370
           0
 62
           0
100
AcDbLine
 10
8.157340587864
 20
1.383812090955
 30
0.23292
 11
8.081823556614
 21
1.383812090955
 31
0.23292
  0
LINE
  5
4C0
100
AcDbEntity
  8
0
370
           0
 62
           0
100
AcDbLine
 10
8.157340587864
 20
1.352877403455
 30
0.23292
 11
8.081823556614
 21
1.352877403455
 31
0.23292
  0
LINE
  5
4C1
100
AcDbEntity
  8
0
370
           0
 62
           0
100
AcDbLine
 10
8.081823556614
 20
1.383812090955
 30
0.23292
 11
8.081823556614
 21
1.352877403455
 31
0.23292
  0
LINE
  5
4C2
100
AcDbEntity
  8
0
370
           0
 62
           0
100
AcDbLine
 10
8.157340587864
 20
1.383812090955
 30
0.23292
 11
8.157340587864
 21
1.352877403455
 31
0.23292
  0
LINE
  5
4C3
100
AcDbEntity
  8
0
370
           0
 62
           0
100
AcDbLine
 10
7.892576056614
 20
1.454779903455
 30
0.23292
 11
8.045429806614
 21
1.454779903455
 31
0.23292
  0
LINE
  5
4C4
100
AcDbEntity
  8
0
370
           0
 62
           0
100
AcDbLine
 10
7.892576056614
 20
1.424755059705
 30
0.23292
 11
8.045429806614
 21
1.424755059705
 31
0.23292
  0
LINE
  5
4C5
100
AcDbEntity
  8
0
370
           0
 62
           0
100
AcDbLine
 10
8.045429806614
 20
1.454779903455
 30
0.23292
 11
8.045429806614
 21
1.424755059705
 31
0.23292
  0
LINE
  5
4C6
100
AcDbEntity
  8
0
370
           0
 62
           0
100
AcDbLine
 10
7.892576056614
 20
1.454779903455
 30
0.23292
 11
7.892576056614
 21
1.424755059705
 31
0.23292
  0
LINE
  5
4C7
100
AcDbEntity
  8
0
370
           0
 62
           0
100
AcDbLine
 10
8.751244084537
 20
1.311934434705
 30
0.23292
 11
8.68163505994
 21
1.311934434705
 31
0.23292
  0
LINE
  5
4C8
100
AcDbEntity
  8
0
370
           0
 62
           0
100
AcDbLine
 10
8.68163505994
 20
1.311934434705
 30
0.23292
 11
8.669582619114
 21
1.272811153455
 31
0.23292
  0
LINE
  5
4C9
100
AcDbEntity
  8
0
370
           0
 62
           0
100
AcDbLine
 10
8.669582619114
 20
1.272811153455
 30
0.23292
 11
8.631369181614
 21
1.272811153455
 31
0.23292
  0
LINE
  5
4CA
100
AcDbEntity
  8
0
370
           0
 62
           0
100
AcDbLine
 10
8.642350995676
 20
1.303745840955
 30
0.23292
 11
8.695968087864
 21
1.454779903455
 31
0.23292
  0
LINE
  5
4CB
100
AcDbEntity
  8
0
370
           0
 62
           0
100
AcDbLine
 10
8.695968087864
 20
1.454779903455
 30
0.23292
 11
8.736911056614
 21
1.454779903455
 31
0.23292
  0
LINE
  5
4CC
100
AcDbEntity
  8
0
370
           0
 62
           0
100
AcDbLine
 10
8.736911056614
 20
1.454779903455
 30
0.23292
 11
8.796941177581
 21
1.285680971152
 31
0.23292
  0
LINE
  5
4CD
100
AcDbEntity
  8
0
370
           0
 62
           0
100
AcDbLine
 10
8.801509962864
 20
1.272811153455
 30
0.23292
 11
8.763296525364
 21
1.272811153455
 31
0.23292
  0
LINE
  5
4CE
100
AcDbEntity
  8
0
370
           0
 62
           0
100
AcDbLine
 10
8.763296525364
 20
1.272811153455
 30
0.23292
 11
8.751244084537
 21
1.311934434705
 31
0.23292
  0
ARC
  5
4CF
100
AcDbEntity
  8
0
370
           0
 62
           0
100
AcDbCircle
 10
10.377948842843
 20
8.038844131721
 30
0.23292
 40
6.79397417285
100
AcDbArc
 50
258.260527685183
 51
258.709013655919
  0
ARC
  5
4D0
100
AcDbEntity
  8
0
370
           0
 62
           0
100
AcDbCircle
 10
9.037808294953
 20
1.324410084548
 30
0.23292
 40
0.052895541516
100
AcDbArc
 50
30.923673677882
 51
79.173555709233
  0
ARC
  5
4D1
100
AcDbEntity
  8
0
370
           0
 62
           0
100
AcDbCircle
 10
9.04256660155
 20
1.327260543229
 30
0.23292
 40
0.047348777021
100
AcDbArc
 50
344.020723359957
 51
30.923673677882
  0
ARC
  5
4D2
100
AcDbEntity
  8
0
370
           0
 62
           0
100
AcDbCircle
 10
9.031684041678
 20
1.330376807738
 30
0.23292
 40
0.05866872463
100
AcDbArc
 50
291.948877604398
 51
344.020723359955
  0
ARC
  5
4D3
100
AcDbEntity
  8
0
370
           0
 62
           0
100
AcDbCircle
 10
9.014273853128
 20
1.373579479936
 30
0.23292
 40
0.10524753473
100
AcDbArc
 50
251.946924748946
 51
291.948877604401
  0
ARC
  5
4D4
100
AcDbEntity
  8
0
370
           0
 62
           0
100
AcDbCircle
 10
9.001337226944
 20
1.333889776572
 30
0.23292
 40
0.063502728465
100
AcDbArc
 50
204.158776579568
 51
251.946924748949
  0
LINE
  5
4D5
100
AcDbEntity
  8
0
370
           0
 62
           0
100
AcDbLine
 10
8.94560668991
 20
1.327497324014
 30
0.23292
 11
8.974784370155
 21
1.327497324014
 31
0.23292
  0
ARC
  5
4D6
100
AcDbEntity
  8
0
370
           0
 62
           0
100
AcDbCircle
 10
9.004792136233
 20
1.32778746426
 30
0.23292
 40
0.030009168705
100
AcDbArc
 50
180.553966380536
 51
247.78049024693
  0
ARC
  5
4D7
100
AcDbEntity
  8
0
370
           0
 62
           0
100
AcDbCircle
 10
9.012687032725
 20
1.34711450293
 30
0.23292
 40
0.050886520414
100
AcDbArc
 50
247.780490246928
 51
307.228618635171
  0
ARC
  5
4D8
100
AcDbEntity
  8
0
370
           0
 62
           0
100
AcDbCircle
 10
9.030612749815
 20
1.323522721163
 30
0.23292
 40
0.021257084035
100
AcDbArc
 50
307.228618635167
 51
76.989828230346
  0
ARC
  5
4D9
100
AcDbEntity
  8
0
370
           0
 62
           0
100
AcDbCircle
 10
12.687743534212
 20
17.151475997052
 30
0.23292
 40
16.223702456633
100
AcDbArc
 50
256.773529023177
 51
256.989828230346
  0
ARC
  5
4DA
100
AcDbEntity
  8
0
370
           0
 62
           0
100
AcDbCircle
 10
8.986193657791
 20
1.402569450066
 30
0.23292
 40
0.04564543753
100
AcDbArc
 50
180.790367421958
 51
256.77352902318
  0
ARC
  5
4DB
100
AcDbEntity
  8
0
370
           0
 62
           0
100
AcDbCircle
 10
8.994540166972
 20
1.402684593406
 30
0.23292
 40
0.053992740897
100
AcDbArc
 50
109.349998344079
 51
180.790367421957
  0
ARC
  5
4DC
100
AcDbEntity
  8
0
370
           0
 62
           0
100
AcDbCircle
 10
9.013493289811
 20
1.34871399656
 30
0.23292
 40
0.111194543223
100
AcDbArc
 50
77.081338907822
 51
109.349998344078
  0
ARC
  5
4DD
100
AcDbEntity
  8
0
370
           0
 62
           0
100
AcDbCircle
 10
9.025578138228
 20
1.401400355914
 30
0.23292
 40
0.057139977983
100
AcDbArc
 50
3.250562525281
 51
77.081338907824
  0
LINE
  5
4DE
100
AcDbEntity
  8
0
370
           0
 62
           0
100
AcDbLine
 10
9.082626184496
 20
1.40464034064
 30
0.23292
 11
9.046644116835
 21
1.40464034064
 31
0.23292
  0
ARC
  5
4DF
100
AcDbEntity
  8
0
370
           0
 62
           0
100
AcDbCircle
 10
9.020076315883
 20
1.40365157302
 30
0.23292
 40
0.026586193951
100
AcDbArc
 50
2.131379910209
 51
69.344284227778
  0
ARC
  5
4E0
100
AcDbEntity
  8
0
370
           0
 62
           0
100
AcDbCircle
 10
9.011726253048
 20
1.381502013615
 30
0.23292
 40
0.050257411308
100
AcDbArc
 50
69.344284227778
 51
113.985968000133
  0
ARC
  5
4E1
100
AcDbEntity
  8
0
370
           0
 62
           0
100
AcDbCircle
 10
8.999981317335
 20
1.407898967558
 30
0.23292
 40
0.021365497347
100
AcDbArc
 50
113.98596800014
 51
258.26052768519
  0
LINE
  5
4E2
100
AcDbEntity
  8
0
370
           0
 62
           0
100
AcDbLine
 10
7.950806056614
 20
1.272811153455
 30
0.23292
 11
7.987199806614
 21
1.272811153455
 31
0.23292
  0
LINE
  5
4E3
100
AcDbEntity
  8
0
370
           0
 62
           0
100
AcDbLine
 10
7.950806056614
 20
1.424755059705
 30
0.23292
 11
7.987199806614
 21
1.424755059705
 31
0.23292
  0
LINE
  5
4E4
100
AcDbEntity
  8
0
370
           0
 62
           0
100
AcDbLine
 10
7.987199806614
 20
1.272811153455
 30
0.23292
 11
7.987199806614
 21
1.424755059705
 31
0.23292
  0
LINE
  5
4E5
100
AcDbEntity
  8
0
370
           0
 62
           0
100
AcDbLine
 10
7.950806056614
 20
1.272811153455
 30
0.23292
 11
7.950806056614
 21
1.424755059705
 31
0.23292
  0
LINE
  5
4E6
100
AcDbEntity
  8
0
370
           0
 62
           0
100
AcDbLine
 10
7.840790528307
 20
1.488155076728
 30
0.11646
 11
7.808440528307
 21
1.520505076728
 31
0.11646
  0
LINE
  5
4E7
100
AcDbEntity
  8
0
370
           0
 62
           0
100
AcDbLine
 10
7.840790528307
 20
0.158570076728
 30
0.11646
 11
7.808440528307
 21
0.158570076728
 31
0.11646
  0
LINE
  5
4E8
100
AcDbEntity
  8
0
370
           0
 62
           0
100
AcDbLine
 10
7.808440528307
 20
1.520505076728
 30
0.11646
 11
7.808440528307
 21
0.158570076728
 31
0.11646
  0
LINE
  5
4E9
100
AcDbEntity
  8
0
370
           0
 62
           0
100
AcDbLine
 10
7.840790528307
 20
1.488155076728
 30
0.11646
 11
7.840790528307
 21
0.158570076728
 31
0.11646
  0
LINE
  5
4EA
100
AcDbEntity
  8
0
370
           0
 62
           0
100
AcDbLine
 10
10.089115528307
 20
1.488155076728
 30
0.11646
 11
10.089115528307
 21
1.520505076728
 31
0.11646
  0
LINE
  5
4EB
100
AcDbEntity
  8
0
370
           0
 62
           0
100
AcDbLine
 10
7.840790528307
 20
1.488155076728
 30
0.11646
 11
7.808440528307
 21
1.520505076728
 31
0.11646
  0
LINE
  5
4EC
100
AcDbEntity
  8
0
370
           0
 62
           0
100
AcDbLine
 10
10.089115528307
 20
1.520505076728
 30
0.11646
 11
7.808440528307
 21
1.520505076728
 31
0.11646
  0
LINE
  5
4ED
100
AcDbEntity
  8
0
370
           0
 62
           0
100
AcDbLine
 10
10.089115528307
 20
1.488155076728
 30
0.11646
 11
7.840790528307
 21
1.488155076728
 31
0.11646
  0
LINE
  5
4EE
100
AcDbEntity
  8
0
370
           0
100
AcDbLine
 10
0.0
 20
0.0
 30
0.0
 11
0.0
 21
0.0
 31
0.0
  0
LINE
  5
4EF
100
AcDbEntity
  8
0
370
           0
100
AcDbLine
 10
0.0
 20
0.0
 30
0.0
 11
0.0
 21
0.0
 31
0.0
  0
LINE
  5
4F0
100
AcDbEntity
  8
0
370
           0
 62
           0
100
AcDbLine
 10
6.782773262624
 20
4.810841268441
 30
0.0
 11
6.744352044136
 21
4.764756455651
 31
0.0
  0
LINE
  5
4F1
100
AcDbEntity
  8
0
370
           0
 62
           0
100
AcDbLine
 10
6.744352044136
 20
4.764756455651
 30
0.0
 11
6.901817091751
 21
4.672535206583
 31
0.0
  0
LINE
  5
4F2
100
AcDbEntity
  8
0
370
           0
 62
           0
100
AcDbLine
 10
6.782773262624
 20
4.810841268441
 30
0.0
 11
6.901817091751
 21
4.672535206583
 31
0.0
  0
ENDSEC
  0
SECTION
  2
OBJECTS
  0
DICTIONARY
  5
C
100
AcDbDictionary
280
           0
281
           1
  3
ACAD_GROUP
350
D
  3
ACAD_MLINESTYLE
350
1A
  3
ACDBVARIABLEDICTIONARY
350
33
  3
ACAD_LAYOUT
350
36E
  3
ACAD_PLOTSETTINGS
350
372
  3
ACAD_PLOTSTYLENAME
350
36F
  3
ACAD_WIPEOUT_VARS
350
373
  0
DICTIONARY
  5
D
102
{ACAD_REACTORS
330
C
102
}
100
AcDbDictionary
280
           0
281
           1
  0
DICTIONARY
  5
1A
102
{ACAD_REACTORS
330
C
102
}
100
AcDbDictionary
280
           0
281
           1
  3
STANDARD
350
1B
  0
MLINESTYLE
  5
1B
102
{ACAD_REACTORS
330
1A
102
}
100
AcDbMlineStyle
  2
Standard
 70
           0
  3

 62
         256
 51
90.0
 52
90.0
 71
           2
 49
0.5
 62
         256
  6
ByLayer
 49
-0.5
 62
         256
  6
ByLayer
  0
ACDBDICTIONARYWDFLT
  5
36F
102
{ACAD_REACTORS
330
C
102
}
100
AcDbDictionary
281
           1
  3
NORMAL
350
36D
100
AcDbDictionaryWithDefault
340
36D
  0
ACDBPLACEHOLDER
  5
36D
102
{ACAD_REACTORS
330
36F
102
}
  0
LAYOUT
  5
370
102
{ACAD_REACTORS
330
36E
102
}
100
AcDbPlotSettings
  1

  2

  4

  6

 40
0.0
 41
0.0
 42
0.0
 43
0.0
 44
0.0
 45
0.0
 46
0.0
 47
0.0
 48
0.0
 49
0.0
140
0.0
141
0.0
142
0.0
143
0.0
 70
           0
 72
           0
 73
           0
 74
           1
  7

 75
           0
147
1.0
148
0.0
149
0.0
100
AcDbLayout
  1
MODEL
 70
           0
 71
           0
 10
0.0
 20
0.0
 11
0.0
 21
0.0
 12
0.0
 22
0.0
 32
0.0
 14
0.0
 24
0.0
 34
0.0
 15
0.0
 25
0.0
 35
0.0
146
0.0
 13
0.0
 23
0.0
 33
0.0
 16
0.0
 26
0.0
 36
0.0
 17
0.0
 27
0.0
 37
0.0
 76
           0
330
17
331
0
345
0
346
0
  0
LAYOUT
  5
371
102
{ACAD_REACTORS
330
36E
102
}
100
AcDbPlotSettings
  1

  2

  4

  6

 40
0.0
 41
0.0
 42
0.0
 43
0.0
 44
0.0
 45
0.0
 46
0.0
 47
0.0
 48
0.0
 49
0.0
140
0.0
141
0.0
142
1.0
143
1.0
 70
           0
 72
           0
 73
           0
 74
           0
  7

 75
           0
147
1.0
148
0.0
149
0.0
100
AcDbLayout
  1
LAYOUT1
 70
           0
 71
           0
 10
0.0
 20
0.0
 11
0.0
 21
0.0
 12
0.0
 22
0.0
 32
0.0
 14
0.0
 24
0.0
 34
0.0
 15
0.0
 25
0.0
 35
0.0
146
0.0
 13
0.0
 23
0.0
 33
0.0
 16
0.0
 26
0.0
 36
0.0
 17
0.0
 27
0.0
 37
0.0
 76
           0
330
14
331
0
345
0
346
0
  0
DICTIONARY
  5
36E
102
{ACAD_REACTORS
330
C
102
}
100
AcDbDictionary
280
           0
281
           1
  3
MODEL
350
370
  3
LAYOUT1
350
371
  0
DICTIONARY
  5
372
102
{ACAD_REACTORS
330
C
102
}
100
AcDbDictionary
280
           0
281
           1
  0
WIPEOUTVARIABLES
  5
373
100
AcDbWipeoutVariables
 70
           1
  0
DICTIONARY
  5
33
102
{ACAD_REACTORS
330
C
102
}
100
AcDbDictionary
280
           0
281
           1
  0
ENDSEC
  0
EOF
