ISO-10303-21;
HEADER;
FILE_DESCRIPTION (( 'STEP AP203' ),
    '1' );
FILE_NAME ('Web Model 84455_47199.step',
    '2017-04-03T16:44:58',
    ( '' ),
    ( '' ),
    'SwSTEP 2.0',
    'SolidWorks 2016',
    '' );
FILE_SCHEMA (( 'CONFIG_CONTROL_DESIGN' ));
ENDSEC;

DATA;
#1 = CC_DESIGN_PERSON_AND_ORGANIZATION_ASSIGNMENT ( #129, #174, ( #131 ) ) ;
#2 = APPLICATION_PROTOCOL_DEFINITION ( 'international standard', 'config_control_design', 1994, #119 ) ;
#3 = CARTESIAN_POINT ( 'NONE',  ( -12.50000000000000000, 0.0000000000000000000, 0.0000000000000000000 ) ) ;
#4 = EDGE_CURVE ( 'NONE', #126, #159, #48, .T. ) ;
#5 = LINE ( 'NONE', #104, #108 ) ;
#6 = SECURITY_CLASSIFICATION ( '', '', #155 ) ;
#7 = CARTESIAN_POINT ( 'NONE',  ( 0.0000000000000000000, 0.0000000000000000000, 0.0000000000000000000 ) ) ;
#8 = AXIS2_PLACEMENT_3D ( 'NONE', #46, #77, #66 ) ;
#9 = APPROVAL_STATUS ( 'not_yet_approved' ) ;
#10 = EDGE_CURVE ( 'NONE', #166, #156, #93, .T. ) ;
#11 = CC_DESIGN_APPROVAL ( #148, ( #6 ) ) ;
#12 = PERSON_AND_ORGANIZATION_ROLE ( 'creator' ) ;
#13 = PERSON_AND_ORGANIZATION_ROLE ( 'creator' ) ;
#14 = ORIENTED_EDGE ( 'NONE', *, *, #39, .T. ) ;
#15 = DIRECTION ( 'NONE',  ( 0.0000000000000000000, 0.0000000000000000000, 1.000000000000000000 ) ) ;
#16 = COORDINATED_UNIVERSAL_TIME_OFFSET ( 5, 0, .BEHIND. ) ;
#17 = ORIENTED_EDGE ( 'NONE', *, *, #10, .T. ) ;
#18 = DATE_AND_TIME ( #86, #64 ) ;
#19 = ORIENTED_EDGE ( 'NONE', *, *, #37, .F. ) ;
#20 = LOCAL_TIME ( 12, 44, 58.00000000000000000, #51 ) ;
#21 = AXIS2_PLACEMENT_3D ( 'NONE', #23, #30, #44 ) ;
#22 = CARTESIAN_POINT ( 'NONE',  ( 0.0000000000000000000, 0.0000000000000000000, 3.000000000000000000 ) ) ;
#23 = CARTESIAN_POINT ( 'NONE',  ( 0.0000000000000000000, 0.0000000000000000000, 0.0000000000000000000 ) ) ;
#24 = CARTESIAN_POINT ( 'NONE',  ( 0.0000000000000000000, 0.0000000000000000000, 3.000000000000000000 ) ) ;
#25 = APPROVAL_DATE_TIME ( #61, #124 ) ;
#26 = EDGE_LOOP ( 'NONE', ( #14, #28 ) ) ;
#27 = CC_DESIGN_PERSON_AND_ORGANIZATION_ASSIGNMENT ( #94, #165, ( #6 ) ) ;
#28 = ORIENTED_EDGE ( 'NONE', *, *, #4, .T. ) ;
#29 = APPROVAL_PERSON_ORGANIZATION ( #65, #124, #76 ) ;
#30 = DIRECTION ( 'NONE',  ( 0.0000000000000000000, 0.0000000000000000000, 1.000000000000000000 ) ) ;
#31 = CYLINDRICAL_SURFACE ( 'NONE', #106, 12.50000000000000000 ) ;
#32 = DIRECTION ( 'NONE',  ( 1.000000000000000000, 0.0000000000000000000, -0.0000000000000000000 ) ) ;
#33 = APPROVAL_PERSON_ORGANIZATION ( #175, #157, #132 ) ;
#34 = DIRECTION ( 'NONE',  ( -1.000000000000000000, 0.0000000000000000000, 0.0000000000000000000 ) ) ;
#35 = DIRECTION ( 'NONE',  ( 1.000000000000000000, 0.0000000000000000000, 0.0000000000000000000 ) ) ;
#36 = CLOSED_SHELL ( 'NONE', ( #82, #68, #57, #59 ) ) ;
#37 = EDGE_CURVE ( 'NONE', #156, #166, #135, .T. ) ;
#38 = CYLINDRICAL_SURFACE ( 'NONE', #103, 12.50000000000000000 ) ;
#39 = EDGE_CURVE ( 'NONE', #159, #126, #78, .T. ) ;
#40 = AXIS2_PLACEMENT_3D ( 'NONE', #7, #90, #35 ) ;
#41 = DIRECTION ( 'NONE',  ( -0.0000000000000000000, -0.0000000000000000000, -1.000000000000000000 ) ) ;
#42 = CC_DESIGN_DATE_AND_TIME_ASSIGNMENT ( #125, #152, ( #6 ) ) ;
#43 = APPROVAL_DATE_TIME ( #84, #148 ) ;
#44 = DIRECTION ( 'NONE',  ( 1.000000000000000000, 0.0000000000000000000, 0.0000000000000000000 ) ) ;
#45 = PERSON_AND_ORGANIZATION_ROLE ( 'design_owner' ) ;
#46 = CARTESIAN_POINT ( 'NONE',  ( 0.0000000000000000000, 0.0000000000000000000, 0.0000000000000000000 ) ) ;
#47 = EDGE_LOOP ( 'NONE', ( #63, #50, #114, #17 ) ) ;
#48 = CIRCLE ( 'NONE', #150, 12.50000000000000000 ) ;
#49 = APPROVAL_PERSON_ORGANIZATION ( #88, #148, #127 ) ;
#50 = ORIENTED_EDGE ( 'NONE', *, *, #39, .F. ) ;
#51 = COORDINATED_UNIVERSAL_TIME_OFFSET ( 5, 0, .BEHIND. ) ;
#52 = PRODUCT_RELATED_PRODUCT_CATEGORY ( 'detail', '', ( #128 ) ) ;
#53 = ORIENTED_EDGE ( 'NONE', *, *, #102, .T. ) ;
#54 = ORIENTED_EDGE ( 'NONE', *, *, #37, .T. ) ;
#55 = DIRECTION ( 'NONE',  ( 1.000000000000000000, 0.0000000000000000000, 0.0000000000000000000 ) ) ;
#56 = UNCERTAINTY_MEASURE_WITH_UNIT (LENGTH_MEASURE( 1.000000000000000100E-005 ), #74, 'distance_accuracy_value', 'NONE');
#57 = ADVANCED_FACE ( 'NONE', ( #101 ), #139, .T. ) ;
#58 = APPROVAL_STATUS ( 'not_yet_approved' ) ;
#59 = ADVANCED_FACE ( 'NONE', ( #160 ), #170, .F. ) ;
#60 = DIRECTION ( 'NONE',  ( 0.0000000000000000000, 0.0000000000000000000, 1.000000000000000000 ) ) ;
#61 = DATE_AND_TIME ( #100, #133 ) ;
#62 = DESIGN_CONTEXT ( 'detailed design', #91, 'design' ) ;
#63 = ORIENTED_EDGE ( 'NONE', *, *, #102, .F. ) ;
#64 = LOCAL_TIME ( 12, 44, 58.00000000000000000, #151 ) ;
#65 = PERSON_AND_ORGANIZATION ( #115, #118 ) ;
#66 = DIRECTION ( 'NONE',  ( 1.000000000000000000, 0.0000000000000000000, 0.0000000000000000000 ) ) ;
#67 = DIRECTION ( 'NONE',  ( -0.0000000000000000000, -0.0000000000000000000, -1.000000000000000000 ) ) ;
#68 = ADVANCED_FACE ( 'NONE', ( #96 ), #38, .T. ) ;
#69 = CC_DESIGN_PERSON_AND_ORGANIZATION_ASSIGNMENT ( #163, #13, ( #131 ) ) ;
#70 = APPLICATION_PROTOCOL_DEFINITION ( 'international standard', 'config_control_design', 1994, #91 ) ;
#71 = CARTESIAN_POINT ( 'NONE',  ( 12.50000000000000000, 1.530808498934191500E-015, 3.000000000000000000 ) ) ;
#72 = ADVANCED_BREP_SHAPE_REPRESENTATION ( 'Web Model 84455_47199', ( #110, #8 ), #92 ) ;
#73 = COORDINATED_UNIVERSAL_TIME_OFFSET ( 5, 0, .BEHIND. ) ;
#74 =( LENGTH_UNIT ( ) NAMED_UNIT ( * ) SI_UNIT ( .MILLI., .METRE. ) );
#75 = DIRECTION ( 'NONE',  ( -1.000000000000000000, 0.0000000000000000000, 0.0000000000000000000 ) ) ;
#76 = APPROVAL_ROLE ( '' ) ;
#77 = DIRECTION ( 'NONE',  ( 0.0000000000000000000, 0.0000000000000000000, 1.000000000000000000 ) ) ;
#78 = CIRCLE ( 'NONE', #140, 12.50000000000000000 ) ;
#79 = PRODUCT_DEFINITION_SHAPE ( 'NONE', 'NONE',  #161 ) ;
#80 = EDGE_LOOP ( 'NONE', ( #81, #53, #54, #113 ) ) ;
#81 = ORIENTED_EDGE ( 'NONE', *, *, #4, .F. ) ;
#82 = ADVANCED_FACE ( 'NONE', ( #134 ), #31, .T. ) ;
#83 = AXIS2_PLACEMENT_3D ( 'NONE', #145, #147, #32 ) ;
#84 = DATE_AND_TIME ( #120, #153 ) ;
#85 = DIRECTION ( 'NONE',  ( -0.0000000000000000000, -0.0000000000000000000, -1.000000000000000000 ) ) ;
#86 = CALENDAR_DATE ( 2017, 3, 4 ) ;
#87 = CARTESIAN_POINT ( 'NONE',  ( 12.50000000000000000, 1.530808498934191500E-015, 0.0000000000000000000 ) ) ;
#88 = PERSON_AND_ORGANIZATION ( #115, #118 ) ;
#89 = DIRECTION ( 'NONE',  ( 0.0000000000000000000, 0.0000000000000000000, 1.000000000000000000 ) ) ;
#90 = DIRECTION ( 'NONE',  ( 0.0000000000000000000, 0.0000000000000000000, 1.000000000000000000 ) ) ;
#91 = APPLICATION_CONTEXT ( 'configuration controlled 3d designs of mechanical parts and assemblies' ) ;
#92 =( GEOMETRIC_REPRESENTATION_CONTEXT ( 3 ) GLOBAL_UNCERTAINTY_ASSIGNED_CONTEXT ( ( #56 ) ) GLOBAL_UNIT_ASSIGNED_CONTEXT ( ( #74, #107, #167 ) ) REPRESENTATION_CONTEXT ( 'NONE', 'WORKASPACE' ) );
#93 = CIRCLE ( 'NONE', #21, 12.50000000000000000 ) ;
#94 = PERSON_AND_ORGANIZATION ( #115, #118 ) ;
#95 = AXIS2_PLACEMENT_3D ( 'NONE', #116, #89, #154 ) ;
#96 = FACE_OUTER_BOUND ( 'NONE', #47, .T. ) ;
#97 = CARTESIAN_POINT ( 'NONE',  ( 12.50000000000000000, 1.530808498934191500E-015, 3.000000000000000000 ) ) ;
#98 = APPROVAL_STATUS ( 'not_yet_approved' ) ;
#99 = LINE ( 'NONE', #71, #171 ) ;
#100 = CALENDAR_DATE ( 2017, 3, 4 ) ;
#101 = FACE_OUTER_BOUND ( 'NONE', #26, .T. ) ;
#102 = EDGE_CURVE ( 'NONE', #126, #156, #99, .T. ) ;
#103 = AXIS2_PLACEMENT_3D ( 'NONE', #24, #130, #75 ) ;
#104 = CARTESIAN_POINT ( 'NONE',  ( -12.50000000000000000, 0.0000000000000000000, 3.000000000000000000 ) ) ;
#105 = DATE_AND_TIME ( #173, #138 ) ;
#106 = AXIS2_PLACEMENT_3D ( 'NONE', #149, #67, #34 ) ;
#107 =( NAMED_UNIT ( * ) PLANE_ANGLE_UNIT ( ) SI_UNIT ( $, .RADIAN. ) );
#108 = VECTOR ( 'NONE', #41, 1000.000000000000000 ) ;
#109 = PERSON_AND_ORGANIZATION ( #115, #118 ) ;
#110 = MANIFOLD_SOLID_BREP ( 'Extrude1', #36 ) ;
#111 = EDGE_CURVE ( 'NONE', #159, #166, #5, .T. ) ;
#112 = EDGE_LOOP ( 'NONE', ( #122, #19 ) ) ;
#113 = ORIENTED_EDGE ( 'NONE', *, *, #111, .F. ) ;
#114 = ORIENTED_EDGE ( 'NONE', *, *, #111, .T. ) ;
#115 = PERSON ( 'UNSPECIFIED', 'UNSPECIFIED', 'UNSPECIFIED', ('UNSPECIFIED'), ('UNSPECIFIED'), ('UNSPECIFIED') ) ;
#116 = CARTESIAN_POINT ( 'NONE',  ( 0.0000000000000000000, 0.0000000000000000000, 0.0000000000000000000 ) ) ;
#117 = MECHANICAL_CONTEXT ( 'NONE', #119, 'mechanical' ) ;
#118 = ORGANIZATION ( 'UNSPECIFIED', 'UNSPECIFIED', '' ) ;
#119 = APPLICATION_CONTEXT ( 'configuration controlled 3d designs of mechanical parts and assemblies' ) ;
#120 = CALENDAR_DATE ( 2017, 3, 4 ) ;
#121 = CC_DESIGN_APPROVAL ( #124, ( #131 ) ) ;
#122 = ORIENTED_EDGE ( 'NONE', *, *, #10, .F. ) ;
#123 = APPROVAL_DATE_TIME ( #18, #157 ) ;
#124 = APPROVAL ( #9, 'UNSPECIFIED' ) ;
#125 = DATE_AND_TIME ( #158, #20 ) ;
#126 = VERTEX_POINT ( 'NONE', #97 ) ;
#127 = APPROVAL_ROLE ( '' ) ;
#128 = PRODUCT ( 'Web Model 84455_47199', 'Web Model 84455_47199', '', ( #117 ) ) ;
#129 = PERSON_AND_ORGANIZATION ( #115, #118 ) ;
#130 = DIRECTION ( 'NONE',  ( -0.0000000000000000000, -0.0000000000000000000, -1.000000000000000000 ) ) ;
#131 = PRODUCT_DEFINITION_FORMATION_WITH_SPECIFIED_SOURCE ( 'ANY', '', #128, .NOT_KNOWN. ) ;
#132 = APPROVAL_ROLE ( '' ) ;
#133 = LOCAL_TIME ( 12, 44, 58.00000000000000000, #168 ) ;
#134 = FACE_OUTER_BOUND ( 'NONE', #80, .T. ) ;
#135 = CIRCLE ( 'NONE', #40, 12.50000000000000000 ) ;
#136 = CC_DESIGN_DATE_AND_TIME_ASSIGNMENT ( #105, #172, ( #161 ) ) ;
#137 = CC_DESIGN_PERSON_AND_ORGANIZATION_ASSIGNMENT ( #142, #12, ( #161 ) ) ;
#138 = LOCAL_TIME ( 12, 44, 58.00000000000000000, #73 ) ;
#139 = PLANE ( 'NONE',  #83 ) ;
#140 = AXIS2_PLACEMENT_3D ( 'NONE', #22, #15, #55 ) ;
#141 = DIRECTION ( 'NONE',  ( 1.000000000000000000, 0.0000000000000000000, 0.0000000000000000000 ) ) ;
#142 = PERSON_AND_ORGANIZATION ( #115, #118 ) ;
#143 = CC_DESIGN_APPROVAL ( #157, ( #161 ) ) ;
#144 = CARTESIAN_POINT ( 'NONE',  ( 0.0000000000000000000, 0.0000000000000000000, 3.000000000000000000 ) ) ;
#145 = CARTESIAN_POINT ( 'NONE',  ( 0.0000000000000000000, 0.0000000000000000000, 3.000000000000000000 ) ) ;
#146 = CC_DESIGN_SECURITY_CLASSIFICATION ( #6, ( #131 ) ) ;
#147 = DIRECTION ( 'NONE',  ( 0.0000000000000000000, 0.0000000000000000000, 1.000000000000000000 ) ) ;
#148 = APPROVAL ( #98, 'UNSPECIFIED' ) ;
#149 = CARTESIAN_POINT ( 'NONE',  ( 0.0000000000000000000, 0.0000000000000000000, 3.000000000000000000 ) ) ;
#150 = AXIS2_PLACEMENT_3D ( 'NONE', #144, #60, #141 ) ;
#151 = COORDINATED_UNIVERSAL_TIME_OFFSET ( 5, 0, .BEHIND. ) ;
#152 = DATE_TIME_ROLE ( 'classification_date' ) ;
#153 = LOCAL_TIME ( 12, 44, 58.00000000000000000, #16 ) ;
#154 = DIRECTION ( 'NONE',  ( 1.000000000000000000, 0.0000000000000000000, -0.0000000000000000000 ) ) ;
#155 = SECURITY_CLASSIFICATION_LEVEL ( 'unclassified' ) ;
#156 = VERTEX_POINT ( 'NONE', #87 ) ;
#157 = APPROVAL ( #58, 'UNSPECIFIED' ) ;
#158 = CALENDAR_DATE ( 2017, 3, 4 ) ;
#159 = VERTEX_POINT ( 'NONE', #169 ) ;
#160 = FACE_OUTER_BOUND ( 'NONE', #112, .T. ) ;
#161 = PRODUCT_DEFINITION ( 'UNKNOWN', '', #131, #62 ) ;
#162 = CC_DESIGN_PERSON_AND_ORGANIZATION_ASSIGNMENT ( #109, #45, ( #128 ) ) ;
#163 = PERSON_AND_ORGANIZATION ( #115, #118 ) ;
#164 = SHAPE_DEFINITION_REPRESENTATION ( #79, #72 ) ;
#165 = PERSON_AND_ORGANIZATION_ROLE ( 'classification_officer' ) ;
#166 = VERTEX_POINT ( 'NONE', #3 ) ;
#167 =( NAMED_UNIT ( * ) SI_UNIT ( $, .STERADIAN. ) SOLID_ANGLE_UNIT ( ) );
#168 = COORDINATED_UNIVERSAL_TIME_OFFSET ( 5, 0, .BEHIND. ) ;
#169 = CARTESIAN_POINT ( 'NONE',  ( -12.50000000000000000, 0.0000000000000000000, 3.000000000000000000 ) ) ;
#170 = PLANE ( 'NONE',  #95 ) ;
#171 = VECTOR ( 'NONE', #85, 1000.000000000000000 ) ;
#172 = DATE_TIME_ROLE ( 'creation_date' ) ;
#173 = CALENDAR_DATE ( 2017, 3, 4 ) ;
#174 = PERSON_AND_ORGANIZATION_ROLE ( 'design_supplier' ) ;
#175 = PERSON_AND_ORGANIZATION ( #115, #118 ) ;
ENDSEC;
END-ISO-10303-21;
