ISO-10303-21;
HEADER;
FILE_DESCRIPTION (( 'STEP AP203' ),
    '1' );
FILE_NAME ('Web Model 49621_13313.step',
    '2020-11-03T21:58:43',
    ( '' ),
    ( '' ),
    'SwSTEP 2.0',
    'SolidWorks 2018',
    '' );
FILE_SCHEMA (( 'CONFIG_CONTROL_DESIGN' ));
ENDSEC;

DATA;
#1 = LINE ( 'NONE', #135, #156 ) ;
#2 = FACE_OUTER_BOUND ( 'NONE', #128, .T. ) ;
#3 = PERSON_AND_ORGANIZATION ( #57, #159 ) ;
#4 = VERTEX_POINT ( 'NONE', #11 ) ;
#5 = SECURITY_CLASSIFICATION ( '', '', #120 ) ;
#6 = APPROVAL_DATE_TIME ( #207, #232 ) ;
#7 = DIRECTION ( 'NONE',  ( 0.0000000000000000000, 0.0000000000000000000, 1.000000000000000000 ) ) ;
#8 = PERSON_AND_ORGANIZATION ( #57, #159 ) ;
#9 = AXIS2_PLACEMENT_3D ( 'NONE', #165, #230, #149 ) ;
#10 = ORIENTED_EDGE ( 'NONE', *, *, #144, .T. ) ;
#11 = CARTESIAN_POINT ( 'NONE',  ( 6.250000000000000000, -6.250000000000000000, 0.0000000000000000000 ) ) ;
#12 = CARTESIAN_POINT ( 'NONE',  ( 6.250000000000000000, 6.250000000000000000, 3.000000000000000000 ) ) ;
#13 = LINE ( 'NONE', #206, #20 ) ;
#14 = DATE_TIME_ROLE ( 'classification_date' ) ;
#15 =( NAMED_UNIT ( * ) SI_UNIT ( $, .STERADIAN. ) SOLID_ANGLE_UNIT ( ) );
#16 = VERTEX_POINT ( 'NONE', #152 ) ;
#17 = CC_DESIGN_DATE_AND_TIME_ASSIGNMENT ( #161, #14, ( #5 ) ) ;
#18 = DATE_AND_TIME ( #27, #103 ) ;
#19 = EDGE_CURVE ( 'NONE', #221, #4, #41, .T. ) ;
#20 = VECTOR ( 'NONE', #189, 1000.000000000000000 ) ;
#21 = EDGE_LOOP ( 'NONE', ( #84, #173, #52, #228 ) ) ;
#22 = PRODUCT_DEFINITION_SHAPE ( 'NONE', 'NONE',  #160 ) ;
#23 = ORIENTED_EDGE ( 'NONE', *, *, #123, .F. ) ;
#24 = CC_DESIGN_PERSON_AND_ORGANIZATION_ASSIGNMENT ( #8, #85, ( #100 ) ) ;
#25 = EDGE_CURVE ( 'NONE', #91, #30, #182, .T. ) ;
#26 = DIRECTION ( 'NONE',  ( 0.0000000000000000000, -0.0000000000000000000, 1.000000000000000000 ) ) ;
#27 = CALENDAR_DATE ( 2020, 3, 11 ) ;
#28 = VECTOR ( 'NONE', #188, 1000.000000000000000 ) ;
#29 = DIRECTION ( 'NONE',  ( 1.000000000000000000, 0.0000000000000000000, 0.0000000000000000000 ) ) ;
#30 = VERTEX_POINT ( 'NONE', #42 ) ;
#31 = DIRECTION ( 'NONE',  ( -1.000000000000000000, -0.0000000000000000000, -0.0000000000000000000 ) ) ;
#32 = APPROVAL_ROLE ( '' ) ;
#33 = DIRECTION ( 'NONE',  ( 1.000000000000000000, 0.0000000000000000000, -0.0000000000000000000 ) ) ;
#34 = LINE ( 'NONE', #148, #140 ) ;
#35 = EDGE_LOOP ( 'NONE', ( #211, #196, #162, #122 ) ) ;
#36 = CALENDAR_DATE ( 2020, 3, 11 ) ;
#37 = ADVANCED_FACE ( 'NONE', ( #104 ), #62, .F. ) ;
#38 = COORDINATED_UNIVERSAL_TIME_OFFSET ( 5, 0, .BEHIND. ) ;
#39 = CARTESIAN_POINT ( 'NONE',  ( -6.250000000000000000, 6.250000000000000000, 0.0000000000000000000 ) ) ;
#40 = FACE_OUTER_BOUND ( 'NONE', #200, .T. ) ;
#41 = LINE ( 'NONE', #166, #215 ) ;
#42 = CARTESIAN_POINT ( 'NONE',  ( -6.250000000000000000, 6.250000000000000000, 0.0000000000000000000 ) ) ;
#43 = AXIS2_PLACEMENT_3D ( 'NONE', #87, #45, #213 ) ;
#44 = DIRECTION ( 'NONE',  ( 0.0000000000000000000, -1.000000000000000000, 0.0000000000000000000 ) ) ;
#45 = DIRECTION ( 'NONE',  ( 0.0000000000000000000, 0.0000000000000000000, 1.000000000000000000 ) ) ;
#46 = COORDINATED_UNIVERSAL_TIME_OFFSET ( 5, 0, .BEHIND. ) ;
#47 = APPROVAL_ROLE ( '' ) ;
#48 = PLANE ( 'NONE',  #118 ) ;
#49 = LINE ( 'NONE', #93, #99 ) ;
#50 = APPROVAL_PERSON_ORGANIZATION ( #3, #232, #47 ) ;
#51 = PERSON_AND_ORGANIZATION ( #57, #159 ) ;
#52 = ORIENTED_EDGE ( 'NONE', *, *, #210, .F. ) ;
#53 = AXIS2_PLACEMENT_3D ( 'NONE', #80, #63, #26 ) ;
#54 = APPROVAL_DATE_TIME ( #98, #97 ) ;
#55 = ADVANCED_FACE ( 'NONE', ( #204 ), #79, .T. ) ;
#56 = CALENDAR_DATE ( 2020, 3, 11 ) ;
#57 = PERSON ( 'UNSPECIFIED', 'UNSPECIFIED', 'UNSPECIFIED', ('UNSPECIFIED'), ('UNSPECIFIED'), ('UNSPECIFIED') ) ;
#58 = DIRECTION ( 'NONE',  ( 0.0000000000000000000, -1.000000000000000000, 0.0000000000000000000 ) ) ;
#59 = FACE_OUTER_BOUND ( 'NONE', #75, .T. ) ;
#60 = ORIENTED_EDGE ( 'NONE', *, *, #157, .F. ) ;
#61 = CARTESIAN_POINT ( 'NONE',  ( 6.250000000000000000, 6.250000000000000000, 3.000000000000000000 ) ) ;
#62 = PLANE ( 'NONE',  #53 ) ;
#63 = DIRECTION ( 'NONE',  ( 0.0000000000000000000, 1.000000000000000000, 0.0000000000000000000 ) ) ;
#64 = CARTESIAN_POINT ( 'NONE',  ( 6.250000000000000000, 6.250000000000000000, 3.000000000000000000 ) ) ;
#65 = LOCAL_TIME ( 16, 58, 43.00000000000000000, #94 ) ;
#66 = APPROVAL_PERSON_ORGANIZATION ( #111, #110, #32 ) ;
#67 = PERSON_AND_ORGANIZATION ( #57, #159 ) ;
#68 = CARTESIAN_POINT ( 'NONE',  ( 6.250000000000000000, 6.250000000000000000, 0.0000000000000000000 ) ) ;
#69 = VERTEX_POINT ( 'NONE', #227 ) ;
#70 = APPROVAL_STATUS ( 'not_yet_approved' ) ;
#71 = ORIENTED_EDGE ( 'NONE', *, *, #216, .T. ) ;
#72 = MANIFOLD_SOLID_BREP ( 'Extrude1', #224 ) ;
#73 = PERSON_AND_ORGANIZATION ( #57, #159 ) ;
#74 = ORIENTED_EDGE ( 'NONE', *, *, #174, .T. ) ;
#75 = EDGE_LOOP ( 'NONE', ( #10, #167, #171, #134 ) ) ;
#76 = CC_DESIGN_APPROVAL ( #232, ( #160 ) ) ;
#77 = VERTEX_POINT ( 'NONE', #61 ) ;
#78 = CARTESIAN_POINT ( 'NONE',  ( -6.250000000000000000, 6.250000000000000000, 3.000000000000000000 ) ) ;
#79 = PLANE ( 'NONE',  #219 ) ;
#80 = CARTESIAN_POINT ( 'NONE',  ( -6.250000000000000000, -6.250000000000000000, 3.000000000000000000 ) ) ;
#81 = DIRECTION ( 'NONE',  ( -1.000000000000000000, 0.0000000000000000000, 0.0000000000000000000 ) ) ;
#82 = DIRECTION ( 'NONE',  ( -0.0000000000000000000, -0.0000000000000000000, -1.000000000000000000 ) ) ;
#83 = PERSON_AND_ORGANIZATION_ROLE ( 'creator' ) ;
#84 = ORIENTED_EDGE ( 'NONE', *, *, #144, .F. ) ;
#85 = PERSON_AND_ORGANIZATION_ROLE ( 'design_supplier' ) ;
#86 = PERSON_AND_ORGANIZATION_ROLE ( 'creator' ) ;
#87 = CARTESIAN_POINT ( 'NONE',  ( 0.0000000000000000000, 0.0000000000000000000, 0.0000000000000000000 ) ) ;
#88 = ORIENTED_EDGE ( 'NONE', *, *, #106, .T. ) ;
#89 = CC_DESIGN_PERSON_AND_ORGANIZATION_ASSIGNMENT ( #109, #83, ( #160 ) ) ;
#90 = VECTOR ( 'NONE', #82, 1000.000000000000000 ) ;
#91 = VERTEX_POINT ( 'NONE', #116 ) ;
#92 = DATE_AND_TIME ( #147, #199 ) ;
#93 = CARTESIAN_POINT ( 'NONE',  ( -6.250000000000000000, -6.250000000000000000, 3.000000000000000000 ) ) ;
#94 = COORDINATED_UNIVERSAL_TIME_OFFSET ( 5, 0, .BEHIND. ) ;
#95 = VECTOR ( 'NONE', #29, 1000.000000000000000 ) ;
#96 = DIRECTION ( 'NONE',  ( 1.000000000000000000, 0.0000000000000000000, 0.0000000000000000000 ) ) ;
#97 = APPROVAL ( #154, 'UNSPECIFIED' ) ;
#98 = DATE_AND_TIME ( #36, #65 ) ;
#99 = VECTOR ( 'NONE', #225, 1000.000000000000000 ) ;
#100 = PRODUCT_DEFINITION_FORMATION_WITH_SPECIFIED_SOURCE ( 'ANY', '', #181, .NOT_KNOWN. ) ;
#101 = DESIGN_CONTEXT ( 'detailed design', #212, 'design' ) ;
#102 = DATE_TIME_ROLE ( 'creation_date' ) ;
#103 = LOCAL_TIME ( 16, 58, 43.00000000000000000, #46 ) ;
#104 = FACE_OUTER_BOUND ( 'NONE', #35, .T. ) ;
#105 = APPLICATION_PROTOCOL_DEFINITION ( 'international standard', 'config_control_design', 1994, #212 ) ;
#106 = EDGE_CURVE ( 'NONE', #150, #69, #146, .T. ) ;
#107 = VECTOR ( 'NONE', #139, 1000.000000000000000 ) ;
#108 = SHAPE_DEFINITION_REPRESENTATION ( #22, #175 ) ;
#109 = PERSON_AND_ORGANIZATION ( #57, #159 ) ;
#110 = APPROVAL ( #70, 'UNSPECIFIED' ) ;
#111 = PERSON_AND_ORGANIZATION ( #57, #159 ) ;
#112 = ORIENTED_EDGE ( 'NONE', *, *, #25, .T. ) ;
#113 = ADVANCED_FACE ( 'NONE', ( #158 ), #185, .F. ) ;
#114 = DIRECTION ( 'NONE',  ( 1.000000000000000000, 0.0000000000000000000, 0.0000000000000000000 ) ) ;
#115 = DIRECTION ( 'NONE',  ( -0.0000000000000000000, 0.0000000000000000000, 1.000000000000000000 ) ) ;
#116 = CARTESIAN_POINT ( 'NONE',  ( 6.250000000000000000, 6.250000000000000000, 0.0000000000000000000 ) ) ;
#117 = DIRECTION ( 'NONE',  ( 0.0000000000000000000, -0.0000000000000000000, -1.000000000000000000 ) ) ;
#118 = AXIS2_PLACEMENT_3D ( 'NONE', #191, #33, #193 ) ;
#119 = CC_DESIGN_APPROVAL ( #110, ( #100 ) ) ;
#120 = SECURITY_CLASSIFICATION_LEVEL ( 'unclassified' ) ;
#121 = CARTESIAN_POINT ( 'NONE',  ( 6.250000000000000000, 6.250000000000000000, 3.000000000000000000 ) ) ;
#122 = ORIENTED_EDGE ( 'NONE', *, *, #183, .T. ) ;
#123 = EDGE_CURVE ( 'NONE', #77, #16, #176, .T. ) ;
#124 = ORIENTED_EDGE ( 'NONE', *, *, #178, .T. ) ;
#125 = CC_DESIGN_PERSON_AND_ORGANIZATION_ASSIGNMENT ( #73, #155, ( #181 ) ) ;
#126 = LOCAL_TIME ( 16, 58, 43.00000000000000000, #38 ) ;
#127 = EDGE_LOOP ( 'NONE', ( #218, #88, #74, #179 ) ) ;
#128 = EDGE_LOOP ( 'NONE', ( #112, #60, #23, #71 ) ) ;
#129 = AXIS2_PLACEMENT_3D ( 'NONE', #78, #58, #117 ) ;
#130 = VECTOR ( 'NONE', #31, 1000.000000000000000 ) ;
#131 = CARTESIAN_POINT ( 'NONE',  ( -6.250000000000000000, 6.250000000000000000, 3.000000000000000000 ) ) ;
#132 = ADVANCED_FACE ( 'NONE', ( #2 ), #133, .F. ) ;
#133 = PLANE ( 'NONE',  #129 ) ;
#134 = ORIENTED_EDGE ( 'NONE', *, *, #157, .T. ) ;
#135 = CARTESIAN_POINT ( 'NONE',  ( -6.250000000000000000, 6.250000000000000000, 0.0000000000000000000 ) ) ;
#136 = LINE ( 'NONE', #12, #143 ) ;
#137 = ORIENTED_EDGE ( 'NONE', *, *, #216, .F. ) ;
#138 = APPROVAL_ROLE ( '' ) ;
#139 = DIRECTION ( 'NONE',  ( -0.0000000000000000000, 1.000000000000000000, -0.0000000000000000000 ) ) ;
#140 = VECTOR ( 'NONE', #184, 1000.000000000000000 ) ;
#141 = ORIENTED_EDGE ( 'NONE', *, *, #174, .F. ) ;
#142 = CC_DESIGN_PERSON_AND_ORGANIZATION_ASSIGNMENT ( #51, #86, ( #100 ) ) ;
#143 = VECTOR ( 'NONE', #231, 1000.000000000000000 ) ;
#144 = EDGE_CURVE ( 'NONE', #30, #221, #1, .T. ) ;
#145 = APPROVAL_PERSON_ORGANIZATION ( #67, #97, #138 ) ;
#146 = LINE ( 'NONE', #151, #95 ) ;
#147 = CALENDAR_DATE ( 2020, 3, 11 ) ;
#148 = CARTESIAN_POINT ( 'NONE',  ( 6.250000000000000000, -6.250000000000000000, 3.000000000000000000 ) ) ;
#149 = DIRECTION ( 'NONE',  ( 1.000000000000000000, 0.0000000000000000000, 0.0000000000000000000 ) ) ;
#150 = VERTEX_POINT ( 'NONE', #203 ) ;
#151 = CARTESIAN_POINT ( 'NONE',  ( -6.250000000000000000, -6.250000000000000000, 3.000000000000000000 ) ) ;
#152 = CARTESIAN_POINT ( 'NONE',  ( -6.250000000000000000, 6.250000000000000000, 3.000000000000000000 ) ) ;
#153 =( GEOMETRIC_REPRESENTATION_CONTEXT ( 3 ) GLOBAL_UNCERTAINTY_ASSIGNED_CONTEXT ( ( #223 ) ) GLOBAL_UNIT_ASSIGNED_CONTEXT ( ( #235, #233, #15 ) ) REPRESENTATION_CONTEXT ( 'NONE', 'WORKASPACE' ) );
#154 = APPROVAL_STATUS ( 'not_yet_approved' ) ;
#155 = PERSON_AND_ORGANIZATION_ROLE ( 'design_owner' ) ;
#156 = VECTOR ( 'NONE', #44, 1000.000000000000000 ) ;
#157 = EDGE_CURVE ( 'NONE', #16, #30, #170, .T. ) ;
#158 = FACE_OUTER_BOUND ( 'NONE', #21, .T. ) ;
#159 = ORGANIZATION ( 'UNSPECIFIED', 'UNSPECIFIED', '' ) ;
#160 = PRODUCT_DEFINITION ( 'UNKNOWN', '', #100, #101 ) ;
#161 = DATE_AND_TIME ( #217, #126 ) ;
#162 = ORIENTED_EDGE ( 'NONE', *, *, #106, .F. ) ;
#163 = EDGE_CURVE ( 'NONE', #16, #150, #13, .T. ) ;
#164 = ADVANCED_FACE ( 'NONE', ( #40 ), #205, .F. ) ;
#165 = CARTESIAN_POINT ( 'NONE',  ( -6.250000000000000000, -6.250000000000000000, 0.0000000000000000000 ) ) ;
#166 = CARTESIAN_POINT ( 'NONE',  ( -6.250000000000000000, -6.250000000000000000, 0.0000000000000000000 ) ) ;
#167 = ORIENTED_EDGE ( 'NONE', *, *, #183, .F. ) ;
#168 = DIRECTION ( 'NONE',  ( -0.0000000000000000000, -0.0000000000000000000, -1.000000000000000000 ) ) ;
#169 = APPROVAL_STATUS ( 'not_yet_approved' ) ;
#170 = LINE ( 'NONE', #208, #202 ) ;
#171 = ORIENTED_EDGE ( 'NONE', *, *, #163, .F. ) ;
#172 = CARTESIAN_POINT ( 'NONE',  ( -6.250000000000000000, -6.250000000000000000, 0.0000000000000000000 ) ) ;
#173 = ORIENTED_EDGE ( 'NONE', *, *, #25, .F. ) ;
#174 = EDGE_CURVE ( 'NONE', #69, #77, #136, .T. ) ;
#175 = ADVANCED_BREP_SHAPE_REPRESENTATION ( 'Web Model 49621_13313', ( #72, #43 ), #153 ) ;
#176 = LINE ( 'NONE', #131, #130 ) ;
#177 = CC_DESIGN_PERSON_AND_ORGANIZATION_ASSIGNMENT ( #234, #236, ( #5 ) ) ;
#178 = EDGE_CURVE ( 'NONE', #69, #4, #34, .T. ) ;
#179 = ORIENTED_EDGE ( 'NONE', *, *, #123, .T. ) ;
#180 = APPROVAL_DATE_TIME ( #18, #110 ) ;
#181 = PRODUCT ( 'Web Model 49621_13313', 'Web Model 49621_13313', '', ( #192 ) ) ;
#182 = LINE ( 'NONE', #39, #28 ) ;
#183 = EDGE_CURVE ( 'NONE', #150, #221, #49, .T. ) ;
#184 = DIRECTION ( 'NONE',  ( -0.0000000000000000000, -0.0000000000000000000, -1.000000000000000000 ) ) ;
#185 = PLANE ( 'NONE',  #9 ) ;
#186 = LOCAL_TIME ( 16, 58, 43.00000000000000000, #190 ) ;
#187 = ORIENTED_EDGE ( 'NONE', *, *, #210, .T. ) ;
#188 = DIRECTION ( 'NONE',  ( -1.000000000000000000, -0.0000000000000000000, -0.0000000000000000000 ) ) ;
#189 = DIRECTION ( 'NONE',  ( 0.0000000000000000000, -1.000000000000000000, 0.0000000000000000000 ) ) ;
#190 = COORDINATED_UNIVERSAL_TIME_OFFSET ( 5, 0, .BEHIND. ) ;
#191 = CARTESIAN_POINT ( 'NONE',  ( -6.250000000000000000, 6.250000000000000000, 3.000000000000000000 ) ) ;
#192 = MECHANICAL_CONTEXT ( 'NONE', #195, 'mechanical' ) ;
#193 = DIRECTION ( 'NONE',  ( -0.0000000000000000000, 0.0000000000000000000, -1.000000000000000000 ) ) ;
#194 = LINE ( 'NONE', #68, #107 ) ;
#195 = APPLICATION_CONTEXT ( 'configuration controlled 3d designs of mechanical parts and assemblies' ) ;
#196 = ORIENTED_EDGE ( 'NONE', *, *, #178, .F. ) ;
#197 = COORDINATED_UNIVERSAL_TIME_OFFSET ( 5, 0, .BEHIND. ) ;
#198 = CC_DESIGN_DATE_AND_TIME_ASSIGNMENT ( #92, #102, ( #160 ) ) ;
#199 = LOCAL_TIME ( 16, 58, 43.00000000000000000, #197 ) ;
#200 = EDGE_LOOP ( 'NONE', ( #187, #137, #141, #124 ) ) ;
#201 = CC_DESIGN_APPROVAL ( #97, ( #5 ) ) ;
#202 = VECTOR ( 'NONE', #168, 1000.000000000000000 ) ;
#203 = CARTESIAN_POINT ( 'NONE',  ( -6.250000000000000000, -6.250000000000000000, 3.000000000000000000 ) ) ;
#204 = FACE_OUTER_BOUND ( 'NONE', #127, .T. ) ;
#205 = PLANE ( 'NONE',  #220 ) ;
#206 = CARTESIAN_POINT ( 'NONE',  ( -6.250000000000000000, 6.250000000000000000, 3.000000000000000000 ) ) ;
#207 = DATE_AND_TIME ( #56, #186 ) ;
#208 = CARTESIAN_POINT ( 'NONE',  ( -6.250000000000000000, 6.250000000000000000, 3.000000000000000000 ) ) ;
#209 = APPLICATION_PROTOCOL_DEFINITION ( 'international standard', 'config_control_design', 1994, #195 ) ;
#210 = EDGE_CURVE ( 'NONE', #4, #91, #194, .T. ) ;
#211 = ORIENTED_EDGE ( 'NONE', *, *, #19, .T. ) ;
#212 = APPLICATION_CONTEXT ( 'configuration controlled 3d designs of mechanical parts and assemblies' ) ;
#213 = DIRECTION ( 'NONE',  ( 1.000000000000000000, 0.0000000000000000000, 0.0000000000000000000 ) ) ;
#214 = PRODUCT_RELATED_PRODUCT_CATEGORY ( 'detail', '', ( #181 ) ) ;
#215 = VECTOR ( 'NONE', #114, 1000.000000000000000 ) ;
#216 = EDGE_CURVE ( 'NONE', #77, #91, #237, .T. ) ;
#217 = CALENDAR_DATE ( 2020, 3, 11 ) ;
#218 = ORIENTED_EDGE ( 'NONE', *, *, #163, .T. ) ;
#219 = AXIS2_PLACEMENT_3D ( 'NONE', #226, #115, #96 ) ;
#220 = AXIS2_PLACEMENT_3D ( 'NONE', #64, #81, #7 ) ;
#221 = VERTEX_POINT ( 'NONE', #172 ) ;
#222 = ADVANCED_FACE ( 'NONE', ( #59 ), #48, .F. ) ;
#223 = UNCERTAINTY_MEASURE_WITH_UNIT (LENGTH_MEASURE( 1.000000000000000082E-05 ), #235, 'distance_accuracy_value', 'NONE');
#224 = CLOSED_SHELL ( 'NONE', ( #222, #37, #164, #132, #55, #113 ) ) ;
#225 = DIRECTION ( 'NONE',  ( -0.0000000000000000000, -0.0000000000000000000, -1.000000000000000000 ) ) ;
#226 = CARTESIAN_POINT ( 'NONE',  ( -6.250000000000000000, -6.250000000000000000, 3.000000000000000000 ) ) ;
#227 = CARTESIAN_POINT ( 'NONE',  ( 6.250000000000000000, -6.250000000000000000, 3.000000000000000000 ) ) ;
#228 = ORIENTED_EDGE ( 'NONE', *, *, #19, .F. ) ;
#229 = CC_DESIGN_SECURITY_CLASSIFICATION ( #5, ( #100 ) ) ;
#230 = DIRECTION ( 'NONE',  ( -0.0000000000000000000, 0.0000000000000000000, 1.000000000000000000 ) ) ;
#231 = DIRECTION ( 'NONE',  ( -0.0000000000000000000, 1.000000000000000000, -0.0000000000000000000 ) ) ;
#232 = APPROVAL ( #169, 'UNSPECIFIED' ) ;
#233 =( NAMED_UNIT ( * ) PLANE_ANGLE_UNIT ( ) SI_UNIT ( $, .RADIAN. ) );
#234 = PERSON_AND_ORGANIZATION ( #57, #159 ) ;
#235 =( LENGTH_UNIT ( ) NAMED_UNIT ( * ) SI_UNIT ( .MILLI., .METRE. ) );
#236 = PERSON_AND_ORGANIZATION_ROLE ( 'classification_officer' ) ;
#237 = LINE ( 'NONE', #121, #90 ) ;
ENDSEC;
END-ISO-10303-21;
