ISO-10303-21;
HEADER;
FILE_DESCRIPTION (( 'STEP AP203' ),
    '1' );
FILE_NAME ('Web Model 36935_15801.step',
    '2020-11-03T21:43:56',
    ( '' ),
    ( '' ),
    'SwSTEP 2.0',
    'SolidWorks 2018',
    '' );
FILE_SCHEMA (( 'CONFIG_CONTROL_DESIGN' ));
ENDSEC;

DATA;
#1 = PERSON_AND_ORGANIZATION ( #147, #56 ) ;
#2 = COORDINATED_UNIVERSAL_TIME_OFFSET ( 5, 0, .BEHIND. ) ;
#3 = EDGE_LOOP ( 'NONE', ( #118, #144 ) ) ;
#4 = CC_DESIGN_SECURITY_CLASSIFICATION ( #173, ( #101 ) ) ;
#5 = CARTESIAN_POINT ( 'NONE',  ( 0.0000000000000000000, 0.0000000000000000000, 1.500000000000000000 ) ) ;
#6 = DIRECTION ( 'NONE',  ( 1.000000000000000000, 0.0000000000000000000, 0.0000000000000000000 ) ) ;
#7 = PRODUCT_RELATED_PRODUCT_CATEGORY ( 'detail', '', ( #117 ) ) ;
#8 = CARTESIAN_POINT ( 'NONE',  ( 0.0000000000000000000, 0.0000000000000000000, 1.500000000000000000 ) ) ;
#9 = APPLICATION_PROTOCOL_DEFINITION ( 'international standard', 'config_control_design', 1994, #58 ) ;
#10 = DATE_TIME_ROLE ( 'classification_date' ) ;
#11 = ORIENTED_EDGE ( 'NONE', *, *, #160, .T. ) ;
#12 = LINE ( 'NONE', #161, #48 ) ;
#13 = FACE_OUTER_BOUND ( 'NONE', #50, .T. ) ;
#14 = ORIENTED_EDGE ( 'NONE', *, *, #49, .T. ) ;
#15 = PRODUCT_DEFINITION ( 'UNKNOWN', '', #101, #116 ) ;
#16 = CARTESIAN_POINT ( 'NONE',  ( 37.50000000000000711, 4.592425496802575156E-15, 1.500000000000000000 ) ) ;
#17 = COORDINATED_UNIVERSAL_TIME_OFFSET ( 5, 0, .BEHIND. ) ;
#18 = VERTEX_POINT ( 'NONE', #80 ) ;
#19 =( NAMED_UNIT ( * ) SI_UNIT ( $, .STERADIAN. ) SOLID_ANGLE_UNIT ( ) );
#20 = DIRECTION ( 'NONE',  ( 0.0000000000000000000, 0.0000000000000000000, 1.000000000000000000 ) ) ;
#21 = CARTESIAN_POINT ( 'NONE',  ( 0.0000000000000000000, 0.0000000000000000000, 0.0000000000000000000 ) ) ;
#22 = APPROVAL_STATUS ( 'not_yet_approved' ) ;
#23 = LOCAL_TIME ( 16, 43, 56.00000000000000000, #17 ) ;
#24 = APPROVAL_PERSON_ORGANIZATION ( #159, #65, #54 ) ;
#25 = ADVANCED_FACE ( 'NONE', ( #13 ), #87, .T. ) ;
#26 = APPROVAL_DATE_TIME ( #86, #133 ) ;
#27 = CC_DESIGN_PERSON_AND_ORGANIZATION_ASSIGNMENT ( #162, #157, ( #15 ) ) ;
#28 = PLANE ( 'NONE',  #63 ) ;
#29 = EDGE_CURVE ( 'NONE', #112, #175, #135, .T. ) ;
#30 = DIRECTION ( 'NONE',  ( 1.000000000000000000, 0.0000000000000000000, 0.0000000000000000000 ) ) ;
#31 = APPROVAL_DATE_TIME ( #119, #106 ) ;
#32 =( NAMED_UNIT ( * ) PLANE_ANGLE_UNIT ( ) SI_UNIT ( $, .RADIAN. ) );
#33 = MECHANICAL_CONTEXT ( 'NONE', #154, 'mechanical' ) ;
#34 = CC_DESIGN_PERSON_AND_ORGANIZATION_ASSIGNMENT ( #1, #100, ( #117 ) ) ;
#35 = DATE_AND_TIME ( #36, #23 ) ;
#36 = CALENDAR_DATE ( 2020, 3, 11 ) ;
#37 = ORIENTED_EDGE ( 'NONE', *, *, #29, .F. ) ;
#38 = CC_DESIGN_PERSON_AND_ORGANIZATION_ASSIGNMENT ( #171, #46, ( #101 ) ) ;
#39 = ORIENTED_EDGE ( 'NONE', *, *, #132, .F. ) ;
#40 = CC_DESIGN_APPROVAL ( #65, ( #173 ) ) ;
#41 = CALENDAR_DATE ( 2020, 3, 11 ) ;
#42 = DIRECTION ( 'NONE',  ( -1.000000000000000000, 0.0000000000000000000, 0.0000000000000000000 ) ) ;
#43 = DIRECTION ( 'NONE',  ( 0.0000000000000000000, 0.0000000000000000000, 1.000000000000000000 ) ) ;
#44 = ORIENTED_EDGE ( 'NONE', *, *, #49, .F. ) ;
#45 = DIRECTION ( 'NONE',  ( 1.000000000000000000, 0.0000000000000000000, 0.0000000000000000000 ) ) ;
#46 = PERSON_AND_ORGANIZATION_ROLE ( 'creator' ) ;
#47 = CIRCLE ( 'NONE', #126, 37.50000000000000711 ) ;
#48 = VECTOR ( 'NONE', #95, 1000.000000000000000 ) ;
#49 = EDGE_CURVE ( 'NONE', #82, #18, #12, .T. ) ;
#50 = EDGE_LOOP ( 'NONE', ( #90, #14, #11, #37 ) ) ;
#51 = CC_DESIGN_DATE_AND_TIME_ASSIGNMENT ( #35, #109, ( #15 ) ) ;
#52 = ORIENTED_EDGE ( 'NONE', *, *, #132, .T. ) ;
#53 = LOCAL_TIME ( 16, 43, 56.00000000000000000, #77 ) ;
#54 = APPROVAL_ROLE ( '' ) ;
#55 = DIRECTION ( 'NONE',  ( 1.000000000000000000, 0.0000000000000000000, 0.0000000000000000000 ) ) ;
#56 = ORGANIZATION ( 'UNSPECIFIED', 'UNSPECIFIED', '' ) ;
#57 = ORIENTED_EDGE ( 'NONE', *, *, #29, .T. ) ;
#58 = APPLICATION_CONTEXT ( 'configuration controlled 3d designs of mechanical parts and assemblies' ) ;
#59 = UNCERTAINTY_MEASURE_WITH_UNIT (LENGTH_MEASURE( 1.000000000000000082E-05 ), #131, 'distance_accuracy_value', 'NONE');
#60 = PRODUCT_DEFINITION_SHAPE ( 'NONE', 'NONE',  #15 ) ;
#61 = EDGE_CURVE ( 'NONE', #82, #112, #68, .T. ) ;
#62 = DATE_AND_TIME ( #96, #92 ) ;
#63 = AXIS2_PLACEMENT_3D ( 'NONE', #83, #98, #102 ) ;
#64 = CYLINDRICAL_SURFACE ( 'NONE', #149, 37.50000000000000711 ) ;
#65 = APPROVAL ( #139, 'UNSPECIFIED' ) ;
#66 = LOCAL_TIME ( 16, 43, 56.00000000000000000, #111 ) ;
#67 = AXIS2_PLACEMENT_3D ( 'NONE', #85, #43, #55 ) ;
#68 = CIRCLE ( 'NONE', #67, 37.50000000000000711 ) ;
#69 = DIRECTION ( 'NONE',  ( -1.000000000000000000, 0.0000000000000000000, 0.0000000000000000000 ) ) ;
#70 = ADVANCED_BREP_SHAPE_REPRESENTATION ( 'Web Model 36935_15801', ( #91, #94 ), #71 ) ;
#71 =( GEOMETRIC_REPRESENTATION_CONTEXT ( 3 ) GLOBAL_UNCERTAINTY_ASSIGNED_CONTEXT ( ( #59 ) ) GLOBAL_UNIT_ASSIGNED_CONTEXT ( ( #131, #32, #19 ) ) REPRESENTATION_CONTEXT ( 'NONE', 'WORKASPACE' ) );
#72 = DIRECTION ( 'NONE',  ( 0.0000000000000000000, 0.0000000000000000000, 1.000000000000000000 ) ) ;
#73 = DIRECTION ( 'NONE',  ( -0.0000000000000000000, -0.0000000000000000000, -1.000000000000000000 ) ) ;
#74 = CIRCLE ( 'NONE', #146, 37.50000000000000711 ) ;
#75 = AXIS2_PLACEMENT_3D ( 'NONE', #166, #20, #6 ) ;
#76 = CC_DESIGN_DATE_AND_TIME_ASSIGNMENT ( #89, #10, ( #173 ) ) ;
#77 = COORDINATED_UNIVERSAL_TIME_OFFSET ( 5, 0, .BEHIND. ) ;
#78 = VECTOR ( 'NONE', #79, 1000.000000000000000 ) ;
#79 = DIRECTION ( 'NONE',  ( -0.0000000000000000000, -0.0000000000000000000, -1.000000000000000000 ) ) ;
#80 = CARTESIAN_POINT ( 'NONE',  ( 37.50000000000000711, 4.592425496802575156E-15, -1.500000000000000000 ) ) ;
#81 = CARTESIAN_POINT ( 'NONE',  ( -37.50000000000000711, 0.0000000000000000000, 1.500000000000000000 ) ) ;
#82 = VERTEX_POINT ( 'NONE', #16 ) ;
#83 = CARTESIAN_POINT ( 'NONE',  ( 0.0000000000000000000, 0.0000000000000000000, 1.500000000000000000 ) ) ;
#84 = DIRECTION ( 'NONE',  ( 1.000000000000000000, 0.0000000000000000000, 0.0000000000000000000 ) ) ;
#85 = CARTESIAN_POINT ( 'NONE',  ( 0.0000000000000000000, 0.0000000000000000000, 1.500000000000000000 ) ) ;
#86 = DATE_AND_TIME ( #128, #130 ) ;
#87 = CYLINDRICAL_SURFACE ( 'NONE', #121, 37.50000000000000711 ) ;
#88 = PERSON_AND_ORGANIZATION_ROLE ( 'classification_officer' ) ;
#89 = DATE_AND_TIME ( #165, #66 ) ;
#90 = ORIENTED_EDGE ( 'NONE', *, *, #61, .F. ) ;
#91 = MANIFOLD_SOLID_BREP ( 'Boss-Extrude1', #124 ) ;
#92 = LOCAL_TIME ( 16, 43, 56.00000000000000000, #2 ) ;
#93 = ADVANCED_FACE ( 'NONE', ( #104 ), #64, .T. ) ;
#94 = AXIS2_PLACEMENT_3D ( 'NONE', #21, #72, #84 ) ;
#95 = DIRECTION ( 'NONE',  ( -0.0000000000000000000, -0.0000000000000000000, -1.000000000000000000 ) ) ;
#96 = CALENDAR_DATE ( 2020, 3, 11 ) ;
#97 = DIRECTION ( 'NONE',  ( 0.0000000000000000000, 0.0000000000000000000, 1.000000000000000000 ) ) ;
#98 = DIRECTION ( 'NONE',  ( 0.0000000000000000000, 0.0000000000000000000, 1.000000000000000000 ) ) ;
#99 = FACE_OUTER_BOUND ( 'NONE', #3, .T. ) ;
#100 = PERSON_AND_ORGANIZATION_ROLE ( 'design_owner' ) ;
#101 = PRODUCT_DEFINITION_FORMATION_WITH_SPECIFIED_SOURCE ( 'ANY', '', #117, .NOT_KNOWN. ) ;
#102 = DIRECTION ( 'NONE',  ( 1.000000000000000000, 0.0000000000000000000, -0.0000000000000000000 ) ) ;
#103 = PERSON_AND_ORGANIZATION ( #147, #56 ) ;
#104 = FACE_OUTER_BOUND ( 'NONE', #163, .T. ) ;
#105 = AXIS2_PLACEMENT_3D ( 'NONE', #167, #142, #140 ) ;
#106 = APPROVAL ( #114, 'UNSPECIFIED' ) ;
#107 = APPROVAL_PERSON_ORGANIZATION ( #123, #106, #129 ) ;
#108 = ORIENTED_EDGE ( 'NONE', *, *, #172, .T. ) ;
#109 = DATE_TIME_ROLE ( 'creation_date' ) ;
#110 = CARTESIAN_POINT ( 'NONE',  ( 0.0000000000000000000, 0.0000000000000000000, -1.500000000000000000 ) ) ;
#111 = COORDINATED_UNIVERSAL_TIME_OFFSET ( 5, 0, .BEHIND. ) ;
#112 = VERTEX_POINT ( 'NONE', #81 ) ;
#113 = DIRECTION ( 'NONE',  ( 0.0000000000000000000, 0.0000000000000000000, 1.000000000000000000 ) ) ;
#114 = APPROVAL_STATUS ( 'not_yet_approved' ) ;
#115 = PERSON_AND_ORGANIZATION_ROLE ( 'design_supplier' ) ;
#116 = DESIGN_CONTEXT ( 'detailed design', #58, 'design' ) ;
#117 = PRODUCT ( 'Web Model 36935_15801', 'Web Model 36935_15801', '', ( #33 ) ) ;
#118 = ORIENTED_EDGE ( 'NONE', *, *, #172, .F. ) ;
#119 = DATE_AND_TIME ( #41, #53 ) ;
#120 = ORIENTED_EDGE ( 'NONE', *, *, #61, .T. ) ;
#121 = AXIS2_PLACEMENT_3D ( 'NONE', #5, #125, #69 ) ;
#122 = PLANE ( 'NONE',  #105 ) ;
#123 = PERSON_AND_ORGANIZATION ( #147, #56 ) ;
#124 = CLOSED_SHELL ( 'NONE', ( #25, #93, #137, #150 ) ) ;
#125 = DIRECTION ( 'NONE',  ( -0.0000000000000000000, -0.0000000000000000000, -1.000000000000000000 ) ) ;
#126 = AXIS2_PLACEMENT_3D ( 'NONE', #110, #97, #45 ) ;
#127 = APPROVAL_ROLE ( '' ) ;
#128 = CALENDAR_DATE ( 2020, 3, 11 ) ;
#129 = APPROVAL_ROLE ( '' ) ;
#130 = LOCAL_TIME ( 16, 43, 56.00000000000000000, #136 ) ;
#131 =( LENGTH_UNIT ( ) NAMED_UNIT ( * ) SI_UNIT ( .MILLI., .METRE. ) );
#132 = EDGE_CURVE ( 'NONE', #112, #82, #168, .T. ) ;
#133 = APPROVAL ( #22, 'UNSPECIFIED' ) ;
#134 = APPROVAL_PERSON_ORGANIZATION ( #174, #133, #127 ) ;
#135 = LINE ( 'NONE', #164, #78 ) ;
#136 = COORDINATED_UNIVERSAL_TIME_OFFSET ( 5, 0, .BEHIND. ) ;
#137 = ADVANCED_FACE ( 'NONE', ( #153 ), #28, .T. ) ;
#138 = PERSON_AND_ORGANIZATION ( #147, #56 ) ;
#139 = APPROVAL_STATUS ( 'not_yet_approved' ) ;
#140 = DIRECTION ( 'NONE',  ( 1.000000000000000000, 0.0000000000000000000, -0.0000000000000000000 ) ) ;
#141 = CC_DESIGN_PERSON_AND_ORGANIZATION_ASSIGNMENT ( #138, #88, ( #173 ) ) ;
#142 = DIRECTION ( 'NONE',  ( 0.0000000000000000000, 0.0000000000000000000, 1.000000000000000000 ) ) ;
#143 = SECURITY_CLASSIFICATION_LEVEL ( 'unclassified' ) ;
#144 = ORIENTED_EDGE ( 'NONE', *, *, #160, .F. ) ;
#145 = EDGE_LOOP ( 'NONE', ( #52, #120 ) ) ;
#146 = AXIS2_PLACEMENT_3D ( 'NONE', #156, #113, #30 ) ;
#147 = PERSON ( 'UNSPECIFIED', 'UNSPECIFIED', 'UNSPECIFIED', ('UNSPECIFIED'), ('UNSPECIFIED'), ('UNSPECIFIED') ) ;
#148 = CC_DESIGN_APPROVAL ( #133, ( #101 ) ) ;
#149 = AXIS2_PLACEMENT_3D ( 'NONE', #8, #73, #42 ) ;
#150 = ADVANCED_FACE ( 'NONE', ( #99 ), #122, .F. ) ;
#151 = SHAPE_DEFINITION_REPRESENTATION ( #60, #70 ) ;
#152 = APPROVAL_DATE_TIME ( #62, #65 ) ;
#153 = FACE_OUTER_BOUND ( 'NONE', #145, .T. ) ;
#154 = APPLICATION_CONTEXT ( 'configuration controlled 3d designs of mechanical parts and assemblies' ) ;
#155 = APPLICATION_PROTOCOL_DEFINITION ( 'international standard', 'config_control_design', 1994, #154 ) ;
#156 = CARTESIAN_POINT ( 'NONE',  ( 0.0000000000000000000, 0.0000000000000000000, -1.500000000000000000 ) ) ;
#157 = PERSON_AND_ORGANIZATION_ROLE ( 'creator' ) ;
#158 = CC_DESIGN_PERSON_AND_ORGANIZATION_ASSIGNMENT ( #103, #115, ( #101 ) ) ;
#159 = PERSON_AND_ORGANIZATION ( #147, #56 ) ;
#160 = EDGE_CURVE ( 'NONE', #18, #175, #74, .T. ) ;
#161 = CARTESIAN_POINT ( 'NONE',  ( 37.50000000000000711, 4.592425496802575156E-15, 1.500000000000000000 ) ) ;
#162 = PERSON_AND_ORGANIZATION ( #147, #56 ) ;
#163 = EDGE_LOOP ( 'NONE', ( #44, #39, #57, #108 ) ) ;
#164 = CARTESIAN_POINT ( 'NONE',  ( -37.50000000000000711, 0.0000000000000000000, 1.500000000000000000 ) ) ;
#165 = CALENDAR_DATE ( 2020, 3, 11 ) ;
#166 = CARTESIAN_POINT ( 'NONE',  ( 0.0000000000000000000, 0.0000000000000000000, 1.500000000000000000 ) ) ;
#167 = CARTESIAN_POINT ( 'NONE',  ( 0.0000000000000000000, 0.0000000000000000000, -1.500000000000000000 ) ) ;
#168 = CIRCLE ( 'NONE', #75, 37.50000000000000711 ) ;
#169 = CARTESIAN_POINT ( 'NONE',  ( -37.50000000000000711, 0.0000000000000000000, -1.500000000000000000 ) ) ;
#170 = CC_DESIGN_APPROVAL ( #106, ( #15 ) ) ;
#171 = PERSON_AND_ORGANIZATION ( #147, #56 ) ;
#172 = EDGE_CURVE ( 'NONE', #175, #18, #47, .T. ) ;
#173 = SECURITY_CLASSIFICATION ( '', '', #143 ) ;
#174 = PERSON_AND_ORGANIZATION ( #147, #56 ) ;
#175 = VERTEX_POINT ( 'NONE', #169 ) ;
ENDSEC;
END-ISO-10303-21;
