ISO-10303-21;
HEADER;
FILE_DESCRIPTION (( 'STEP AP203' ),
    '1' );
FILE_NAME ('Web Model 49585_49585.step',
    '2019-04-23T14:14:42',
    ( '' ),
    ( '' ),
    'SwSTEP 2.0',
    'SolidWorks 2018',
    '' );
FILE_SCHEMA (( 'CONFIG_CONTROL_DESIGN' ));
ENDSEC;

DATA;
#1 = PRODUCT_DEFINITION_FORMATION_WITH_SPECIFIED_SOURCE ( 'ANY', '', #136, .NOT_KNOWN. ) ;
#2 = PERSON_AND_ORGANIZATION ( #73, #180 ) ;
#3 = VECTOR ( 'NONE', #226, 1000.000000000000000 ) ;
#4 = DIRECTION ( 'NONE',  ( 0.0000000000000000000, 1.000000000000000000, 0.0000000000000000000 ) ) ;
#5 = CALENDAR_DATE ( 2019, 23, 4 ) ;
#6 = VERTEX_POINT ( 'NONE', #169 ) ;
#7 = DIRECTION ( 'NONE',  ( 0.0000000000000000000, 0.0000000000000000000, -1.000000000000000000 ) ) ;
#8 = CARTESIAN_POINT ( 'NONE',  ( -25.00000000000000000, 25.00000000000000000, 3.000000000000000000 ) ) ;
#9 = PLANE ( 'NONE',  #165 ) ;
#10 = EDGE_CURVE ( 'NONE', #131, #146, #217, .T. ) ;
#11 = APPLICATION_CONTEXT ( 'configuration controlled 3d designs of mechanical parts and assemblies' ) ;
#12 = DIRECTION ( 'NONE',  ( 0.0000000000000000000, -1.000000000000000000, 0.0000000000000000000 ) ) ;
#13 = CARTESIAN_POINT ( 'NONE',  ( 25.00000000000000000, -25.00000000000000000, 3.000000000000000000 ) ) ;
#14 = APPROVAL ( #156, 'UNSPECIFIED' ) ;
#15 = APPROVAL_ROLE ( '' ) ;
#16 = SECURITY_CLASSIFICATION ( '', '', #236 ) ;
#17 = LOCAL_TIME ( 10, 14, 42.00000000000000000, #106 ) ;
#18 = VECTOR ( 'NONE', #81, 1000.000000000000000 ) ;
#19 = ORIENTED_EDGE ( 'NONE', *, *, #79, .F. ) ;
#20 = SHAPE_DEFINITION_REPRESENTATION ( #59, #36 ) ;
#21 = LINE ( 'NONE', #49, #57 ) ;
#22 = CC_DESIGN_PERSON_AND_ORGANIZATION_ASSIGNMENT ( #214, #233, ( #136 ) ) ;
#23 = VERTEX_POINT ( 'NONE', #63 ) ;
#24 = APPROVAL_PERSON_ORGANIZATION ( #62, #130, #143 ) ;
#25 = CC_DESIGN_PERSON_AND_ORGANIZATION_ASSIGNMENT ( #199, #38, ( #16 ) ) ;
#26 = DIRECTION ( 'NONE',  ( -1.000000000000000000, 0.0000000000000000000, 0.0000000000000000000 ) ) ;
#27 = CARTESIAN_POINT ( 'NONE',  ( -25.00000000000000000, -25.00000000000000000, 3.000000000000000000 ) ) ;
#28 = DIRECTION ( 'NONE',  ( 0.0000000000000000000, 0.0000000000000000000, 1.000000000000000000 ) ) ;
#29 = CARTESIAN_POINT ( 'NONE',  ( -25.00000000000000000, 25.00000000000000000, 3.000000000000000000 ) ) ;
#30 = CC_DESIGN_APPROVAL ( #64, ( #16 ) ) ;
#31 =( NAMED_UNIT ( * ) PLANE_ANGLE_UNIT ( ) SI_UNIT ( $, .RADIAN. ) );
#32 = DIRECTION ( 'NONE',  ( 0.0000000000000000000, 0.0000000000000000000, -1.000000000000000000 ) ) ;
#33 = DATE_AND_TIME ( #160, #223 ) ;
#34 = EDGE_LOOP ( 'NONE', ( #177, #43, #237, #89 ) ) ;
#35 = CARTESIAN_POINT ( 'NONE',  ( -25.00000000000000000, -25.00000000000000000, 0.0000000000000000000 ) ) ;
#36 = ADVANCED_BREP_SHAPE_REPRESENTATION ( 'Web Model 49585_49585', ( #88, #235 ), #162 ) ;
#37 = VECTOR ( 'NONE', #192, 1000.000000000000000 ) ;
#38 = PERSON_AND_ORGANIZATION_ROLE ( 'classification_officer' ) ;
#39 = CC_DESIGN_DATE_AND_TIME_ASSIGNMENT ( #139, #174, ( #225 ) ) ;
#40 = ORIENTED_EDGE ( 'NONE', *, *, #96, .T. ) ;
#41 = EDGE_CURVE ( 'NONE', #146, #6, #103, .T. ) ;
#42 = CC_DESIGN_SECURITY_CLASSIFICATION ( #16, ( #1 ) ) ;
#43 = ORIENTED_EDGE ( 'NONE', *, *, #197, .F. ) ;
#44 = DIRECTION ( 'NONE',  ( 0.0000000000000000000, 0.0000000000000000000, -1.000000000000000000 ) ) ;
#45 = APPROVAL_PERSON_ORGANIZATION ( #229, #64, #71 ) ;
#46 =( LENGTH_UNIT ( ) NAMED_UNIT ( * ) SI_UNIT ( .MILLI., .METRE. ) );
#47 = PERSON_AND_ORGANIZATION_ROLE ( 'creator' ) ;
#48 = LOCAL_TIME ( 10, 14, 42.00000000000000000, #201 ) ;
#49 = CARTESIAN_POINT ( 'NONE',  ( 25.00000000000000000, -25.00000000000000000, 3.000000000000000000 ) ) ;
#50 = LINE ( 'NONE', #114, #219 ) ;
#51 = CC_DESIGN_APPROVAL ( #130, ( #1 ) ) ;
#52 = DIRECTION ( 'NONE',  ( -0.0000000000000000000, 1.000000000000000000, 0.0000000000000000000 ) ) ;
#53 = CC_DESIGN_DATE_AND_TIME_ASSIGNMENT ( #33, #196, ( #16 ) ) ;
#54 = ADVANCED_FACE ( 'NONE', ( #83 ), #224, .F. ) ;
#55 = AXIS2_PLACEMENT_3D ( 'NONE', #121, #69, #227 ) ;
#56 = VECTOR ( 'NONE', #91, 1000.000000000000000 ) ;
#57 = VECTOR ( 'NONE', #159, 1000.000000000000000 ) ;
#58 = VERTEX_POINT ( 'NONE', #134 ) ;
#59 = PRODUCT_DEFINITION_SHAPE ( 'NONE', 'NONE',  #225 ) ;
#60 = CARTESIAN_POINT ( 'NONE',  ( -25.00000000000000000, -25.00000000000000000, 0.0000000000000000000 ) ) ;
#61 = ORIENTED_EDGE ( 'NONE', *, *, #141, .T. ) ;
#62 = PERSON_AND_ORGANIZATION ( #73, #180 ) ;
#63 = CARTESIAN_POINT ( 'NONE',  ( 25.00000000000000000, -25.00000000000000000, 3.000000000000000000 ) ) ;
#64 = APPROVAL ( #163, 'UNSPECIFIED' ) ;
#65 = DIRECTION ( 'NONE',  ( 1.000000000000000000, 0.0000000000000000000, 0.0000000000000000000 ) ) ;
#66 = FACE_OUTER_BOUND ( 'NONE', #186, .T. ) ;
#67 = APPROVAL_STATUS ( 'not_yet_approved' ) ;
#68 = CC_DESIGN_PERSON_AND_ORGANIZATION_ASSIGNMENT ( #2, #47, ( #225 ) ) ;
#69 = DIRECTION ( 'NONE',  ( 0.0000000000000000000, 0.0000000000000000000, -1.000000000000000000 ) ) ;
#70 = EDGE_CURVE ( 'NONE', #187, #203, #100, .T. ) ;
#71 = APPROVAL_ROLE ( '' ) ;
#72 = FACE_OUTER_BOUND ( 'NONE', #198, .T. ) ;
#73 = PERSON ( 'UNSPECIFIED', 'UNSPECIFIED', 'UNSPECIFIED', ('UNSPECIFIED'), ('UNSPECIFIED'), ('UNSPECIFIED') ) ;
#74 = ORIENTED_EDGE ( 'NONE', *, *, #212, .T. ) ;
#75 = COORDINATED_UNIVERSAL_TIME_OFFSET ( 5, 0, .BEHIND. ) ;
#76 = ORIENTED_EDGE ( 'NONE', *, *, #41, .F. ) ;
#77 = COORDINATED_UNIVERSAL_TIME_OFFSET ( 5, 0, .BEHIND. ) ;
#78 = APPLICATION_CONTEXT ( 'configuration controlled 3d designs of mechanical parts and assemblies' ) ;
#79 = EDGE_CURVE ( 'NONE', #187, #131, #195, .T. ) ;
#80 = DIRECTION ( 'NONE',  ( 1.000000000000000000, 0.0000000000000000000, 0.0000000000000000000 ) ) ;
#81 = DIRECTION ( 'NONE',  ( -1.000000000000000000, 0.0000000000000000000, 0.0000000000000000000 ) ) ;
#82 = APPROVAL_DATE_TIME ( #127, #130 ) ;
#83 = FACE_OUTER_BOUND ( 'NONE', #170, .T. ) ;
#84 = CALENDAR_DATE ( 2019, 23, 4 ) ;
#85 = EDGE_CURVE ( 'NONE', #150, #58, #50, .T. ) ;
#86 = ORIENTED_EDGE ( 'NONE', *, *, #141, .F. ) ;
#87 = CC_DESIGN_PERSON_AND_ORGANIZATION_ASSIGNMENT ( #93, #102, ( #1 ) ) ;
#88 = MANIFOLD_SOLID_BREP ( 'NONE', #222 ) ;
#89 = ORIENTED_EDGE ( 'NONE', *, *, #10, .T. ) ;
#90 = ORIENTED_EDGE ( 'NONE', *, *, #96, .F. ) ;
#91 = DIRECTION ( 'NONE',  ( 1.000000000000000000, 0.0000000000000000000, 0.0000000000000000000 ) ) ;
#92 = DIRECTION ( 'NONE',  ( 1.000000000000000000, 0.0000000000000000000, 0.0000000000000000000 ) ) ;
#93 = PERSON_AND_ORGANIZATION ( #73, #180 ) ;
#94 = ORIENTED_EDGE ( 'NONE', *, *, #79, .T. ) ;
#95 = PLANE ( 'NONE',  #221 ) ;
#96 = EDGE_CURVE ( 'NONE', #150, #187, #149, .T. ) ;
#97 = DIRECTION ( 'NONE',  ( 0.0000000000000000000, 0.0000000000000000000, 1.000000000000000000 ) ) ;
#98 = EDGE_LOOP ( 'NONE', ( #231, #76, #184, #86 ) ) ;
#99 = CARTESIAN_POINT ( 'NONE',  ( -25.00000000000000000, 25.00000000000000000, 0.0000000000000000000 ) ) ;
#100 = LINE ( 'NONE', #8, #3 ) ;
#101 = DIRECTION ( 'NONE',  ( 0.0000000000000000000, -1.000000000000000000, 0.0000000000000000000 ) ) ;
#102 = PERSON_AND_ORGANIZATION_ROLE ( 'creator' ) ;
#103 = LINE ( 'NONE', #60, #56 ) ;
#104 = VECTOR ( 'NONE', #194, 1000.000000000000000 ) ;
#105 = ORIENTED_EDGE ( 'NONE', *, *, #207, .T. ) ;
#106 = COORDINATED_UNIVERSAL_TIME_OFFSET ( 5, 0, .BEHIND. ) ;
#107 = EDGE_LOOP ( 'NONE', ( #138, #122, #126, #154 ) ) ;
#108 = DATE_AND_TIME ( #218, #151 ) ;
#109 = FACE_OUTER_BOUND ( 'NONE', #34, .T. ) ;
#110 = LINE ( 'NONE', #209, #104 ) ;
#111 = VECTOR ( 'NONE', #44, 1000.000000000000000 ) ;
#112 = ORIENTED_EDGE ( 'NONE', *, *, #70, .T. ) ;
#113 = CARTESIAN_POINT ( 'NONE',  ( -25.00000000000000000, -25.00000000000000000, 3.000000000000000000 ) ) ;
#114 = CARTESIAN_POINT ( 'NONE',  ( 25.00000000000000000, 25.00000000000000000, 3.000000000000000000 ) ) ;
#115 = CARTESIAN_POINT ( 'NONE',  ( -25.00000000000000000, -25.00000000000000000, 3.000000000000000000 ) ) ;
#116 = DIRECTION ( 'NONE',  ( 0.0000000000000000000, 0.0000000000000000000, -1.000000000000000000 ) ) ;
#117 = CC_DESIGN_PERSON_AND_ORGANIZATION_ASSIGNMENT ( #204, #182, ( #1 ) ) ;
#118 = APPROVAL_PERSON_ORGANIZATION ( #168, #14, #15 ) ;
#119 = APPLICATION_PROTOCOL_DEFINITION ( 'international standard', 'config_control_design', 1994, #78 ) ;
#120 = CARTESIAN_POINT ( 'NONE',  ( -25.00000000000000000, -25.00000000000000000, 3.000000000000000000 ) ) ;
#121 = CARTESIAN_POINT ( 'NONE',  ( 0.0000000000000000000, 0.0000000000000000000, 3.000000000000000000 ) ) ;
#122 = ORIENTED_EDGE ( 'NONE', *, *, #85, .F. ) ;
#123 = DIRECTION ( 'NONE',  ( 0.0000000000000000000, 0.0000000000000000000, -1.000000000000000000 ) ) ;
#124 = VECTOR ( 'NONE', #175, 1000.000000000000000 ) ;
#125 = ADVANCED_FACE ( 'NONE', ( #164 ), #95, .F. ) ;
#126 = ORIENTED_EDGE ( 'NONE', *, *, #207, .F. ) ;
#127 = DATE_AND_TIME ( #84, #176 ) ;
#128 = ORIENTED_EDGE ( 'NONE', *, *, #70, .F. ) ;
#129 = EDGE_CURVE ( 'NONE', #203, #146, #155, .T. ) ;
#130 = APPROVAL ( #67, 'UNSPECIFIED' ) ;
#131 = VERTEX_POINT ( 'NONE', #230 ) ;
#132 = CARTESIAN_POINT ( 'NONE',  ( -25.00000000000000000, 25.00000000000000000, 3.000000000000000000 ) ) ;
#133 = APPROVAL_DATE_TIME ( #179, #14 ) ;
#134 = CARTESIAN_POINT ( 'NONE',  ( 25.00000000000000000, 25.00000000000000000, 0.0000000000000000000 ) ) ;
#135 = APPLICATION_PROTOCOL_DEFINITION ( 'international standard', 'config_control_design', 1994, #11 ) ;
#136 = PRODUCT ( 'Web Model 49585_49585', 'Web Model 49585_49585', '', ( #158 ) ) ;
#137 = AXIS2_PLACEMENT_3D ( 'NONE', #228, #101, #116 ) ;
#138 = ORIENTED_EDGE ( 'NONE', *, *, #183, .T. ) ;
#139 = DATE_AND_TIME ( #5, #48 ) ;
#140 = CARTESIAN_POINT ( 'NONE',  ( 0.0000000000000000000, 0.0000000000000000000, 0.0000000000000000000 ) ) ;
#141 = EDGE_CURVE ( 'NONE', #58, #203, #161, .T. ) ;
#142 = CARTESIAN_POINT ( 'NONE',  ( -25.00000000000000000, -25.00000000000000000, 3.000000000000000000 ) ) ;
#143 = APPROVAL_ROLE ( '' ) ;
#144 = ORIENTED_EDGE ( 'NONE', *, *, #129, .T. ) ;
#145 = PRODUCT_RELATED_PRODUCT_CATEGORY ( 'detail', '', ( #136 ) ) ;
#146 = VERTEX_POINT ( 'NONE', #35 ) ;
#147 = COORDINATED_UNIVERSAL_TIME_OFFSET ( 5, 0, .BEHIND. ) ;
#148 = VECTOR ( 'NONE', #188, 1000.000000000000000 ) ;
#149 = LINE ( 'NONE', #132, #208 ) ;
#150 = VERTEX_POINT ( 'NONE', #157 ) ;
#151 = LOCAL_TIME ( 10, 14, 42.00000000000000000, #75 ) ;
#152 = CARTESIAN_POINT ( 'NONE',  ( 25.00000000000000000, -25.00000000000000000, 3.000000000000000000 ) ) ;
#153 =( NAMED_UNIT ( * ) SI_UNIT ( $, .STERADIAN. ) SOLID_ANGLE_UNIT ( ) );
#154 = ORIENTED_EDGE ( 'NONE', *, *, #197, .T. ) ;
#155 = LINE ( 'NONE', #211, #37 ) ;
#156 = APPROVAL_STATUS ( 'not_yet_approved' ) ;
#157 = CARTESIAN_POINT ( 'NONE',  ( 25.00000000000000000, 25.00000000000000000, 3.000000000000000000 ) ) ;
#158 = MECHANICAL_CONTEXT ( 'NONE', #78, 'mechanical' ) ;
#159 = DIRECTION ( 'NONE',  ( 0.0000000000000000000, 1.000000000000000000, 0.0000000000000000000 ) ) ;
#160 = CALENDAR_DATE ( 2019, 23, 4 ) ;
#161 = LINE ( 'NONE', #205, #18 ) ;
#162 =( GEOMETRIC_REPRESENTATION_CONTEXT ( 3 ) GLOBAL_UNCERTAINTY_ASSIGNED_CONTEXT ( ( #166 ) ) GLOBAL_UNIT_ASSIGNED_CONTEXT ( ( #46, #31, #153 ) ) REPRESENTATION_CONTEXT ( 'NONE', 'WORKASPACE' ) );
#163 = APPROVAL_STATUS ( 'not_yet_approved' ) ;
#164 = FACE_OUTER_BOUND ( 'NONE', #107, .T. ) ;
#165 = AXIS2_PLACEMENT_3D ( 'NONE', #140, #32, #12 ) ;
#166 = UNCERTAINTY_MEASURE_WITH_UNIT (LENGTH_MEASURE( 1.000000000000000082E-05 ), #46, 'distance_accuracy_value', 'NONE');
#167 = CALENDAR_DATE ( 2019, 23, 4 ) ;
#168 = PERSON_AND_ORGANIZATION ( #73, #180 ) ;
#169 = CARTESIAN_POINT ( 'NONE',  ( 25.00000000000000000, -25.00000000000000000, 0.0000000000000000000 ) ) ;
#170 = EDGE_LOOP ( 'NONE', ( #144, #190, #19, #112 ) ) ;
#171 = LINE ( 'NONE', #120, #124 ) ;
#172 = DIRECTION ( 'NONE',  ( -1.000000000000000000, 0.0000000000000000000, 0.0000000000000000000 ) ) ;
#173 = CARTESIAN_POINT ( 'NONE',  ( 0.0000000000000000000, 0.0000000000000000000, 0.0000000000000000000 ) ) ;
#174 = DATE_TIME_ROLE ( 'creation_date' ) ;
#175 = DIRECTION ( 'NONE',  ( 1.000000000000000000, 0.0000000000000000000, 0.0000000000000000000 ) ) ;
#176 = LOCAL_TIME ( 10, 14, 42.00000000000000000, #147 ) ;
#177 = ORIENTED_EDGE ( 'NONE', *, *, #41, .T. ) ;
#178 = VECTOR ( 'NONE', #123, 1000.000000000000000 ) ;
#179 = DATE_AND_TIME ( #167, #17 ) ;
#180 = ORGANIZATION ( 'UNSPECIFIED', 'UNSPECIFIED', '' ) ;
#181 = ADVANCED_FACE ( 'NONE', ( #109 ), #210, .F. ) ;
#182 = PERSON_AND_ORGANIZATION_ROLE ( 'design_supplier' ) ;
#183 = EDGE_CURVE ( 'NONE', #6, #58, #110, .T. ) ;
#184 = ORIENTED_EDGE ( 'NONE', *, *, #129, .F. ) ;
#185 = AXIS2_PLACEMENT_3D ( 'NONE', #113, #92, #4 ) ;
#186 = EDGE_LOOP ( 'NONE', ( #61, #128, #90, #200 ) ) ;
#187 = VERTEX_POINT ( 'NONE', #29 ) ;
#188 = DIRECTION ( 'NONE',  ( 0.0000000000000000000, -1.000000000000000000, 0.0000000000000000000 ) ) ;
#189 = LINE ( 'NONE', #13, #178 ) ;
#190 = ORIENTED_EDGE ( 'NONE', *, *, #10, .F. ) ;
#191 = APPROVAL_DATE_TIME ( #108, #64 ) ;
#192 = DIRECTION ( 'NONE',  ( 0.0000000000000000000, -1.000000000000000000, 0.0000000000000000000 ) ) ;
#193 = PLANE ( 'NONE',  #137 ) ;
#194 = DIRECTION ( 'NONE',  ( 0.0000000000000000000, 1.000000000000000000, 0.0000000000000000000 ) ) ;
#195 = LINE ( 'NONE', #27, #148 ) ;
#196 = DATE_TIME_ROLE ( 'classification_date' ) ;
#197 = EDGE_CURVE ( 'NONE', #23, #6, #189, .T. ) ;
#198 = EDGE_LOOP ( 'NONE', ( #105, #40, #94, #74 ) ) ;
#199 = PERSON_AND_ORGANIZATION ( #73, #180 ) ;
#200 = ORIENTED_EDGE ( 'NONE', *, *, #85, .T. ) ;
#201 = COORDINATED_UNIVERSAL_TIME_OFFSET ( 5, 0, .BEHIND. ) ;
#202 = CC_DESIGN_APPROVAL ( #14, ( #225 ) ) ;
#203 = VERTEX_POINT ( 'NONE', #99 ) ;
#204 = PERSON_AND_ORGANIZATION ( #73, #180 ) ;
#205 = CARTESIAN_POINT ( 'NONE',  ( -25.00000000000000000, 25.00000000000000000, 0.0000000000000000000 ) ) ;
#206 = PLANE ( 'NONE',  #55 ) ;
#207 = EDGE_CURVE ( 'NONE', #23, #150, #21, .T. ) ;
#208 = VECTOR ( 'NONE', #26, 1000.000000000000000 ) ;
#209 = CARTESIAN_POINT ( 'NONE',  ( 25.00000000000000000, -25.00000000000000000, 0.0000000000000000000 ) ) ;
#210 = PLANE ( 'NONE',  #216 ) ;
#211 = CARTESIAN_POINT ( 'NONE',  ( -25.00000000000000000, -25.00000000000000000, 0.0000000000000000000 ) ) ;
#212 = EDGE_CURVE ( 'NONE', #131, #23, #171, .T. ) ;
#213 = ADVANCED_FACE ( 'NONE', ( #72 ), #206, .F. ) ;
#214 = PERSON_AND_ORGANIZATION ( #73, #180 ) ;
#215 = ADVANCED_FACE ( 'NONE', ( #66 ), #193, .F. ) ;
#216 = AXIS2_PLACEMENT_3D ( 'NONE', #142, #52, #80 ) ;
#217 = LINE ( 'NONE', #115, #111 ) ;
#218 = CALENDAR_DATE ( 2019, 23, 4 ) ;
#219 = VECTOR ( 'NONE', #7, 1000.000000000000000 ) ;
#220 = FACE_OUTER_BOUND ( 'NONE', #98, .T. ) ;
#221 = AXIS2_PLACEMENT_3D ( 'NONE', #152, #172, #28 ) ;
#222 = CLOSED_SHELL ( 'NONE', ( #125, #215, #54, #181, #213, #234 ) ) ;
#223 = LOCAL_TIME ( 10, 14, 42.00000000000000000, #77 ) ;
#224 = PLANE ( 'NONE',  #185 ) ;
#225 = PRODUCT_DEFINITION ( 'UNKNOWN', '', #1, #232 ) ;
#226 = DIRECTION ( 'NONE',  ( 0.0000000000000000000, 0.0000000000000000000, -1.000000000000000000 ) ) ;
#227 = DIRECTION ( 'NONE',  ( 0.0000000000000000000, -1.000000000000000000, 0.0000000000000000000 ) ) ;
#228 = CARTESIAN_POINT ( 'NONE',  ( -25.00000000000000000, 25.00000000000000000, 3.000000000000000000 ) ) ;
#229 = PERSON_AND_ORGANIZATION ( #73, #180 ) ;
#230 = CARTESIAN_POINT ( 'NONE',  ( -25.00000000000000000, -25.00000000000000000, 3.000000000000000000 ) ) ;
#231 = ORIENTED_EDGE ( 'NONE', *, *, #183, .F. ) ;
#232 = DESIGN_CONTEXT ( 'detailed design', #11, 'design' ) ;
#233 = PERSON_AND_ORGANIZATION_ROLE ( 'design_owner' ) ;
#234 = ADVANCED_FACE ( 'NONE', ( #220 ), #9, .T. ) ;
#235 = AXIS2_PLACEMENT_3D ( 'NONE', #173, #97, #65 ) ;
#236 = SECURITY_CLASSIFICATION_LEVEL ( 'unclassified' ) ;
#237 = ORIENTED_EDGE ( 'NONE', *, *, #212, .F. ) ;
ENDSEC;
END-ISO-10303-21;
