ISO-10303-21;
HEADER;
FILE_DESCRIPTION (( 'STEP AP203' ),
    '1' );
FILE_NAME ('Web Model 11912_11912.step',
    '2019-04-22T15:00:27',
    ( '' ),
    ( '' ),
    'SwSTEP 2.0',
    'SolidWorks 2018',
    '' );
FILE_SCHEMA (( 'CONFIG_CONTROL_DESIGN' ));
ENDSEC;

DATA;
#1 = LOCAL_TIME ( 11, 0, 27.00000000000000000, #9 ) ;
#2 = ORIENTED_EDGE ( 'NONE', *, *, #145, .F. ) ;
#3 = ADVANCED_BREP_SHAPE_REPRESENTATION ( 'Web Model 11912_11912', ( #13, #84 ), #99 ) ;
#4 = CARTESIAN_POINT ( 'NONE',  ( 37.49999999999999289, 4.592425496802573578E-15, 2.500000000000000000 ) ) ;
#5 = CARTESIAN_POINT ( 'NONE',  ( 37.49999999999999289, 4.592425496802573578E-15, -2.500000000000000000 ) ) ;
#6 = LOCAL_TIME ( 11, 0, 27.00000000000000000, #51 ) ;
#7 = PERSON_AND_ORGANIZATION_ROLE ( 'design_owner' ) ;
#8 = PERSON_AND_ORGANIZATION_ROLE ( 'classification_officer' ) ;
#9 = COORDINATED_UNIVERSAL_TIME_OFFSET ( 5, 0, .BEHIND. ) ;
#10 = PRODUCT ( 'Web Model 11912_11912', 'Web Model 11912_11912', '', ( #129 ) ) ;
#11 = CC_DESIGN_PERSON_AND_ORGANIZATION_ASSIGNMENT ( #117, #8, ( #57 ) ) ;
#12 = FACE_OUTER_BOUND ( 'NONE', #116, .T. ) ;
#13 = MANIFOLD_SOLID_BREP ( '36936-1-solid1', #142 ) ;
#14 = LINE ( 'NONE', #156, #96 ) ;
#15 = ORIENTED_EDGE ( 'NONE', *, *, #40, .T. ) ;
#16 = FACE_OUTER_BOUND ( 'NONE', #160, .T. ) ;
#17 = APPROVAL ( #82, 'UNSPECIFIED' ) ;
#18 = ORIENTED_EDGE ( 'NONE', *, *, #145, .T. ) ;
#19 = PERSON_AND_ORGANIZATION ( #155, #70 ) ;
#20 = ORIENTED_EDGE ( 'NONE', *, *, #29, .F. ) ;
#21 = ADVANCED_FACE ( 'NONE', ( #12 ), #100, .T. ) ;
#22 = DIRECTION ( 'NONE',  ( 1.000000000000000000, 0.0000000000000000000, 0.0000000000000000000 ) ) ;
#23 =( LENGTH_UNIT ( ) NAMED_UNIT ( * ) SI_UNIT ( .MILLI., .METRE. ) );
#24 = CARTESIAN_POINT ( 'NONE',  ( 0.0000000000000000000, 0.0000000000000000000, 2.500000000000000000 ) ) ;
#25 = ADVANCED_FACE ( 'NONE', ( #16 ), #148, .F. ) ;
#26 = DIRECTION ( 'NONE',  ( -0.0000000000000000000, -0.0000000000000000000, -1.000000000000000000 ) ) ;
#27 = APPROVAL_PERSON_ORGANIZATION ( #98, #126, #159 ) ;
#28 = LOCAL_TIME ( 11, 0, 27.00000000000000000, #63 ) ;
#29 = EDGE_CURVE ( 'NONE', #120, #33, #85, .T. ) ;
#30 = EDGE_LOOP ( 'NONE', ( #172, #123, #162, #2 ) ) ;
#31 = PRODUCT_DEFINITION_SHAPE ( 'NONE', 'NONE',  #115 ) ;
#32 = CALENDAR_DATE ( 2019, 22, 4 ) ;
#33 = VERTEX_POINT ( 'NONE', #5 ) ;
#34 = LOCAL_TIME ( 11, 0, 27.00000000000000000, #92 ) ;
#35 = DIRECTION ( 'NONE',  ( 1.000000000000000000, 0.0000000000000000000, 0.0000000000000000000 ) ) ;
#36 = FACE_OUTER_BOUND ( 'NONE', #74, .T. ) ;
#37 = ADVANCED_FACE ( 'NONE', ( #36 ), #125, .T. ) ;
#38 = CC_DESIGN_APPROVAL ( #175, ( #64 ) ) ;
#39 =( NAMED_UNIT ( * ) PLANE_ANGLE_UNIT ( ) SI_UNIT ( $, .RADIAN. ) );
#40 = EDGE_CURVE ( 'NONE', #118, #131, #56, .T. ) ;
#41 = CARTESIAN_POINT ( 'NONE',  ( 37.49999999999999289, 4.592425496802573578E-15, 2.500000000000000000 ) ) ;
#42 = EDGE_CURVE ( 'NONE', #33, #120, #68, .T. ) ;
#43 = CC_DESIGN_DATE_AND_TIME_ASSIGNMENT ( #97, #54, ( #57 ) ) ;
#44 = APPROVAL_DATE_TIME ( #45, #175 ) ;
#45 = DATE_AND_TIME ( #121, #34 ) ;
#46 = UNCERTAINTY_MEASURE_WITH_UNIT (LENGTH_MEASURE( 1.000000000000000082E-05 ), #23, 'distance_accuracy_value', 'NONE');
#47 = ORIENTED_EDGE ( 'NONE', *, *, #65, .F. ) ;
#48 = DIRECTION ( 'NONE',  ( 0.0000000000000000000, 0.0000000000000000000, 1.000000000000000000 ) ) ;
#49 = DIRECTION ( 'NONE',  ( 0.0000000000000000000, 0.0000000000000000000, 1.000000000000000000 ) ) ;
#50 = DIRECTION ( 'NONE',  ( 1.000000000000000000, 0.0000000000000000000, -0.0000000000000000000 ) ) ;
#51 = COORDINATED_UNIVERSAL_TIME_OFFSET ( 5, 0, .BEHIND. ) ;
#52 = APPLICATION_CONTEXT ( 'configuration controlled 3d designs of mechanical parts and assemblies' ) ;
#53 = APPLICATION_CONTEXT ( 'configuration controlled 3d designs of mechanical parts and assemblies' ) ;
#54 = DATE_TIME_ROLE ( 'classification_date' ) ;
#55 = APPROVAL_ROLE ( '' ) ;
#56 = CIRCLE ( 'NONE', #58, 37.49999999999999289 ) ;
#57 = SECURITY_CLASSIFICATION ( '', '', #91 ) ;
#58 = AXIS2_PLACEMENT_3D ( 'NONE', #88, #48, #136 ) ;
#59 = CC_DESIGN_SECURITY_CLASSIFICATION ( #57, ( #64 ) ) ;
#60 = DESIGN_CONTEXT ( 'detailed design', #53, 'design' ) ;
#61 = PERSON_AND_ORGANIZATION_ROLE ( 'creator' ) ;
#62 = SHAPE_DEFINITION_REPRESENTATION ( #31, #3 ) ;
#63 = COORDINATED_UNIVERSAL_TIME_OFFSET ( 5, 0, .BEHIND. ) ;
#64 = PRODUCT_DEFINITION_FORMATION_WITH_SPECIFIED_SOURCE ( 'ANY', '', #10, .NOT_KNOWN. ) ;
#65 = EDGE_CURVE ( 'NONE', #131, #33, #146, .T. ) ;
#66 = APPROVAL_STATUS ( 'not_yet_approved' ) ;
#67 = PRODUCT_RELATED_PRODUCT_CATEGORY ( 'detail', '', ( #10 ) ) ;
#68 = CIRCLE ( 'NONE', #103, 37.49999999999999289 ) ;
#69 = DATE_AND_TIME ( #139, #107 ) ;
#70 = ORGANIZATION ( 'UNSPECIFIED', 'UNSPECIFIED', '' ) ;
#71 = PERSON_AND_ORGANIZATION ( #155, #70 ) ;
#72 = DIRECTION ( 'NONE',  ( 0.0000000000000000000, 0.0000000000000000000, 1.000000000000000000 ) ) ;
#73 = CARTESIAN_POINT ( 'NONE',  ( 0.0000000000000000000, 0.0000000000000000000, 2.500000000000000000 ) ) ;
#74 = EDGE_LOOP ( 'NONE', ( #47, #149, #18, #86 ) ) ;
#75 = APPROVAL_DATE_TIME ( #104, #17 ) ;
#76 = AXIS2_PLACEMENT_3D ( 'NONE', #73, #153, #122 ) ;
#77 = DATE_TIME_ROLE ( 'creation_date' ) ;
#78 = DIRECTION ( 'NONE',  ( 0.0000000000000000000, 0.0000000000000000000, 1.000000000000000000 ) ) ;
#79 = DIRECTION ( 'NONE',  ( -0.0000000000000000000, -0.0000000000000000000, -1.000000000000000000 ) ) ;
#80 = CARTESIAN_POINT ( 'NONE',  ( -37.49999999999999289, 0.0000000000000000000, -2.500000000000000000 ) ) ;
#81 = APPROVAL_STATUS ( 'not_yet_approved' ) ;
#82 = APPROVAL_STATUS ( 'not_yet_approved' ) ;
#83 = AXIS2_PLACEMENT_3D ( 'NONE', #24, #78, #94 ) ;
#84 = AXIS2_PLACEMENT_3D ( 'NONE', #173, #128, #171 ) ;
#85 = CIRCLE ( 'NONE', #134, 37.49999999999999289 ) ;
#86 = ORIENTED_EDGE ( 'NONE', *, *, #29, .T. ) ;
#87 = APPROVAL_PERSON_ORGANIZATION ( #140, #17, #55 ) ;
#88 = CARTESIAN_POINT ( 'NONE',  ( 0.0000000000000000000, 0.0000000000000000000, 2.500000000000000000 ) ) ;
#89 = APPROVAL_ROLE ( '' ) ;
#90 = CIRCLE ( 'NONE', #83, 37.49999999999999289 ) ;
#91 = SECURITY_CLASSIFICATION_LEVEL ( 'unclassified' ) ;
#92 = COORDINATED_UNIVERSAL_TIME_OFFSET ( 5, 0, .BEHIND. ) ;
#93 = CC_DESIGN_APPROVAL ( #17, ( #57 ) ) ;
#94 = DIRECTION ( 'NONE',  ( 1.000000000000000000, 0.0000000000000000000, 0.0000000000000000000 ) ) ;
#95 = AXIS2_PLACEMENT_3D ( 'NONE', #154, #79, #113 ) ;
#96 = VECTOR ( 'NONE', #26, 1000.000000000000000 ) ;
#97 = DATE_AND_TIME ( #150, #1 ) ;
#98 = PERSON_AND_ORGANIZATION ( #155, #70 ) ;
#99 =( GEOMETRIC_REPRESENTATION_CONTEXT ( 3 ) GLOBAL_UNCERTAINTY_ASSIGNED_CONTEXT ( ( #46 ) ) GLOBAL_UNIT_ASSIGNED_CONTEXT ( ( #23, #39, #141 ) ) REPRESENTATION_CONTEXT ( 'NONE', 'WORKASPACE' ) );
#100 = PLANE ( 'NONE',  #119 ) ;
#101 = DIRECTION ( 'NONE',  ( 0.0000000000000000000, 0.0000000000000000000, 1.000000000000000000 ) ) ;
#102 = ADVANCED_FACE ( 'NONE', ( #161 ), #133, .T. ) ;
#103 = AXIS2_PLACEMENT_3D ( 'NONE', #151, #101, #22 ) ;
#104 = DATE_AND_TIME ( #32, #6 ) ;
#105 = CC_DESIGN_PERSON_AND_ORGANIZATION_ASSIGNMENT ( #71, #127, ( #64 ) ) ;
#106 = ORIENTED_EDGE ( 'NONE', *, *, #42, .F. ) ;
#107 = LOCAL_TIME ( 11, 0, 27.00000000000000000, #132 ) ;
#108 = CC_DESIGN_PERSON_AND_ORGANIZATION_ASSIGNMENT ( #170, #7, ( #10 ) ) ;
#109 = PERSON_AND_ORGANIZATION ( #155, #70 ) ;
#110 = DIRECTION ( 'NONE',  ( 1.000000000000000000, 0.0000000000000000000, -0.0000000000000000000 ) ) ;
#111 = DIRECTION ( 'NONE',  ( -0.0000000000000000000, -0.0000000000000000000, -1.000000000000000000 ) ) ;
#112 = CC_DESIGN_PERSON_AND_ORGANIZATION_ASSIGNMENT ( #167, #158, ( #64 ) ) ;
#113 = DIRECTION ( 'NONE',  ( -1.000000000000000000, 0.0000000000000000000, 0.0000000000000000000 ) ) ;
#114 = APPLICATION_PROTOCOL_DEFINITION ( 'international standard', 'config_control_design', 1994, #53 ) ;
#115 = PRODUCT_DEFINITION ( 'UNKNOWN', '', #64, #60 ) ;
#116 = EDGE_LOOP ( 'NONE', ( #15, #166 ) ) ;
#117 = PERSON_AND_ORGANIZATION ( #155, #70 ) ;
#118 = VERTEX_POINT ( 'NONE', #138 ) ;
#119 = AXIS2_PLACEMENT_3D ( 'NONE', #152, #169, #50 ) ;
#120 = VERTEX_POINT ( 'NONE', #80 ) ;
#121 = CALENDAR_DATE ( 2019, 22, 4 ) ;
#122 = DIRECTION ( 'NONE',  ( -1.000000000000000000, 0.0000000000000000000, 0.0000000000000000000 ) ) ;
#123 = ORIENTED_EDGE ( 'NONE', *, *, #65, .T. ) ;
#124 = APPLICATION_PROTOCOL_DEFINITION ( 'international standard', 'config_control_design', 1994, #52 ) ;
#125 = CYLINDRICAL_SURFACE ( 'NONE', #76, 37.49999999999999289 ) ;
#126 = APPROVAL ( #66, 'UNSPECIFIED' ) ;
#127 = PERSON_AND_ORGANIZATION_ROLE ( 'design_supplier' ) ;
#128 = DIRECTION ( 'NONE',  ( 0.0000000000000000000, 0.0000000000000000000, 1.000000000000000000 ) ) ;
#129 = MECHANICAL_CONTEXT ( 'NONE', #52, 'mechanical' ) ;
#130 = APPROVAL_DATE_TIME ( #69, #126 ) ;
#131 = VERTEX_POINT ( 'NONE', #41 ) ;
#132 = COORDINATED_UNIVERSAL_TIME_OFFSET ( 5, 0, .BEHIND. ) ;
#133 = CYLINDRICAL_SURFACE ( 'NONE', #95, 37.49999999999999289 ) ;
#134 = AXIS2_PLACEMENT_3D ( 'NONE', #168, #72, #35 ) ;
#135 = EDGE_CURVE ( 'NONE', #131, #118, #90, .T. ) ;
#136 = DIRECTION ( 'NONE',  ( 1.000000000000000000, 0.0000000000000000000, 0.0000000000000000000 ) ) ;
#137 = CARTESIAN_POINT ( 'NONE',  ( 0.0000000000000000000, 0.0000000000000000000, -2.500000000000000000 ) ) ;
#138 = CARTESIAN_POINT ( 'NONE',  ( -37.49999999999999289, 0.0000000000000000000, 2.500000000000000000 ) ) ;
#139 = CALENDAR_DATE ( 2019, 22, 4 ) ;
#140 = PERSON_AND_ORGANIZATION ( #155, #70 ) ;
#141 =( NAMED_UNIT ( * ) SI_UNIT ( $, .STERADIAN. ) SOLID_ANGLE_UNIT ( ) );
#142 = CLOSED_SHELL ( 'NONE', ( #102, #37, #21, #25 ) ) ;
#143 = APPROVAL_PERSON_ORGANIZATION ( #19, #175, #89 ) ;
#144 = CC_DESIGN_APPROVAL ( #126, ( #115 ) ) ;
#145 = EDGE_CURVE ( 'NONE', #118, #120, #14, .T. ) ;
#146 = LINE ( 'NONE', #4, #164 ) ;
#147 = AXIS2_PLACEMENT_3D ( 'NONE', #137, #49, #110 ) ;
#148 = PLANE ( 'NONE',  #147 ) ;
#149 = ORIENTED_EDGE ( 'NONE', *, *, #40, .F. ) ;
#150 = CALENDAR_DATE ( 2019, 22, 4 ) ;
#151 = CARTESIAN_POINT ( 'NONE',  ( 0.0000000000000000000, 0.0000000000000000000, -2.500000000000000000 ) ) ;
#152 = CARTESIAN_POINT ( 'NONE',  ( 0.0000000000000000000, 0.0000000000000000000, 2.500000000000000000 ) ) ;
#153 = DIRECTION ( 'NONE',  ( -0.0000000000000000000, -0.0000000000000000000, -1.000000000000000000 ) ) ;
#154 = CARTESIAN_POINT ( 'NONE',  ( 0.0000000000000000000, 0.0000000000000000000, 2.500000000000000000 ) ) ;
#155 = PERSON ( 'UNSPECIFIED', 'UNSPECIFIED', 'UNSPECIFIED', ('UNSPECIFIED'), ('UNSPECIFIED'), ('UNSPECIFIED') ) ;
#156 = CARTESIAN_POINT ( 'NONE',  ( -37.49999999999999289, 0.0000000000000000000, 2.500000000000000000 ) ) ;
#157 = CC_DESIGN_PERSON_AND_ORGANIZATION_ASSIGNMENT ( #109, #61, ( #115 ) ) ;
#158 = PERSON_AND_ORGANIZATION_ROLE ( 'creator' ) ;
#159 = APPROVAL_ROLE ( '' ) ;
#160 = EDGE_LOOP ( 'NONE', ( #20, #106 ) ) ;
#161 = FACE_OUTER_BOUND ( 'NONE', #30, .T. ) ;
#162 = ORIENTED_EDGE ( 'NONE', *, *, #42, .T. ) ;
#163 = DATE_AND_TIME ( #174, #28 ) ;
#164 = VECTOR ( 'NONE', #111, 1000.000000000000000 ) ;
#165 = CC_DESIGN_DATE_AND_TIME_ASSIGNMENT ( #163, #77, ( #115 ) ) ;
#166 = ORIENTED_EDGE ( 'NONE', *, *, #135, .T. ) ;
#167 = PERSON_AND_ORGANIZATION ( #155, #70 ) ;
#168 = CARTESIAN_POINT ( 'NONE',  ( 0.0000000000000000000, 0.0000000000000000000, -2.500000000000000000 ) ) ;
#169 = DIRECTION ( 'NONE',  ( 0.0000000000000000000, 0.0000000000000000000, 1.000000000000000000 ) ) ;
#170 = PERSON_AND_ORGANIZATION ( #155, #70 ) ;
#171 = DIRECTION ( 'NONE',  ( 1.000000000000000000, 0.0000000000000000000, 0.0000000000000000000 ) ) ;
#172 = ORIENTED_EDGE ( 'NONE', *, *, #135, .F. ) ;
#173 = CARTESIAN_POINT ( 'NONE',  ( 0.0000000000000000000, 0.0000000000000000000, 0.0000000000000000000 ) ) ;
#174 = CALENDAR_DATE ( 2019, 22, 4 ) ;
#175 = APPROVAL ( #81, 'UNSPECIFIED' ) ;
ENDSEC;
END-ISO-10303-21;
