ISO-10303-21;
HEADER;
FILE_DESCRIPTION (( 'STEP AP203' ),
    '1' );
FILE_NAME ('Web Model 62606_37073.step',
    '2017-09-06T15:10:44',
    ( '' ),
    ( '' ),
    'SwSTEP 2.0',
    'SolidWorks 2016',
    '' );
FILE_SCHEMA (( 'CONFIG_CONTROL_DESIGN' ));
ENDSEC;

DATA;
#1 = COORDINATED_UNIVERSAL_TIME_OFFSET ( 5, 0, .BEHIND. ) ;
#2 = ORIENTED_EDGE ( 'NONE', *, *, #124, .T. ) ;
#3 = UNCERTAINTY_MEASURE_WITH_UNIT (LENGTH_MEASURE( 1.000000000000000100E-005 ), #48, 'distance_accuracy_value', 'NONE');
#4 = DIRECTION ( 'NONE',  ( 0.0000000000000000000, 0.0000000000000000000, 1.000000000000000000 ) ) ;
#5 = APPROVAL ( #103, 'UNSPECIFIED' ) ;
#6 = APPROVAL_PERSON_ORGANIZATION ( #71, #5, #65 ) ;
#7 = COORDINATED_UNIVERSAL_TIME_OFFSET ( 5, 0, .BEHIND. ) ;
#8 = ORIENTED_EDGE ( 'NONE', *, *, #69, .T. ) ;
#9 = DIRECTION ( 'NONE',  ( 1.000000000000000000, 0.0000000000000000000, 0.0000000000000000000 ) ) ;
#10 = CARTESIAN_POINT ( 'NONE',  ( 0.0000000000000000000, 0.0000000000000000000, 4.000000000000000000 ) ) ;
#11 = CIRCLE ( 'NONE', #169, 37.50000000000000700 ) ;
#12 = APPROVAL_DATE_TIME ( #159, #149 ) ;
#13 = ORIENTED_EDGE ( 'NONE', *, *, #69, .F. ) ;
#14 = CC_DESIGN_APPROVAL ( #5, ( #99 ) ) ;
#15 = PERSON_AND_ORGANIZATION ( #157, #174 ) ;
#16 = FACE_OUTER_BOUND ( 'NONE', #57, .T. ) ;
#17 = EDGE_CURVE ( 'NONE', #80, #25, #49, .T. ) ;
#18 = PLANE ( 'NONE',  #51 ) ;
#19 = DIRECTION ( 'NONE',  ( -0.0000000000000000000, -0.0000000000000000000, -1.000000000000000000 ) ) ;
#20 = PLANE ( 'NONE',  #82 ) ;
#21 = PERSON_AND_ORGANIZATION_ROLE ( 'design_owner' ) ;
#22 = LOCAL_TIME ( 11, 10, 44.00000000000000000, #1 ) ;
#23 = LINE ( 'NONE', #156, #162 ) ;
#24 = PERSON_AND_ORGANIZATION_ROLE ( 'classification_officer' ) ;
#25 = VERTEX_POINT ( 'NONE', #50 ) ;
#26 = CARTESIAN_POINT ( 'NONE',  ( 0.0000000000000000000, 0.0000000000000000000, 0.0000000000000000000 ) ) ;
#27 = EDGE_CURVE ( 'NONE', #98, #80, #95, .T. ) ;
#28 = ORIENTED_EDGE ( 'NONE', *, *, #116, .F. ) ;
#29 = DATE_AND_TIME ( #126, #41 ) ;
#30 = EDGE_CURVE ( 'NONE', #88, #25, #23, .T. ) ;
#31 = PRODUCT_DEFINITION ( 'UNKNOWN', '', #61, #89 ) ;
#32 = DIRECTION ( 'NONE',  ( 0.0000000000000000000, 0.0000000000000000000, 1.000000000000000000 ) ) ;
#33 = AXIS2_PLACEMENT_3D ( 'NONE', #107, #90, #9 ) ;
#34 = CARTESIAN_POINT ( 'NONE',  ( 0.0000000000000000000, 0.0000000000000000000, 4.000000000000000000 ) ) ;
#35 = CARTESIAN_POINT ( 'NONE',  ( 0.0000000000000000000, 0.0000000000000000000, 4.000000000000000000 ) ) ;
#36 = PERSON_AND_ORGANIZATION_ROLE ( 'design_supplier' ) ;
#37 = PRODUCT_DEFINITION_SHAPE ( 'NONE', 'NONE',  #31 ) ;
#38 = PERSON_AND_ORGANIZATION_ROLE ( 'creator' ) ;
#39 = DATE_TIME_ROLE ( 'classification_date' ) ;
#40 = ADVANCED_FACE ( 'NONE', ( #139 ), #43, .T. ) ;
#41 = LOCAL_TIME ( 11, 10, 44.00000000000000000, #138 ) ;
#42 = AXIS2_PLACEMENT_3D ( 'NONE', #35, #167, #140 ) ;
#43 = CYLINDRICAL_SURFACE ( 'NONE', #125, 37.50000000000000700 ) ;
#44 = CC_DESIGN_SECURITY_CLASSIFICATION ( #99, ( #61 ) ) ;
#45 = APPROVAL_DATE_TIME ( #106, #5 ) ;
#46 = PERSON_AND_ORGANIZATION ( #157, #174 ) ;
#47 = ORIENTED_EDGE ( 'NONE', *, *, #124, .F. ) ;
#48 =( LENGTH_UNIT ( ) NAMED_UNIT ( * ) SI_UNIT ( .MILLI., .METRE. ) );
#49 = CIRCLE ( 'NONE', #60, 37.50000000000000700 ) ;
#50 = CARTESIAN_POINT ( 'NONE',  ( 37.50000000000000700, 4.592425496802575200E-015, 0.0000000000000000000 ) ) ;
#51 = AXIS2_PLACEMENT_3D ( 'NONE', #10, #104, #160 ) ;
#52 = APPROVAL_PERSON_ORGANIZATION ( #152, #149, #54 ) ;
#53 = ORIENTED_EDGE ( 'NONE', *, *, #27, .T. ) ;
#54 = APPROVAL_ROLE ( '' ) ;
#55 = CC_DESIGN_DATE_AND_TIME_ASSIGNMENT ( #29, #121, ( #31 ) ) ;
#56 = APPLICATION_CONTEXT ( 'configuration controlled 3d designs of mechanical parts and assemblies' ) ;
#57 = EDGE_LOOP ( 'NONE', ( #62, #13, #53, #120 ) ) ;
#58 = PRODUCT_RELATED_PRODUCT_CATEGORY ( 'detail', '', ( #153 ) ) ;
#59 = CALENDAR_DATE ( 2017, 6, 9 ) ;
#60 = AXIS2_PLACEMENT_3D ( 'NONE', #73, #154, #100 ) ;
#61 = PRODUCT_DEFINITION_FORMATION_WITH_SPECIFIED_SOURCE ( 'ANY', '', #153, .NOT_KNOWN. ) ;
#62 = ORIENTED_EDGE ( 'NONE', *, *, #30, .F. ) ;
#63 = CARTESIAN_POINT ( 'NONE',  ( 0.0000000000000000000, 0.0000000000000000000, 4.000000000000000000 ) ) ;
#64 = SECURITY_CLASSIFICATION_LEVEL ( 'unclassified' ) ;
#65 = APPROVAL_ROLE ( '' ) ;
#66 = APPROVAL_PERSON_ORGANIZATION ( #150, #85, #145 ) ;
#67 = CC_DESIGN_PERSON_AND_ORGANIZATION_ASSIGNMENT ( #102, #38, ( #61 ) ) ;
#68 = CALENDAR_DATE ( 2017, 6, 9 ) ;
#69 = EDGE_CURVE ( 'NONE', #98, #88, #137, .T. ) ;
#70 = SHAPE_DEFINITION_REPRESENTATION ( #37, #96 ) ;
#71 = PERSON_AND_ORGANIZATION ( #157, #174 ) ;
#72 = VECTOR ( 'NONE', #19, 1000.000000000000000 ) ;
#73 = CARTESIAN_POINT ( 'NONE',  ( 0.0000000000000000000, 0.0000000000000000000, 0.0000000000000000000 ) ) ;
#74 = DIRECTION ( 'NONE',  ( 1.000000000000000000, 0.0000000000000000000, 0.0000000000000000000 ) ) ;
#75 =( NAMED_UNIT ( * ) SI_UNIT ( $, .STERADIAN. ) SOLID_ANGLE_UNIT ( ) );
#76 = CC_DESIGN_PERSON_AND_ORGANIZATION_ASSIGNMENT ( #15, #21, ( #153 ) ) ;
#77 = MANIFOLD_SOLID_BREP ( 'Extrude1', #155 ) ;
#78 = APPROVAL_STATUS ( 'not_yet_approved' ) ;
#79 = LOCAL_TIME ( 11, 10, 44.00000000000000000, #7 ) ;
#80 = VERTEX_POINT ( 'NONE', #130 ) ;
#81 = DATE_AND_TIME ( #147, #119 ) ;
#82 = AXIS2_PLACEMENT_3D ( 'NONE', #86, #4, #117 ) ;
#83 = CC_DESIGN_APPROVAL ( #149, ( #31 ) ) ;
#84 = CYLINDRICAL_SURFACE ( 'NONE', #42, 37.50000000000000700 ) ;
#85 = APPROVAL ( #78, 'UNSPECIFIED' ) ;
#86 = CARTESIAN_POINT ( 'NONE',  ( 0.0000000000000000000, 0.0000000000000000000, 0.0000000000000000000 ) ) ;
#87 = ORIENTED_EDGE ( 'NONE', *, *, #27, .F. ) ;
#88 = VERTEX_POINT ( 'NONE', #168 ) ;
#89 = DESIGN_CONTEXT ( 'detailed design', #56, 'design' ) ;
#90 = DIRECTION ( 'NONE',  ( 0.0000000000000000000, 0.0000000000000000000, 1.000000000000000000 ) ) ;
#91 = CC_DESIGN_PERSON_AND_ORGANIZATION_ASSIGNMENT ( #161, #36, ( #61 ) ) ;
#92 = ADVANCED_FACE ( 'NONE', ( #127 ), #20, .F. ) ;
#93 = CC_DESIGN_PERSON_AND_ORGANIZATION_ASSIGNMENT ( #170, #136, ( #31 ) ) ;
#94 = CALENDAR_DATE ( 2017, 6, 9 ) ;
#95 = LINE ( 'NONE', #166, #72 ) ;
#96 = ADVANCED_BREP_SHAPE_REPRESENTATION ( 'Web Model 62606_37073', ( #77, #33 ), #175 ) ;
#97 = LOCAL_TIME ( 11, 10, 44.00000000000000000, #141 ) ;
#98 = VERTEX_POINT ( 'NONE', #131 ) ;
#99 = SECURITY_CLASSIFICATION ( '', '', #64 ) ;
#100 = DIRECTION ( 'NONE',  ( 1.000000000000000000, 0.0000000000000000000, 0.0000000000000000000 ) ) ;
#101 = DIRECTION ( 'NONE',  ( -0.0000000000000000000, -0.0000000000000000000, -1.000000000000000000 ) ) ;
#102 = PERSON_AND_ORGANIZATION ( #157, #174 ) ;
#103 = APPROVAL_STATUS ( 'not_yet_approved' ) ;
#104 = DIRECTION ( 'NONE',  ( 0.0000000000000000000, 0.0000000000000000000, 1.000000000000000000 ) ) ;
#105 = MECHANICAL_CONTEXT ( 'NONE', #146, 'mechanical' ) ;
#106 = DATE_AND_TIME ( #94, #97 ) ;
#107 = CARTESIAN_POINT ( 'NONE',  ( 0.0000000000000000000, 0.0000000000000000000, 0.0000000000000000000 ) ) ;
#108 = ADVANCED_FACE ( 'NONE', ( #16 ), #84, .T. ) ;
#109 = APPROVAL_STATUS ( 'not_yet_approved' ) ;
#110 = DATE_AND_TIME ( #68, #79 ) ;
#111 = FACE_OUTER_BOUND ( 'NONE', #171, .T. ) ;
#112 = COORDINATED_UNIVERSAL_TIME_OFFSET ( 5, 0, .BEHIND. ) ;
#113 = DIRECTION ( 'NONE',  ( -0.0000000000000000000, -0.0000000000000000000, -1.000000000000000000 ) ) ;
#114 = CARTESIAN_POINT ( 'NONE',  ( 0.0000000000000000000, 0.0000000000000000000, 4.000000000000000000 ) ) ;
#115 = APPROVAL_DATE_TIME ( #81, #85 ) ;
#116 = EDGE_CURVE ( 'NONE', #88, #98, #132, .T. ) ;
#117 = DIRECTION ( 'NONE',  ( 1.000000000000000000, 0.0000000000000000000, -0.0000000000000000000 ) ) ;
#118 = DIRECTION ( 'NONE',  ( 1.000000000000000000, 0.0000000000000000000, 0.0000000000000000000 ) ) ;
#119 = LOCAL_TIME ( 11, 10, 44.00000000000000000, #112 ) ;
#120 = ORIENTED_EDGE ( 'NONE', *, *, #17, .T. ) ;
#121 = DATE_TIME_ROLE ( 'creation_date' ) ;
#122 = AXIS2_PLACEMENT_3D ( 'NONE', #63, #164, #74 ) ;
#123 = ORIENTED_EDGE ( 'NONE', *, *, #17, .F. ) ;
#124 = EDGE_CURVE ( 'NONE', #25, #80, #11, .T. ) ;
#125 = AXIS2_PLACEMENT_3D ( 'NONE', #34, #113, #144 ) ;
#126 = CALENDAR_DATE ( 2017, 6, 9 ) ;
#127 = FACE_OUTER_BOUND ( 'NONE', #143, .T. ) ;
#128 = DIRECTION ( 'NONE',  ( 1.000000000000000000, 0.0000000000000000000, 0.0000000000000000000 ) ) ;
#129 = AXIS2_PLACEMENT_3D ( 'NONE', #114, #32, #128 ) ;
#130 = CARTESIAN_POINT ( 'NONE',  ( -37.50000000000000700, 0.0000000000000000000, 0.0000000000000000000 ) ) ;
#131 = CARTESIAN_POINT ( 'NONE',  ( -37.50000000000000700, 0.0000000000000000000, 4.000000000000000000 ) ) ;
#132 = CIRCLE ( 'NONE', #129, 37.50000000000000700 ) ;
#133 = APPLICATION_PROTOCOL_DEFINITION ( 'international standard', 'config_control_design', 1994, #146 ) ;
#134 = CC_DESIGN_APPROVAL ( #85, ( #61 ) ) ;
#135 = ADVANCED_FACE ( 'NONE', ( #111 ), #18, .T. ) ;
#136 = PERSON_AND_ORGANIZATION_ROLE ( 'creator' ) ;
#137 = CIRCLE ( 'NONE', #122, 37.50000000000000700 ) ;
#138 = COORDINATED_UNIVERSAL_TIME_OFFSET ( 5, 0, .BEHIND. ) ;
#139 = FACE_OUTER_BOUND ( 'NONE', #173, .T. ) ;
#140 = DIRECTION ( 'NONE',  ( -1.000000000000000000, 0.0000000000000000000, 0.0000000000000000000 ) ) ;
#141 = COORDINATED_UNIVERSAL_TIME_OFFSET ( 5, 0, .BEHIND. ) ;
#142 = CC_DESIGN_DATE_AND_TIME_ASSIGNMENT ( #110, #39, ( #99 ) ) ;
#143 = EDGE_LOOP ( 'NONE', ( #123, #47 ) ) ;
#144 = DIRECTION ( 'NONE',  ( -1.000000000000000000, 0.0000000000000000000, 0.0000000000000000000 ) ) ;
#145 = APPROVAL_ROLE ( '' ) ;
#146 = APPLICATION_CONTEXT ( 'configuration controlled 3d designs of mechanical parts and assemblies' ) ;
#147 = CALENDAR_DATE ( 2017, 6, 9 ) ;
#148 = APPLICATION_PROTOCOL_DEFINITION ( 'international standard', 'config_control_design', 1994, #56 ) ;
#149 = APPROVAL ( #109, 'UNSPECIFIED' ) ;
#150 = PERSON_AND_ORGANIZATION ( #157, #174 ) ;
#151 = ORIENTED_EDGE ( 'NONE', *, *, #30, .T. ) ;
#152 = PERSON_AND_ORGANIZATION ( #157, #174 ) ;
#153 = PRODUCT ( 'Web Model 62606_37073', 'Web Model 62606_37073', '', ( #105 ) ) ;
#154 = DIRECTION ( 'NONE',  ( 0.0000000000000000000, 0.0000000000000000000, 1.000000000000000000 ) ) ;
#155 = CLOSED_SHELL ( 'NONE', ( #40, #108, #135, #92 ) ) ;
#156 = CARTESIAN_POINT ( 'NONE',  ( 37.50000000000000700, 4.592425496802575200E-015, 4.000000000000000000 ) ) ;
#157 = PERSON ( 'UNSPECIFIED', 'UNSPECIFIED', 'UNSPECIFIED', ('UNSPECIFIED'), ('UNSPECIFIED'), ('UNSPECIFIED') ) ;
#158 =( NAMED_UNIT ( * ) PLANE_ANGLE_UNIT ( ) SI_UNIT ( $, .RADIAN. ) );
#159 = DATE_AND_TIME ( #59, #22 ) ;
#160 = DIRECTION ( 'NONE',  ( 1.000000000000000000, 0.0000000000000000000, -0.0000000000000000000 ) ) ;
#161 = PERSON_AND_ORGANIZATION ( #157, #174 ) ;
#162 = VECTOR ( 'NONE', #101, 1000.000000000000000 ) ;
#163 = CC_DESIGN_PERSON_AND_ORGANIZATION_ASSIGNMENT ( #46, #24, ( #99 ) ) ;
#164 = DIRECTION ( 'NONE',  ( 0.0000000000000000000, 0.0000000000000000000, 1.000000000000000000 ) ) ;
#165 = ORIENTED_EDGE ( 'NONE', *, *, #116, .T. ) ;
#166 = CARTESIAN_POINT ( 'NONE',  ( -37.50000000000000700, 0.0000000000000000000, 4.000000000000000000 ) ) ;
#167 = DIRECTION ( 'NONE',  ( -0.0000000000000000000, -0.0000000000000000000, -1.000000000000000000 ) ) ;
#168 = CARTESIAN_POINT ( 'NONE',  ( 37.50000000000000700, 4.592425496802575200E-015, 4.000000000000000000 ) ) ;
#169 = AXIS2_PLACEMENT_3D ( 'NONE', #26, #172, #118 ) ;
#170 = PERSON_AND_ORGANIZATION ( #157, #174 ) ;
#171 = EDGE_LOOP ( 'NONE', ( #8, #165 ) ) ;
#172 = DIRECTION ( 'NONE',  ( 0.0000000000000000000, 0.0000000000000000000, 1.000000000000000000 ) ) ;
#173 = EDGE_LOOP ( 'NONE', ( #28, #151, #2, #87 ) ) ;
#174 = ORGANIZATION ( 'UNSPECIFIED', 'UNSPECIFIED', '' ) ;
#175 =( GEOMETRIC_REPRESENTATION_CONTEXT ( 3 ) GLOBAL_UNCERTAINTY_ASSIGNED_CONTEXT ( ( #3 ) ) GLOBAL_UNIT_ASSIGNED_CONTEXT ( ( #48, #158, #75 ) ) REPRESENTATION_CONTEXT ( 'NONE', 'WORKASPACE' ) );
ENDSEC;
END-ISO-10303-21;
