ISO-10303-21;
HEADER;
FILE_DESCRIPTION (( 'STEP AP203' ),
    '1' );
FILE_NAME ('Web Model 34599_13359.step',
    '2020-11-04T13:29:52',
    ( '' ),
    ( '' ),
    'SwSTEP 2.0',
    'SolidWorks 2018',
    '' );
FILE_SCHEMA (( 'CONFIG_CONTROL_DESIGN' ));
ENDSEC;

DATA;
#1 = CIRCLE ( 'NONE', #121, 25.00000000000000000 ) ;
#2 = DATE_TIME_ROLE ( 'creation_date' ) ;
#3 = ADVANCED_BREP_SHAPE_REPRESENTATION ( 'Web Model 34599_13359', ( #83, #124 ), #143 ) ;
#4 = APPROVAL ( #110, 'UNSPECIFIED' ) ;
#5 = VERTEX_POINT ( 'NONE', #35 ) ;
#6 = AXIS2_PLACEMENT_3D ( 'NONE', #105, #104, #120 ) ;
#7 = DIRECTION ( 'NONE',  ( -1.000000000000000000, 0.0000000000000000000, 0.0000000000000000000 ) ) ;
#8 = ORIENTED_EDGE ( 'NONE', *, *, #170, .F. ) ;
#9 = LOCAL_TIME ( 8, 29, 52.00000000000000000, #73 ) ;
#10 = LOCAL_TIME ( 8, 29, 52.00000000000000000, #134 ) ;
#11 = DIRECTION ( 'NONE',  ( -0.0000000000000000000, -0.0000000000000000000, -1.000000000000000000 ) ) ;
#12 =( LENGTH_UNIT ( ) NAMED_UNIT ( * ) SI_UNIT ( .MILLI., .METRE. ) );
#13 = EDGE_CURVE ( 'NONE', #156, #5, #116, .T. ) ;
#14 = AXIS2_PLACEMENT_3D ( 'NONE', #61, #161, #164 ) ;
#15 = EDGE_LOOP ( 'NONE', ( #77, #127 ) ) ;
#16 = CALENDAR_DATE ( 2020, 4, 11 ) ;
#17 = CALENDAR_DATE ( 2020, 4, 11 ) ;
#18 = EDGE_CURVE ( 'NONE', #114, #156, #89, .T. ) ;
#19 = CIRCLE ( 'NONE', #14, 25.00000000000000000 ) ;
#20 = DIRECTION ( 'NONE',  ( 1.000000000000000000, 0.0000000000000000000, 0.0000000000000000000 ) ) ;
#21 = CC_DESIGN_PERSON_AND_ORGANIZATION_ASSIGNMENT ( #95, #165, ( #142 ) ) ;
#22 = DIRECTION ( 'NONE',  ( -0.0000000000000000000, -0.0000000000000000000, -1.000000000000000000 ) ) ;
#23 = CC_DESIGN_PERSON_AND_ORGANIZATION_ASSIGNMENT ( #175, #111, ( #40 ) ) ;
#24 = PERSON_AND_ORGANIZATION ( #41, #60 ) ;
#25 = CC_DESIGN_APPROVAL ( #97, ( #152 ) ) ;
#26 = APPROVAL_ROLE ( '' ) ;
#27 = EDGE_CURVE ( 'NONE', #114, #30, #1, .T. ) ;
#28 = PERSON_AND_ORGANIZATION ( #41, #60 ) ;
#29 = PERSON_AND_ORGANIZATION_ROLE ( 'creator' ) ;
#30 = VERTEX_POINT ( 'NONE', #38 ) ;
#31 = FACE_OUTER_BOUND ( 'NONE', #107, .T. ) ;
#32 = ADVANCED_FACE ( 'NONE', ( #129 ), #144, .T. ) ;
#33 = AXIS2_PLACEMENT_3D ( 'NONE', #46, #103, #20 ) ;
#34 = DIRECTION ( 'NONE',  ( 1.000000000000000000, 0.0000000000000000000, -0.0000000000000000000 ) ) ;
#35 = CARTESIAN_POINT ( 'NONE',  ( 25.00000000000000000, 3.061616997868383043E-15, -0.5000000000000000000 ) ) ;
#36 = CC_DESIGN_DATE_AND_TIME_ASSIGNMENT ( #157, #167, ( #152 ) ) ;
#37 = EDGE_CURVE ( 'NONE', #30, #5, #141, .T. ) ;
#38 = CARTESIAN_POINT ( 'NONE',  ( 25.00000000000000000, 3.061616997868383043E-15, 0.5000000000000000000 ) ) ;
#39 = CC_DESIGN_SECURITY_CLASSIFICATION ( #152, ( #87 ) ) ;
#40 = PRODUCT_DEFINITION ( 'UNKNOWN', '', #87, #67 ) ;
#41 = PERSON ( 'UNSPECIFIED', 'UNSPECIFIED', 'UNSPECIFIED', ('UNSPECIFIED'), ('UNSPECIFIED'), ('UNSPECIFIED') ) ;
#42 = ORIENTED_EDGE ( 'NONE', *, *, #18, .T. ) ;
#43 = APPROVAL ( #151, 'UNSPECIFIED' ) ;
#44 = DIRECTION ( 'NONE',  ( -0.0000000000000000000, -0.0000000000000000000, -1.000000000000000000 ) ) ;
#45 = CC_DESIGN_APPROVAL ( #4, ( #87 ) ) ;
#46 = CARTESIAN_POINT ( 'NONE',  ( 0.0000000000000000000, 0.0000000000000000000, -0.5000000000000000000 ) ) ;
#47 = PLANE ( 'NONE',  #113 ) ;
#48 = ORIENTED_EDGE ( 'NONE', *, *, #71, .T. ) ;
#49 = DATE_AND_TIME ( #17, #10 ) ;
#50 = APPLICATION_CONTEXT ( 'configuration controlled 3d designs of mechanical parts and assemblies' ) ;
#51 = APPLICATION_CONTEXT ( 'configuration controlled 3d designs of mechanical parts and assemblies' ) ;
#52 = COORDINATED_UNIVERSAL_TIME_OFFSET ( 5, 0, .BEHIND. ) ;
#53 = EDGE_LOOP ( 'NONE', ( #150, #169, #42, #91 ) ) ;
#54 = SECURITY_CLASSIFICATION_LEVEL ( 'unclassified' ) ;
#55 = EDGE_LOOP ( 'NONE', ( #8, #81, #48, #148 ) ) ;
#56 = CC_DESIGN_PERSON_AND_ORGANIZATION_ASSIGNMENT ( #159, #75, ( #152 ) ) ;
#57 = APPROVAL_PERSON_ORGANIZATION ( #28, #97, #26 ) ;
#58 = VECTOR ( 'NONE', #22, 1000.000000000000000 ) ;
#59 = DIRECTION ( 'NONE',  ( 1.000000000000000000, 0.0000000000000000000, 0.0000000000000000000 ) ) ;
#60 = ORGANIZATION ( 'UNSPECIFIED', 'UNSPECIFIED', '' ) ;
#61 = CARTESIAN_POINT ( 'NONE',  ( 0.0000000000000000000, 0.0000000000000000000, 0.5000000000000000000 ) ) ;
#62 = CARTESIAN_POINT ( 'NONE',  ( 0.0000000000000000000, 0.0000000000000000000, -0.5000000000000000000 ) ) ;
#63 = UNCERTAINTY_MEASURE_WITH_UNIT (LENGTH_MEASURE( 1.000000000000000082E-05 ), #12, 'distance_accuracy_value', 'NONE');
#64 = ADVANCED_FACE ( 'NONE', ( #106 ), #47, .T. ) ;
#65 = DATE_AND_TIME ( #117, #137 ) ;
#66 = CARTESIAN_POINT ( 'NONE',  ( 0.0000000000000000000, 0.0000000000000000000, 0.5000000000000000000 ) ) ;
#67 = DESIGN_CONTEXT ( 'detailed design', #51, 'design' ) ;
#68 =( NAMED_UNIT ( * ) SI_UNIT ( $, .STERADIAN. ) SOLID_ANGLE_UNIT ( ) );
#69 = LOCAL_TIME ( 8, 29, 52.00000000000000000, #52 ) ;
#70 = ORIENTED_EDGE ( 'NONE', *, *, #71, .F. ) ;
#71 = EDGE_CURVE ( 'NONE', #5, #156, #119, .T. ) ;
#72 = DATE_AND_TIME ( #101, #69 ) ;
#73 = COORDINATED_UNIVERSAL_TIME_OFFSET ( 5, 0, .BEHIND. ) ;
#74 = FACE_OUTER_BOUND ( 'NONE', #53, .T. ) ;
#75 = PERSON_AND_ORGANIZATION_ROLE ( 'classification_officer' ) ;
#76 = LOCAL_TIME ( 8, 29, 52.00000000000000000, #98 ) ;
#77 = ORIENTED_EDGE ( 'NONE', *, *, #27, .T. ) ;
#78 = CARTESIAN_POINT ( 'NONE',  ( 25.00000000000000000, 3.061616997868383043E-15, 0.5000000000000000000 ) ) ;
#79 = CARTESIAN_POINT ( 'NONE',  ( -25.00000000000000000, 0.0000000000000000000, -0.5000000000000000000 ) ) ;
#80 = CARTESIAN_POINT ( 'NONE',  ( -25.00000000000000000, 0.0000000000000000000, 0.5000000000000000000 ) ) ;
#81 = ORIENTED_EDGE ( 'NONE', *, *, #37, .T. ) ;
#82 = DIRECTION ( 'NONE',  ( 1.000000000000000000, 0.0000000000000000000, 0.0000000000000000000 ) ) ;
#83 = MANIFOLD_SOLID_BREP ( 'Boss-Extrude1', #96 ) ;
#84 = PERSON_AND_ORGANIZATION ( #41, #60 ) ;
#85 = PERSON_AND_ORGANIZATION_ROLE ( 'design_supplier' ) ;
#86 = ORIENTED_EDGE ( 'NONE', *, *, #13, .F. ) ;
#87 = PRODUCT_DEFINITION_FORMATION_WITH_SPECIFIED_SOURCE ( 'ANY', '', #142, .NOT_KNOWN. ) ;
#88 = APPROVAL_PERSON_ORGANIZATION ( #24, #4, #123 ) ;
#89 = LINE ( 'NONE', #80, #58 ) ;
#90 = ADVANCED_FACE ( 'NONE', ( #31 ), #147, .F. ) ;
#91 = ORIENTED_EDGE ( 'NONE', *, *, #13, .T. ) ;
#92 = AXIS2_PLACEMENT_3D ( 'NONE', #160, #93, #59 ) ;
#93 = DIRECTION ( 'NONE',  ( 0.0000000000000000000, 0.0000000000000000000, 1.000000000000000000 ) ) ;
#94 = CALENDAR_DATE ( 2020, 4, 11 ) ;
#95 = PERSON_AND_ORGANIZATION ( #41, #60 ) ;
#96 = CLOSED_SHELL ( 'NONE', ( #32, #146, #64, #90 ) ) ;
#97 = APPROVAL ( #138, 'UNSPECIFIED' ) ;
#98 = COORDINATED_UNIVERSAL_TIME_OFFSET ( 5, 0, .BEHIND. ) ;
#99 = APPROVAL_PERSON_ORGANIZATION ( #172, #43, #153 ) ;
#100 = DATE_AND_TIME ( #16, #9 ) ;
#101 = CALENDAR_DATE ( 2020, 4, 11 ) ;
#102 = PERSON_AND_ORGANIZATION ( #41, #60 ) ;
#103 = DIRECTION ( 'NONE',  ( 0.0000000000000000000, 0.0000000000000000000, 1.000000000000000000 ) ) ;
#104 = DIRECTION ( 'NONE',  ( -0.0000000000000000000, -0.0000000000000000000, -1.000000000000000000 ) ) ;
#105 = CARTESIAN_POINT ( 'NONE',  ( 0.0000000000000000000, 0.0000000000000000000, 0.5000000000000000000 ) ) ;
#106 = FACE_OUTER_BOUND ( 'NONE', #15, .T. ) ;
#107 = EDGE_LOOP ( 'NONE', ( #86, #70 ) ) ;
#108 = MECHANICAL_CONTEXT ( 'NONE', #50, 'mechanical' ) ;
#109 = CYLINDRICAL_SURFACE ( 'NONE', #126, 25.00000000000000000 ) ;
#110 = APPROVAL_STATUS ( 'not_yet_approved' ) ;
#111 = PERSON_AND_ORGANIZATION_ROLE ( 'creator' ) ;
#112 = VECTOR ( 'NONE', #44, 1000.000000000000000 ) ;
#113 = AXIS2_PLACEMENT_3D ( 'NONE', #158, #135, #34 ) ;
#114 = VERTEX_POINT ( 'NONE', #133 ) ;
#115 = CC_DESIGN_DATE_AND_TIME_ASSIGNMENT ( #49, #2, ( #40 ) ) ;
#116 = CIRCLE ( 'NONE', #92, 25.00000000000000000 ) ;
#117 = CALENDAR_DATE ( 2020, 4, 11 ) ;
#118 = DIRECTION ( 'NONE',  ( 1.000000000000000000, 0.0000000000000000000, -0.0000000000000000000 ) ) ;
#119 = CIRCLE ( 'NONE', #33, 25.00000000000000000 ) ;
#120 = DIRECTION ( 'NONE',  ( -1.000000000000000000, 0.0000000000000000000, 0.0000000000000000000 ) ) ;
#121 = AXIS2_PLACEMENT_3D ( 'NONE', #136, #130, #174 ) ;
#122 = PRODUCT_DEFINITION_SHAPE ( 'NONE', 'NONE',  #40 ) ;
#123 = APPROVAL_ROLE ( '' ) ;
#124 = AXIS2_PLACEMENT_3D ( 'NONE', #162, #132, #82 ) ;
#125 = CC_DESIGN_PERSON_AND_ORGANIZATION_ASSIGNMENT ( #102, #29, ( #87 ) ) ;
#126 = AXIS2_PLACEMENT_3D ( 'NONE', #66, #11, #7 ) ;
#127 = ORIENTED_EDGE ( 'NONE', *, *, #170, .T. ) ;
#128 = APPROVAL_DATE_TIME ( #65, #97 ) ;
#129 = FACE_OUTER_BOUND ( 'NONE', #55, .T. ) ;
#130 = DIRECTION ( 'NONE',  ( 0.0000000000000000000, 0.0000000000000000000, 1.000000000000000000 ) ) ;
#131 = SHAPE_DEFINITION_REPRESENTATION ( #122, #3 ) ;
#132 = DIRECTION ( 'NONE',  ( 0.0000000000000000000, 0.0000000000000000000, 1.000000000000000000 ) ) ;
#133 = CARTESIAN_POINT ( 'NONE',  ( -25.00000000000000000, 0.0000000000000000000, 0.5000000000000000000 ) ) ;
#134 = COORDINATED_UNIVERSAL_TIME_OFFSET ( 5, 0, .BEHIND. ) ;
#135 = DIRECTION ( 'NONE',  ( 0.0000000000000000000, 0.0000000000000000000, 1.000000000000000000 ) ) ;
#136 = CARTESIAN_POINT ( 'NONE',  ( 0.0000000000000000000, 0.0000000000000000000, 0.5000000000000000000 ) ) ;
#137 = LOCAL_TIME ( 8, 29, 52.00000000000000000, #168 ) ;
#138 = APPROVAL_STATUS ( 'not_yet_approved' ) ;
#139 = APPROVAL_DATE_TIME ( #100, #4 ) ;
#140 = APPLICATION_PROTOCOL_DEFINITION ( 'international standard', 'config_control_design', 1994, #51 ) ;
#141 = LINE ( 'NONE', #78, #112 ) ;
#142 = PRODUCT ( 'Web Model 34599_13359', 'Web Model 34599_13359', '', ( #108 ) ) ;
#143 =( GEOMETRIC_REPRESENTATION_CONTEXT ( 3 ) GLOBAL_UNCERTAINTY_ASSIGNED_CONTEXT ( ( #63 ) ) GLOBAL_UNIT_ASSIGNED_CONTEXT ( ( #12, #166, #68 ) ) REPRESENTATION_CONTEXT ( 'NONE', 'WORKASPACE' ) );
#144 = CYLINDRICAL_SURFACE ( 'NONE', #6, 25.00000000000000000 ) ;
#145 = DIRECTION ( 'NONE',  ( 0.0000000000000000000, 0.0000000000000000000, 1.000000000000000000 ) ) ;
#146 = ADVANCED_FACE ( 'NONE', ( #74 ), #109, .T. ) ;
#147 = PLANE ( 'NONE',  #154 ) ;
#148 = ORIENTED_EDGE ( 'NONE', *, *, #18, .F. ) ;
#149 = APPLICATION_PROTOCOL_DEFINITION ( 'international standard', 'config_control_design', 1994, #50 ) ;
#150 = ORIENTED_EDGE ( 'NONE', *, *, #37, .F. ) ;
#151 = APPROVAL_STATUS ( 'not_yet_approved' ) ;
#152 = SECURITY_CLASSIFICATION ( '', '', #54 ) ;
#153 = APPROVAL_ROLE ( '' ) ;
#154 = AXIS2_PLACEMENT_3D ( 'NONE', #62, #145, #118 ) ;
#155 = CC_DESIGN_APPROVAL ( #43, ( #40 ) ) ;
#156 = VERTEX_POINT ( 'NONE', #79 ) ;
#157 = DATE_AND_TIME ( #94, #76 ) ;
#158 = CARTESIAN_POINT ( 'NONE',  ( 0.0000000000000000000, 0.0000000000000000000, 0.5000000000000000000 ) ) ;
#159 = PERSON_AND_ORGANIZATION ( #41, #60 ) ;
#160 = CARTESIAN_POINT ( 'NONE',  ( 0.0000000000000000000, 0.0000000000000000000, -0.5000000000000000000 ) ) ;
#161 = DIRECTION ( 'NONE',  ( 0.0000000000000000000, 0.0000000000000000000, 1.000000000000000000 ) ) ;
#162 = CARTESIAN_POINT ( 'NONE',  ( 0.0000000000000000000, 0.0000000000000000000, 0.0000000000000000000 ) ) ;
#163 = PRODUCT_RELATED_PRODUCT_CATEGORY ( 'detail', '', ( #142 ) ) ;
#164 = DIRECTION ( 'NONE',  ( 1.000000000000000000, 0.0000000000000000000, 0.0000000000000000000 ) ) ;
#165 = PERSON_AND_ORGANIZATION_ROLE ( 'design_owner' ) ;
#166 =( NAMED_UNIT ( * ) PLANE_ANGLE_UNIT ( ) SI_UNIT ( $, .RADIAN. ) );
#167 = DATE_TIME_ROLE ( 'classification_date' ) ;
#168 = COORDINATED_UNIVERSAL_TIME_OFFSET ( 5, 0, .BEHIND. ) ;
#169 = ORIENTED_EDGE ( 'NONE', *, *, #27, .F. ) ;
#170 = EDGE_CURVE ( 'NONE', #30, #114, #19, .T. ) ;
#171 = APPROVAL_DATE_TIME ( #72, #43 ) ;
#172 = PERSON_AND_ORGANIZATION ( #41, #60 ) ;
#173 = CC_DESIGN_PERSON_AND_ORGANIZATION_ASSIGNMENT ( #84, #85, ( #87 ) ) ;
#174 = DIRECTION ( 'NONE',  ( 1.000000000000000000, 0.0000000000000000000, 0.0000000000000000000 ) ) ;
#175 = PERSON_AND_ORGANIZATION ( #41, #60 ) ;
ENDSEC;
END-ISO-10303-21;
