ISO-10303-21;
HEADER;
FILE_DESCRIPTION (( 'STEP AP203' ),
    '1' );
FILE_NAME ('Web Model 17217_17217.step',
    '2021-04-08T13:26:47',
    ( '' ),
    ( '' ),
    'SwSTEP 2.0',
    'SolidWorks 2018',
    '' );
FILE_SCHEMA (( 'CONFIG_CONTROL_DESIGN' ));
ENDSEC;

DATA;
#1 = VERTEX_POINT ( 'NONE', #68 ) ;
#2 = APPLICATION_PROTOCOL_DEFINITION ( 'international standard', 'config_control_design', 1994, #24 ) ;
#3 = APPROVAL_STATUS ( 'not_yet_approved' ) ;
#4 = ORIENTED_EDGE ( 'NONE', *, *, #74, .T. ) ;
#5 = APPLICATION_PROTOCOL_DEFINITION ( 'international standard', 'config_control_design', 1994, #143 ) ;
#6 = CC_DESIGN_PERSON_AND_ORGANIZATION_ASSIGNMENT ( #89, #17, ( #141 ) ) ;
#7 = ORIENTED_EDGE ( 'NONE', *, *, #99, .T. ) ;
#8 = ADVANCED_FACE ( 'NONE', ( #39 ), #13, .T. ) ;
#9 = COORDINATED_UNIVERSAL_TIME_OFFSET ( 5, 0, .BEHIND. ) ;
#10 = CIRCLE ( 'NONE', #128, 1.600000000000000089 ) ;
#11 = DIRECTION ( 'NONE',  ( -0.000000000000000000, -0.000000000000000000, -1.000000000000000000 ) ) ;
#12 = DATE_AND_TIME ( #20, #84 ) ;
#13 = CYLINDRICAL_SURFACE ( 'NONE', #70, 1.600000000000000089 ) ;
#14 = CARTESIAN_POINT ( 'NONE',  ( 0.000000000000000000, 0.000000000000000000, 1.000000000000000000 ) ) ;
#15 = CARTESIAN_POINT ( 'NONE',  ( 1.600000000000000089, 1.959434878635765230E-16, 1.000000000000000000 ) ) ;
#16 = DIRECTION ( 'NONE',  ( 1.000000000000000000, 0.000000000000000000, 0.000000000000000000 ) ) ;
#17 = PERSON_AND_ORGANIZATION_ROLE ( 'creator' ) ;
#18 = VECTOR ( 'NONE', #175, 1000.000000000000000 ) ;
#19 = PERSON_AND_ORGANIZATION_ROLE ( 'classification_officer' ) ;
#20 = CALENDAR_DATE ( 2021, 8, 4 ) ;
#21 = CIRCLE ( 'NONE', #30, 1.600000000000000089 ) ;
#22 = EDGE_LOOP ( 'NONE', ( #49, #4, #67, #61 ) ) ;
#23 = CC_DESIGN_APPROVAL ( #159, ( #44 ) ) ;
#24 = APPLICATION_CONTEXT ( 'configuration controlled 3d designs of mechanical parts and assemblies' ) ;
#25 = PERSON_AND_ORGANIZATION ( #77, #131 ) ;
#26 = PLANE ( 'NONE',  #59 ) ;
#27 = DIRECTION ( 'NONE',  ( 0.000000000000000000, 0.000000000000000000, 1.000000000000000000 ) ) ;
#28 = ORIENTED_EDGE ( 'NONE', *, *, #74, .F. ) ;
#29 = CARTESIAN_POINT ( 'NONE',  ( 0.000000000000000000, 0.000000000000000000, 1.000000000000000000 ) ) ;
#30 = AXIS2_PLACEMENT_3D ( 'NONE', #117, #86, #85 ) ;
#31 = LOCAL_TIME ( 9, 26, 47.00000000000000000, #135 ) ;
#32 = APPROVAL_ROLE ( '' ) ;
#33 = PERSON_AND_ORGANIZATION ( #77, #131 ) ;
#34 = COORDINATED_UNIVERSAL_TIME_OFFSET ( 5, 0, .BEHIND. ) ;
#35 = DESIGN_CONTEXT ( 'detailed design', #143, 'design' ) ;
#36 = APPROVAL ( #3, 'UNSPECIFIED' ) ;
#37 = PLANE ( 'NONE',  #170 ) ;
#38 = APPROVAL_PERSON_ORGANIZATION ( #78, #159, #122 ) ;
#39 = FACE_OUTER_BOUND ( 'NONE', #22, .T. ) ;
#40 = ORIENTED_EDGE ( 'NONE', *, *, #153, .F. ) ;
#41 = PERSON_AND_ORGANIZATION ( #77, #131 ) ;
#42 = CC_DESIGN_DATE_AND_TIME_ASSIGNMENT ( #111, #58, ( #44 ) ) ;
#43 = VERTEX_POINT ( 'NONE', #104 ) ;
#44 = SECURITY_CLASSIFICATION ( '', '', #164 ) ;
#45 = DATE_AND_TIME ( #51, #172 ) ;
#46 = LINE ( 'NONE', #147, #18 ) ;
#47 = AXIS2_PLACEMENT_3D ( 'NONE', #161, #144, #16 ) ;
#48 = PRODUCT_DEFINITION_SHAPE ( 'NONE', 'NONE',  #141 ) ;
#49 = ORIENTED_EDGE ( 'NONE', *, *, #165, .F. ) ;
#50 = DIRECTION ( 'NONE',  ( 0.000000000000000000, 0.000000000000000000, 1.000000000000000000 ) ) ;
#51 = CALENDAR_DATE ( 2021, 8, 4 ) ;
#52 = CIRCLE ( 'NONE', #47, 1.600000000000000089 ) ;
#53 = CARTESIAN_POINT ( 'NONE',  ( 0.000000000000000000, 0.000000000000000000, 1.000000000000000000 ) ) ;
#54 = DIRECTION ( 'NONE',  ( -0.000000000000000000, -0.000000000000000000, -1.000000000000000000 ) ) ;
#55 = DIRECTION ( 'NONE',  ( 1.000000000000000000, 0.000000000000000000, 0.000000000000000000 ) ) ;
#56 = AXIS2_PLACEMENT_3D ( 'NONE', #107, #50, #55 ) ;
#57 = PERSON_AND_ORGANIZATION ( #77, #131 ) ;
#58 = DATE_TIME_ROLE ( 'classification_date' ) ;
#59 = AXIS2_PLACEMENT_3D ( 'NONE', #116, #106, #133 ) ;
#60 = CC_DESIGN_PERSON_AND_ORGANIZATION_ASSIGNMENT ( #33, #81, ( #154 ) ) ;
#61 = ORIENTED_EDGE ( 'NONE', *, *, #99, .F. ) ;
#62 = PERSON_AND_ORGANIZATION ( #77, #131 ) ;
#63 =( NAMED_UNIT ( * ) PLANE_ANGLE_UNIT ( ) SI_UNIT ( $, .RADIAN. ) );
#64 = COORDINATED_UNIVERSAL_TIME_OFFSET ( 5, 0, .BEHIND. ) ;
#65 = DIRECTION ( 'NONE',  ( 0.000000000000000000, 0.000000000000000000, 1.000000000000000000 ) ) ;
#66 = CC_DESIGN_DATE_AND_TIME_ASSIGNMENT ( #45, #73, ( #141 ) ) ;
#67 = ORIENTED_EDGE ( 'NONE', *, *, #105, .T. ) ;
#68 = CARTESIAN_POINT ( 'NONE',  ( 1.600000000000000089, 1.959434878635765230E-16, 0.000000000000000000 ) ) ;
#69 = APPROVAL_STATUS ( 'not_yet_approved' ) ;
#70 = AXIS2_PLACEMENT_3D ( 'NONE', #14, #11, #173 ) ;
#71 = VERTEX_POINT ( 'NONE', #134 ) ;
#72 = APPROVAL_DATE_TIME ( #103, #159 ) ;
#73 = DATE_TIME_ROLE ( 'creation_date' ) ;
#74 = EDGE_CURVE ( 'NONE', #139, #1, #46, .T. ) ;
#75 = ADVANCED_FACE ( 'NONE', ( #112 ), #26, .F. ) ;
#76 = VECTOR ( 'NONE', #54, 1000.000000000000000 ) ;
#77 = PERSON ( 'UNSPECIFIED', 'UNSPECIFIED', 'UNSPECIFIED', ('UNSPECIFIED'), ('UNSPECIFIED'), ('UNSPECIFIED') ) ;
#78 = PERSON_AND_ORGANIZATION ( #77, #131 ) ;
#79 = CC_DESIGN_APPROVAL ( #36, ( #149 ) ) ;
#80 =( GEOMETRIC_REPRESENTATION_CONTEXT ( 3 ) GLOBAL_UNCERTAINTY_ASSIGNED_CONTEXT ( ( #157 ) ) GLOBAL_UNIT_ASSIGNED_CONTEXT ( ( #120, #63, #93 ) ) REPRESENTATION_CONTEXT ( 'NONE', 'WORKASPACE' ) );
#81 = PERSON_AND_ORGANIZATION_ROLE ( 'design_owner' ) ;
#82 = CARTESIAN_POINT ( 'NONE',  ( 0.000000000000000000, 0.000000000000000000, 1.000000000000000000 ) ) ;
#83 = DIRECTION ( 'NONE',  ( 1.000000000000000000, 0.000000000000000000, 0.000000000000000000 ) ) ;
#84 = LOCAL_TIME ( 9, 26, 47.00000000000000000, #64 ) ;
#85 = DIRECTION ( 'NONE',  ( 1.000000000000000000, 0.000000000000000000, 0.000000000000000000 ) ) ;
#86 = DIRECTION ( 'NONE',  ( 0.000000000000000000, 0.000000000000000000, 1.000000000000000000 ) ) ;
#87 = ORIENTED_EDGE ( 'NONE', *, *, #151, .T. ) ;
#88 = PERSON_AND_ORGANIZATION_ROLE ( 'creator' ) ;
#89 = PERSON_AND_ORGANIZATION ( #77, #131 ) ;
#90 = EDGE_LOOP ( 'NONE', ( #87, #168 ) ) ;
#91 = FACE_OUTER_BOUND ( 'NONE', #121, .T. ) ;
#92 = COORDINATED_UNIVERSAL_TIME_OFFSET ( 5, 0, .BEHIND. ) ;
#93 =( NAMED_UNIT ( * ) SI_UNIT ( $, .STERADIAN. ) SOLID_ANGLE_UNIT ( ) );
#94 = DATE_AND_TIME ( #114, #150 ) ;
#95 = DIRECTION ( 'NONE',  ( -1.000000000000000000, 0.000000000000000000, 0.000000000000000000 ) ) ;
#96 = MECHANICAL_CONTEXT ( 'NONE', #24, 'mechanical' ) ;
#97 = APPROVAL_STATUS ( 'not_yet_approved' ) ;
#98 = APPROVAL ( #69, 'UNSPECIFIED' ) ;
#99 = EDGE_CURVE ( 'NONE', #43, #71, #115, .T. ) ;
#100 = PRODUCT_RELATED_PRODUCT_CATEGORY ( 'detail', '', ( #154 ) ) ;
#101 = APPROVAL_PERSON_ORGANIZATION ( #169, #36, #32 ) ;
#102 = FACE_OUTER_BOUND ( 'NONE', #90, .T. ) ;
#103 = DATE_AND_TIME ( #130, #31 ) ;
#104 = CARTESIAN_POINT ( 'NONE',  ( -1.600000000000000089, 0.000000000000000000, 1.000000000000000000 ) ) ;
#105 = EDGE_CURVE ( 'NONE', #1, #71, #21, .T. ) ;
#106 = DIRECTION ( 'NONE',  ( 0.000000000000000000, 0.000000000000000000, 1.000000000000000000 ) ) ;
#107 = CARTESIAN_POINT ( 'NONE',  ( 0.000000000000000000, 0.000000000000000000, 0.000000000000000000 ) ) ;
#108 = AXIS2_PLACEMENT_3D ( 'NONE', #82, #162, #95 ) ;
#109 = EDGE_LOOP ( 'NONE', ( #40, #158 ) ) ;
#110 = PERSON_AND_ORGANIZATION_ROLE ( 'design_supplier' ) ;
#111 = DATE_AND_TIME ( #155, #145 ) ;
#112 = FACE_OUTER_BOUND ( 'NONE', #109, .T. ) ;
#113 = CC_DESIGN_PERSON_AND_ORGANIZATION_ASSIGNMENT ( #41, #19, ( #44 ) ) ;
#114 = CALENDAR_DATE ( 2021, 8, 4 ) ;
#115 = LINE ( 'NONE', #119, #76 ) ;
#116 = CARTESIAN_POINT ( 'NONE',  ( 0.000000000000000000, 0.000000000000000000, 0.000000000000000000 ) ) ;
#117 = CARTESIAN_POINT ( 'NONE',  ( 0.000000000000000000, 0.000000000000000000, 0.000000000000000000 ) ) ;
#118 = DIRECTION ( 'NONE',  ( 1.000000000000000000, 0.000000000000000000, -0.000000000000000000 ) ) ;
#119 = CARTESIAN_POINT ( 'NONE',  ( -1.600000000000000089, 0.000000000000000000, 1.000000000000000000 ) ) ;
#120 =( LENGTH_UNIT ( ) NAMED_UNIT ( * ) SI_UNIT ( .MILLI., .METRE. ) );
#121 = EDGE_LOOP ( 'NONE', ( #28, #148, #7, #171 ) ) ;
#122 = APPROVAL_ROLE ( '' ) ;
#123 = CC_DESIGN_SECURITY_CLASSIFICATION ( #44, ( #149 ) ) ;
#124 = APPROVAL_ROLE ( '' ) ;
#125 = SHAPE_DEFINITION_REPRESENTATION ( #48, #127 ) ;
#126 = ADVANCED_FACE ( 'NONE', ( #102 ), #37, .T. ) ;
#127 = ADVANCED_BREP_SHAPE_REPRESENTATION ( 'Web Model 17217_17217', ( #140, #56 ), #80 ) ;
#128 = AXIS2_PLACEMENT_3D ( 'NONE', #53, #27, #83 ) ;
#129 = CC_DESIGN_PERSON_AND_ORGANIZATION_ASSIGNMENT ( #62, #88, ( #149 ) ) ;
#130 = CALENDAR_DATE ( 2021, 8, 4 ) ;
#131 = ORGANIZATION ( 'UNSPECIFIED', 'UNSPECIFIED', '' ) ;
#132 = DIRECTION ( 'NONE',  ( 0.000000000000000000, 0.000000000000000000, 1.000000000000000000 ) ) ;
#133 = DIRECTION ( 'NONE',  ( 1.000000000000000000, 0.000000000000000000, -0.000000000000000000 ) ) ;
#134 = CARTESIAN_POINT ( 'NONE',  ( -1.600000000000000089, 0.000000000000000000, 0.000000000000000000 ) ) ;
#135 = COORDINATED_UNIVERSAL_TIME_OFFSET ( 5, 0, .BEHIND. ) ;
#136 = AXIS2_PLACEMENT_3D ( 'NONE', #29, #132, #174 ) ;
#137 = APPROVAL_DATE_TIME ( #12, #36 ) ;
#138 = ADVANCED_FACE ( 'NONE', ( #91 ), #152, .T. ) ;
#139 = VERTEX_POINT ( 'NONE', #15 ) ;
#140 = MANIFOLD_SOLID_BREP ( 'Boss-Extrude1', #142 ) ;
#141 = PRODUCT_DEFINITION ( 'UNKNOWN', '', #149, #35 ) ;
#142 = CLOSED_SHELL ( 'NONE', ( #8, #138, #126, #75 ) ) ;
#143 = APPLICATION_CONTEXT ( 'configuration controlled 3d designs of mechanical parts and assemblies' ) ;
#144 = DIRECTION ( 'NONE',  ( 0.000000000000000000, 0.000000000000000000, 1.000000000000000000 ) ) ;
#145 = LOCAL_TIME ( 9, 26, 47.00000000000000000, #9 ) ;
#146 = CARTESIAN_POINT ( 'NONE',  ( 0.000000000000000000, 0.000000000000000000, 1.000000000000000000 ) ) ;
#147 = CARTESIAN_POINT ( 'NONE',  ( 1.600000000000000089, 1.959434878635765230E-16, 1.000000000000000000 ) ) ;
#148 = ORIENTED_EDGE ( 'NONE', *, *, #151, .F. ) ;
#149 = PRODUCT_DEFINITION_FORMATION_WITH_SPECIFIED_SOURCE ( 'ANY', '', #154, .NOT_KNOWN. ) ;
#150 = LOCAL_TIME ( 9, 26, 47.00000000000000000, #34 ) ;
#151 = EDGE_CURVE ( 'NONE', #43, #139, #10, .T. ) ;
#152 = CYLINDRICAL_SURFACE ( 'NONE', #108, 1.600000000000000089 ) ;
#153 = EDGE_CURVE ( 'NONE', #71, #1, #52, .T. ) ;
#154 = PRODUCT ( 'Web Model 17217_17217', 'Web Model 17217_17217', '', ( #96 ) ) ;
#155 = CALENDAR_DATE ( 2021, 8, 4 ) ;
#156 = CIRCLE ( 'NONE', #136, 1.600000000000000089 ) ;
#157 = UNCERTAINTY_MEASURE_WITH_UNIT (LENGTH_MEASURE( 1.000000000000000082E-05 ), #120, 'distance_accuracy_value', 'NONE');
#158 = ORIENTED_EDGE ( 'NONE', *, *, #105, .F. ) ;
#159 = APPROVAL ( #97, 'UNSPECIFIED' ) ;
#160 = APPROVAL_PERSON_ORGANIZATION ( #25, #98, #124 ) ;
#161 = CARTESIAN_POINT ( 'NONE',  ( 0.000000000000000000, 0.000000000000000000, 0.000000000000000000 ) ) ;
#162 = DIRECTION ( 'NONE',  ( -0.000000000000000000, -0.000000000000000000, -1.000000000000000000 ) ) ;
#163 = CC_DESIGN_APPROVAL ( #98, ( #141 ) ) ;
#164 = SECURITY_CLASSIFICATION_LEVEL ( 'unclassified' ) ;
#165 = EDGE_CURVE ( 'NONE', #139, #43, #156, .T. ) ;
#166 = APPROVAL_DATE_TIME ( #94, #98 ) ;
#167 = CC_DESIGN_PERSON_AND_ORGANIZATION_ASSIGNMENT ( #57, #110, ( #149 ) ) ;
#168 = ORIENTED_EDGE ( 'NONE', *, *, #165, .T. ) ;
#169 = PERSON_AND_ORGANIZATION ( #77, #131 ) ;
#170 = AXIS2_PLACEMENT_3D ( 'NONE', #146, #65, #118 ) ;
#171 = ORIENTED_EDGE ( 'NONE', *, *, #153, .T. ) ;
#172 = LOCAL_TIME ( 9, 26, 47.00000000000000000, #92 ) ;
#173 = DIRECTION ( 'NONE',  ( -1.000000000000000000, 0.000000000000000000, 0.000000000000000000 ) ) ;
#174 = DIRECTION ( 'NONE',  ( 1.000000000000000000, 0.000000000000000000, 0.000000000000000000 ) ) ;
#175 = DIRECTION ( 'NONE',  ( -0.000000000000000000, -0.000000000000000000, -1.000000000000000000 ) ) ;
ENDSEC;
END-ISO-10303-21;
