ISO-10303-21;
HEADER;
FILE_DESCRIPTION (( 'STEP AP203' ),
    '1' );
FILE_NAME ('Web Model 43367_16005.step',
    '2020-10-21T18:21:15',
    ( '' ),
    ( '' ),
    'SwSTEP 2.0',
    'SolidWorks 2018',
    '' );
FILE_SCHEMA (( 'CONFIG_CONTROL_DESIGN' ));
ENDSEC;

DATA;
#1 = APPROVAL_DATE_TIME ( #138, #24 ) ;
#2 = ORIENTED_EDGE ( 'NONE', *, *, #129, .T. ) ;
#3 = CC_DESIGN_PERSON_AND_ORGANIZATION_ASSIGNMENT ( #75, #119, ( #139 ) ) ;
#4 = AXIS2_PLACEMENT_3D ( 'NONE', #52, #49, #62 ) ;
#5 = MANIFOLD_SOLID_BREP ( 'Boss-Extrude1', #7 ) ;
#6 = CIRCLE ( 'NONE', #73, 7.500000000000000000 ) ;
#7 = CLOSED_SHELL ( 'NONE', ( #85, #125, #127, #74 ) ) ;
#8 = CC_DESIGN_PERSON_AND_ORGANIZATION_ASSIGNMENT ( #137, #107, ( #114 ) ) ;
#9 = LOCAL_TIME ( 14, 21, 15.00000000000000000, #143 ) ;
#10 = ORIENTED_EDGE ( 'NONE', *, *, #26, .T. ) ;
#11 = CC_DESIGN_PERSON_AND_ORGANIZATION_ASSIGNMENT ( #141, #92, ( #15 ) ) ;
#12 = LOCAL_TIME ( 14, 21, 15.00000000000000000, #128 ) ;
#13 = CC_DESIGN_APPROVAL ( #120, ( #100 ) ) ;
#14 = CARTESIAN_POINT ( 'NONE',  ( -7.500000000000000000, 0.0000000000000000000, 2.000000000000000000 ) ) ;
#15 = SECURITY_CLASSIFICATION ( '', '', #147 ) ;
#16 = AXIS2_PLACEMENT_3D ( 'NONE', #80, #172, #91 ) ;
#17 = APPROVAL_ROLE ( '' ) ;
#18 = PERSON_AND_ORGANIZATION ( #88, #123 ) ;
#19 = CARTESIAN_POINT ( 'NONE',  ( 0.0000000000000000000, 0.0000000000000000000, 2.000000000000000000 ) ) ;
#20 = APPLICATION_PROTOCOL_DEFINITION ( 'international standard', 'config_control_design', 1994, #55 ) ;
#21 = CARTESIAN_POINT ( 'NONE',  ( 0.0000000000000000000, 0.0000000000000000000, 2.000000000000000000 ) ) ;
#22 = VERTEX_POINT ( 'NONE', #35 ) ;
#23 = CC_DESIGN_DATE_AND_TIME_ASSIGNMENT ( #102, #30, ( #15 ) ) ;
#24 = APPROVAL ( #159, 'UNSPECIFIED' ) ;
#25 = SHAPE_DEFINITION_REPRESENTATION ( #116, #66 ) ;
#26 = EDGE_CURVE ( 'NONE', #51, #44, #81, .T. ) ;
#27 = EDGE_LOOP ( 'NONE', ( #33, #101 ) ) ;
#28 = CC_DESIGN_DATE_AND_TIME_ASSIGNMENT ( #89, #104, ( #100 ) ) ;
#29 = APPROVAL_ROLE ( '' ) ;
#30 = DATE_TIME_ROLE ( 'classification_date' ) ;
#31 = APPLICATION_PROTOCOL_DEFINITION ( 'international standard', 'config_control_design', 1994, #173 ) ;
#32 = LOCAL_TIME ( 14, 21, 15.00000000000000000, #99 ) ;
#33 = ORIENTED_EDGE ( 'NONE', *, *, #26, .F. ) ;
#34 = APPROVAL ( #121, 'UNSPECIFIED' ) ;
#35 = CARTESIAN_POINT ( 'NONE',  ( 7.500000000000000000, 9.184850993605147944E-16, 2.000000000000000000 ) ) ;
#36 = COORDINATED_UNIVERSAL_TIME_OFFSET ( 5, 0, .BEHIND. ) ;
#37 = CARTESIAN_POINT ( 'NONE',  ( 7.500000000000000000, 9.184850993605147944E-16, 2.000000000000000000 ) ) ;
#38 = CARTESIAN_POINT ( 'NONE',  ( 0.0000000000000000000, 0.0000000000000000000, 0.0000000000000000000 ) ) ;
#39 = AXIS2_PLACEMENT_3D ( 'NONE', #38, #122, #42 ) ;
#40 = PERSON_AND_ORGANIZATION_ROLE ( 'design_supplier' ) ;
#41 = CARTESIAN_POINT ( 'NONE',  ( 0.0000000000000000000, 0.0000000000000000000, 0.0000000000000000000 ) ) ;
#42 = DIRECTION ( 'NONE',  ( 1.000000000000000000, 0.0000000000000000000, 0.0000000000000000000 ) ) ;
#43 = DATE_AND_TIME ( #115, #32 ) ;
#44 = VERTEX_POINT ( 'NONE', #140 ) ;
#45 = CC_DESIGN_SECURITY_CLASSIFICATION ( #15, ( #139 ) ) ;
#46 = APPROVAL_DATE_TIME ( #48, #120 ) ;
#47 = EDGE_CURVE ( 'NONE', #98, #51, #156, .T. ) ;
#48 = DATE_AND_TIME ( #61, #90 ) ;
#49 = DIRECTION ( 'NONE',  ( 0.0000000000000000000, 0.0000000000000000000, 1.000000000000000000 ) ) ;
#50 = APPROVAL_PERSON_ORGANIZATION ( #150, #120, #17 ) ;
#51 = VERTEX_POINT ( 'NONE', #154 ) ;
#52 = CARTESIAN_POINT ( 'NONE',  ( 0.0000000000000000000, 0.0000000000000000000, 0.0000000000000000000 ) ) ;
#53 =( NAMED_UNIT ( * ) SI_UNIT ( $, .STERADIAN. ) SOLID_ANGLE_UNIT ( ) );
#54 = DIRECTION ( 'NONE',  ( -0.0000000000000000000, -0.0000000000000000000, -1.000000000000000000 ) ) ;
#55 = APPLICATION_CONTEXT ( 'configuration controlled 3d designs of mechanical parts and assemblies' ) ;
#56 = DIRECTION ( 'NONE',  ( -1.000000000000000000, 0.0000000000000000000, 0.0000000000000000000 ) ) ;
#57 = APPROVAL_DATE_TIME ( #43, #34 ) ;
#58 =( GEOMETRIC_REPRESENTATION_CONTEXT ( 3 ) GLOBAL_UNCERTAINTY_ASSIGNED_CONTEXT ( ( #86 ) ) GLOBAL_UNIT_ASSIGNED_CONTEXT ( ( #93, #158, #53 ) ) REPRESENTATION_CONTEXT ( 'NONE', 'WORKASPACE' ) );
#59 = FACE_OUTER_BOUND ( 'NONE', #72, .T. ) ;
#60 = AXIS2_PLACEMENT_3D ( 'NONE', #19, #146, #108 ) ;
#61 = CALENDAR_DATE ( 2020, 21, 10 ) ;
#62 = DIRECTION ( 'NONE',  ( 1.000000000000000000, 0.0000000000000000000, 0.0000000000000000000 ) ) ;
#63 = PERSON_AND_ORGANIZATION ( #88, #123 ) ;
#64 = CYLINDRICAL_SURFACE ( 'NONE', #79, 7.500000000000000000 ) ;
#65 = APPROVAL_STATUS ( 'not_yet_approved' ) ;
#66 = ADVANCED_BREP_SHAPE_REPRESENTATION ( 'Web Model 43367_16005', ( #5, #39 ), #58 ) ;
#67 = PLANE ( 'NONE',  #163 ) ;
#68 = DIRECTION ( 'NONE',  ( 0.0000000000000000000, 0.0000000000000000000, 1.000000000000000000 ) ) ;
#69 = EDGE_LOOP ( 'NONE', ( #167, #142, #94, #10 ) ) ;
#70 = CARTESIAN_POINT ( 'NONE',  ( 0.0000000000000000000, 0.0000000000000000000, 0.0000000000000000000 ) ) ;
#71 = APPROVAL_PERSON_ORGANIZATION ( #78, #34, #96 ) ;
#72 = EDGE_LOOP ( 'NONE', ( #151, #103, #2, #165 ) ) ;
#73 = AXIS2_PLACEMENT_3D ( 'NONE', #70, #82, #134 ) ;
#74 = ADVANCED_FACE ( 'NONE', ( #169 ), #67, .F. ) ;
#75 = PERSON_AND_ORGANIZATION ( #88, #123 ) ;
#76 = APPROVAL_PERSON_ORGANIZATION ( #111, #24, #29 ) ;
#77 = DIRECTION ( 'NONE',  ( -0.0000000000000000000, -0.0000000000000000000, -1.000000000000000000 ) ) ;
#78 = PERSON_AND_ORGANIZATION ( #88, #123 ) ;
#79 = AXIS2_PLACEMENT_3D ( 'NONE', #132, #155, #136 ) ;
#80 = CARTESIAN_POINT ( 'NONE',  ( 0.0000000000000000000, 0.0000000000000000000, 2.000000000000000000 ) ) ;
#81 = CIRCLE ( 'NONE', #4, 7.500000000000000000 ) ;
#82 = DIRECTION ( 'NONE',  ( 0.0000000000000000000, 0.0000000000000000000, 1.000000000000000000 ) ) ;
#83 = DIRECTION ( 'NONE',  ( -0.0000000000000000000, -0.0000000000000000000, -1.000000000000000000 ) ) ;
#84 = PLANE ( 'NONE',  #97 ) ;
#85 = ADVANCED_FACE ( 'NONE', ( #59 ), #162, .T. ) ;
#86 = UNCERTAINTY_MEASURE_WITH_UNIT (LENGTH_MEASURE( 1.000000000000000082E-05 ), #93, 'distance_accuracy_value', 'NONE');
#87 = CC_DESIGN_APPROVAL ( #24, ( #139 ) ) ;
#88 = PERSON ( 'UNSPECIFIED', 'UNSPECIFIED', 'UNSPECIFIED', ('UNSPECIFIED'), ('UNSPECIFIED'), ('UNSPECIFIED') ) ;
#89 = DATE_AND_TIME ( #148, #12 ) ;
#90 = LOCAL_TIME ( 14, 21, 15.00000000000000000, #161 ) ;
#91 = DIRECTION ( 'NONE',  ( 1.000000000000000000, 0.0000000000000000000, 0.0000000000000000000 ) ) ;
#92 = PERSON_AND_ORGANIZATION_ROLE ( 'classification_officer' ) ;
#93 =( LENGTH_UNIT ( ) NAMED_UNIT ( * ) SI_UNIT ( .MILLI., .METRE. ) );
#94 = ORIENTED_EDGE ( 'NONE', *, *, #47, .T. ) ;
#95 = DIRECTION ( 'NONE',  ( 0.0000000000000000000, 0.0000000000000000000, 1.000000000000000000 ) ) ;
#96 = APPROVAL_ROLE ( '' ) ;
#97 = AXIS2_PLACEMENT_3D ( 'NONE', #175, #95, #118 ) ;
#98 = VERTEX_POINT ( 'NONE', #135 ) ;
#99 = COORDINATED_UNIVERSAL_TIME_OFFSET ( 5, 0, .BEHIND. ) ;
#100 = PRODUCT_DEFINITION ( 'UNKNOWN', '', #139, #110 ) ;
#101 = ORIENTED_EDGE ( 'NONE', *, *, #129, .F. ) ;
#102 = DATE_AND_TIME ( #145, #170 ) ;
#103 = ORIENTED_EDGE ( 'NONE', *, *, #126, .T. ) ;
#104 = DATE_TIME_ROLE ( 'creation_date' ) ;
#105 = PERSON_AND_ORGANIZATION_ROLE ( 'creator' ) ;
#106 = CIRCLE ( 'NONE', #60, 7.500000000000000000 ) ;
#107 = PERSON_AND_ORGANIZATION_ROLE ( 'design_owner' ) ;
#108 = DIRECTION ( 'NONE',  ( 1.000000000000000000, 0.0000000000000000000, 0.0000000000000000000 ) ) ;
#109 = CALENDAR_DATE ( 2020, 21, 10 ) ;
#110 = DESIGN_CONTEXT ( 'detailed design', #173, 'design' ) ;
#111 = PERSON_AND_ORGANIZATION ( #88, #123 ) ;
#112 = CC_DESIGN_PERSON_AND_ORGANIZATION_ASSIGNMENT ( #18, #105, ( #100 ) ) ;
#113 = VECTOR ( 'NONE', #77, 1000.000000000000000 ) ;
#114 = PRODUCT ( 'Web Model 43367_16005', 'Web Model 43367_16005', '', ( #157 ) ) ;
#115 = CALENDAR_DATE ( 2020, 21, 10 ) ;
#116 = PRODUCT_DEFINITION_SHAPE ( 'NONE', 'NONE',  #100 ) ;
#117 = EDGE_CURVE ( 'NONE', #22, #98, #106, .T. ) ;
#118 = DIRECTION ( 'NONE',  ( 1.000000000000000000, 0.0000000000000000000, -0.0000000000000000000 ) ) ;
#119 = PERSON_AND_ORGANIZATION_ROLE ( 'creator' ) ;
#120 = APPROVAL ( #65, 'UNSPECIFIED' ) ;
#121 = APPROVAL_STATUS ( 'not_yet_approved' ) ;
#122 = DIRECTION ( 'NONE',  ( 0.0000000000000000000, 0.0000000000000000000, 1.000000000000000000 ) ) ;
#123 = ORGANIZATION ( 'UNSPECIFIED', 'UNSPECIFIED', '' ) ;
#124 = FACE_OUTER_BOUND ( 'NONE', #69, .T. ) ;
#125 = ADVANCED_FACE ( 'NONE', ( #124 ), #64, .T. ) ;
#126 = EDGE_CURVE ( 'NONE', #22, #44, #144, .T. ) ;
#127 = ADVANCED_FACE ( 'NONE', ( #130 ), #84, .T. ) ;
#128 = COORDINATED_UNIVERSAL_TIME_OFFSET ( 5, 0, .BEHIND. ) ;
#129 = EDGE_CURVE ( 'NONE', #44, #51, #6, .T. ) ;
#130 = FACE_OUTER_BOUND ( 'NONE', #174, .T. ) ;
#131 = AXIS2_PLACEMENT_3D ( 'NONE', #21, #83, #56 ) ;
#132 = CARTESIAN_POINT ( 'NONE',  ( 0.0000000000000000000, 0.0000000000000000000, 2.000000000000000000 ) ) ;
#133 = PRODUCT_RELATED_PRODUCT_CATEGORY ( 'detail', '', ( #114 ) ) ;
#134 = DIRECTION ( 'NONE',  ( 1.000000000000000000, 0.0000000000000000000, 0.0000000000000000000 ) ) ;
#135 = CARTESIAN_POINT ( 'NONE',  ( -7.500000000000000000, 0.0000000000000000000, 2.000000000000000000 ) ) ;
#136 = DIRECTION ( 'NONE',  ( -1.000000000000000000, 0.0000000000000000000, 0.0000000000000000000 ) ) ;
#137 = PERSON_AND_ORGANIZATION ( #88, #123 ) ;
#138 = DATE_AND_TIME ( #109, #9 ) ;
#139 = PRODUCT_DEFINITION_FORMATION_WITH_SPECIFIED_SOURCE ( 'ANY', '', #114, .NOT_KNOWN. ) ;
#140 = CARTESIAN_POINT ( 'NONE',  ( 7.500000000000000000, 9.184850993605147944E-16, 0.0000000000000000000 ) ) ;
#141 = PERSON_AND_ORGANIZATION ( #88, #123 ) ;
#142 = ORIENTED_EDGE ( 'NONE', *, *, #153, .F. ) ;
#143 = COORDINATED_UNIVERSAL_TIME_OFFSET ( 5, 0, .BEHIND. ) ;
#144 = LINE ( 'NONE', #37, #171 ) ;
#145 = CALENDAR_DATE ( 2020, 21, 10 ) ;
#146 = DIRECTION ( 'NONE',  ( 0.0000000000000000000, 0.0000000000000000000, 1.000000000000000000 ) ) ;
#147 = SECURITY_CLASSIFICATION_LEVEL ( 'unclassified' ) ;
#148 = CALENDAR_DATE ( 2020, 21, 10 ) ;
#149 = ORIENTED_EDGE ( 'NONE', *, *, #117, .T. ) ;
#150 = PERSON_AND_ORGANIZATION ( #88, #123 ) ;
#151 = ORIENTED_EDGE ( 'NONE', *, *, #117, .F. ) ;
#152 = ORIENTED_EDGE ( 'NONE', *, *, #153, .T. ) ;
#153 = EDGE_CURVE ( 'NONE', #98, #22, #164, .T. ) ;
#154 = CARTESIAN_POINT ( 'NONE',  ( -7.500000000000000000, 0.0000000000000000000, 0.0000000000000000000 ) ) ;
#155 = DIRECTION ( 'NONE',  ( -0.0000000000000000000, -0.0000000000000000000, -1.000000000000000000 ) ) ;
#156 = LINE ( 'NONE', #14, #113 ) ;
#157 = MECHANICAL_CONTEXT ( 'NONE', #55, 'mechanical' ) ;
#158 =( NAMED_UNIT ( * ) PLANE_ANGLE_UNIT ( ) SI_UNIT ( $, .RADIAN. ) );
#159 = APPROVAL_STATUS ( 'not_yet_approved' ) ;
#160 = DIRECTION ( 'NONE',  ( 1.000000000000000000, 0.0000000000000000000, -0.0000000000000000000 ) ) ;
#161 = COORDINATED_UNIVERSAL_TIME_OFFSET ( 5, 0, .BEHIND. ) ;
#162 = CYLINDRICAL_SURFACE ( 'NONE', #131, 7.500000000000000000 ) ;
#163 = AXIS2_PLACEMENT_3D ( 'NONE', #41, #68, #160 ) ;
#164 = CIRCLE ( 'NONE', #16, 7.500000000000000000 ) ;
#165 = ORIENTED_EDGE ( 'NONE', *, *, #47, .F. ) ;
#166 = CC_DESIGN_PERSON_AND_ORGANIZATION_ASSIGNMENT ( #63, #40, ( #139 ) ) ;
#167 = ORIENTED_EDGE ( 'NONE', *, *, #126, .F. ) ;
#168 = CC_DESIGN_APPROVAL ( #34, ( #15 ) ) ;
#169 = FACE_OUTER_BOUND ( 'NONE', #27, .T. ) ;
#170 = LOCAL_TIME ( 14, 21, 15.00000000000000000, #36 ) ;
#171 = VECTOR ( 'NONE', #54, 1000.000000000000000 ) ;
#172 = DIRECTION ( 'NONE',  ( 0.0000000000000000000, 0.0000000000000000000, 1.000000000000000000 ) ) ;
#173 = APPLICATION_CONTEXT ( 'configuration controlled 3d designs of mechanical parts and assemblies' ) ;
#174 = EDGE_LOOP ( 'NONE', ( #152, #149 ) ) ;
#175 = CARTESIAN_POINT ( 'NONE',  ( 0.0000000000000000000, 0.0000000000000000000, 2.000000000000000000 ) ) ;
ENDSEC;
END-ISO-10303-21;
