ISO-10303-21;
HEADER;
FILE_DESCRIPTION (( 'STEP AP203' ),
    '1' );
FILE_NAME ('Web Model 68740_83351.step',
    '2017-03-06T19:17:34',
    ( '' ),
    ( '' ),
    'SwSTEP 2.0',
    'SolidWorks 2016',
    '' );
FILE_SCHEMA (( 'CONFIG_CONTROL_DESIGN' ));
ENDSEC;

DATA;
#1 = CARTESIAN_POINT ( 'NONE',  ( 1.000000000000000000, 0.0000000000000000000, 0.0000000000000000000 ) ) ;
#2 = PERSON ( 'UNSPECIFIED', 'UNSPECIFIED', 'UNSPECIFIED', ('UNSPECIFIED'), ('UNSPECIFIED'), ('UNSPECIFIED') ) ;
#3 = DATE_AND_TIME ( #73, #30 ) ;
#4 = ORIENTED_EDGE ( 'NONE', *, *, #101, .F. ) ;
#5 = CC_DESIGN_DATE_AND_TIME_ASSIGNMENT ( #3, #168, ( #162 ) ) ;
#6 = APPLICATION_CONTEXT ( 'configuration controlled 3d designs of mechanical parts and assemblies' ) ;
#7 = CARTESIAN_POINT ( 'NONE',  ( 1.000000000000000000, 0.0000000000000000000, 0.0000000000000000000 ) ) ;
#8 =( LENGTH_UNIT ( ) NAMED_UNIT ( * ) SI_UNIT ( .MILLI., .METRE. ) );
#9 = APPROVAL_ROLE ( '' ) ;
#10 = DIRECTION ( 'NONE',  ( -1.000000000000000000, -0.0000000000000000000, -0.0000000000000000000 ) ) ;
#11 = SECURITY_CLASSIFICATION_LEVEL ( 'unclassified' ) ;
#12 = APPROVAL ( #129, 'UNSPECIFIED' ) ;
#13 = APPROVAL_STATUS ( 'not_yet_approved' ) ;
#14 = FACE_OUTER_BOUND ( 'NONE', #116, .T. ) ;
#15 = PRODUCT ( 'Web Model 68740_83351', 'Web Model 68740_83351', '', ( #66 ) ) ;
#16 = CARTESIAN_POINT ( 'NONE',  ( 1.000000000000000000, 0.0000000000000000000, 25.00000000000000000 ) ) ;
#17 = EDGE_CURVE ( 'NONE', #159, #18, #139, .T. ) ;
#18 = VERTEX_POINT ( 'NONE', #156 ) ;
#19 = CC_DESIGN_APPROVAL ( #12, ( #162 ) ) ;
#20 = CARTESIAN_POINT ( 'NONE',  ( 0.0000000000000000000, 0.0000000000000000000, 0.0000000000000000000 ) ) ;
#21 = DIRECTION ( 'NONE',  ( 0.0000000000000000000, 0.0000000000000000000, -1.000000000000000000 ) ) ;
#22 = PERSON_AND_ORGANIZATION ( #2, #43 ) ;
#23 = DIRECTION ( 'NONE',  ( 0.0000000000000000000, 0.0000000000000000000, -1.000000000000000000 ) ) ;
#24 = CIRCLE ( 'NONE', #71, 25.00000000000000000 ) ;
#25 = DIRECTION ( 'NONE',  ( -1.000000000000000000, -0.0000000000000000000, -0.0000000000000000000 ) ) ;
#26 = EDGE_CURVE ( 'NONE', #51, #46, #148, .T. ) ;
#27 = DATE_AND_TIME ( #138, #65 ) ;
#28 = CC_DESIGN_SECURITY_CLASSIFICATION ( #162, ( #110 ) ) ;
#29 = CARTESIAN_POINT ( 'NONE',  ( 1.000000000000000000, 0.0000000000000000000, 0.0000000000000000000 ) ) ;
#30 = LOCAL_TIME ( 14, 17, 34.00000000000000000, #98 ) ;
#31 = ADVANCED_FACE ( 'NONE', ( #70 ), #120, .T. ) ;
#32 = CALENDAR_DATE ( 2017, 6, 3 ) ;
#33 = ADVANCED_FACE ( 'NONE', ( #14 ), #38, .T. ) ;
#34 = APPROVAL_ROLE ( '' ) ;
#35 = PERSON_AND_ORGANIZATION_ROLE ( 'design_supplier' ) ;
#36 = DIRECTION ( 'NONE',  ( 1.000000000000000000, 0.0000000000000000000, 0.0000000000000000000 ) ) ;
#37 = DIRECTION ( 'NONE',  ( 0.0000000000000000000, 0.0000000000000000000, 1.000000000000000000 ) ) ;
#38 = CYLINDRICAL_SURFACE ( 'NONE', #61, 25.00000000000000000 ) ;
#39 = PRODUCT_RELATED_PRODUCT_CATEGORY ( 'detail', '', ( #15 ) ) ;
#40 = APPLICATION_PROTOCOL_DEFINITION ( 'international standard', 'config_control_design', 1994, #6 ) ;
#41 = PERSON_AND_ORGANIZATION ( #2, #43 ) ;
#42 = LOCAL_TIME ( 14, 17, 34.00000000000000000, #79 ) ;
#43 = ORGANIZATION ( 'UNSPECIFIED', 'UNSPECIFIED', '' ) ;
#44 = CARTESIAN_POINT ( 'NONE',  ( 1.000000000000000000, 3.061616997868383000E-015, -25.00000000000000000 ) ) ;
#45 = CARTESIAN_POINT ( 'NONE',  ( 1.000000000000000000, 0.0000000000000000000, 0.0000000000000000000 ) ) ;
#46 = VERTEX_POINT ( 'NONE', #44 ) ;
#47 = AXIS2_PLACEMENT_3D ( 'NONE', #7, #128, #166 ) ;
#48 =( NAMED_UNIT ( * ) PLANE_ANGLE_UNIT ( ) SI_UNIT ( $, .RADIAN. ) );
#49 = DIRECTION ( 'NONE',  ( 1.000000000000000000, 0.0000000000000000000, 0.0000000000000000000 ) ) ;
#50 = CALENDAR_DATE ( 2017, 6, 3 ) ;
#51 = VERTEX_POINT ( 'NONE', #90 ) ;
#52 = PRODUCT_DEFINITION ( 'UNKNOWN', '', #110, #143 ) ;
#53 = PERSON_AND_ORGANIZATION_ROLE ( 'design_owner' ) ;
#54 = ADVANCED_FACE ( 'NONE', ( #141 ), #119, .T. ) ;
#55 = CARTESIAN_POINT ( 'NONE',  ( 0.0000000000000000000, 0.0000000000000000000, 0.0000000000000000000 ) ) ;
#56 = PERSON_AND_ORGANIZATION_ROLE ( 'creator' ) ;
#57 = CLOSED_SHELL ( 'NONE', ( #31, #33, #54, #126 ) ) ;
#58 = LINE ( 'NONE', #145, #69 ) ;
#59 = ORIENTED_EDGE ( 'NONE', *, *, #134, .F. ) ;
#60 = APPROVAL ( #13, 'UNSPECIFIED' ) ;
#61 = AXIS2_PLACEMENT_3D ( 'NONE', #1, #172, #97 ) ;
#62 = LOCAL_TIME ( 14, 17, 34.00000000000000000, #161 ) ;
#63 = ORIENTED_EDGE ( 'NONE', *, *, #134, .T. ) ;
#64 = APPROVAL_DATE_TIME ( #107, #124 ) ;
#65 = LOCAL_TIME ( 14, 17, 34.00000000000000000, #89 ) ;
#66 = MECHANICAL_CONTEXT ( 'NONE', #6, 'mechanical' ) ;
#67 =( NAMED_UNIT ( * ) SI_UNIT ( $, .STERADIAN. ) SOLID_ANGLE_UNIT ( ) );
#68 = APPLICATION_CONTEXT ( 'configuration controlled 3d designs of mechanical parts and assemblies' ) ;
#69 = VECTOR ( 'NONE', #10, 1000.000000000000000 ) ;
#70 = FACE_OUTER_BOUND ( 'NONE', #74, .T. ) ;
#71 = AXIS2_PLACEMENT_3D ( 'NONE', #111, #72, #21 ) ;
#72 = DIRECTION ( 'NONE',  ( 1.000000000000000000, 0.0000000000000000000, 0.0000000000000000000 ) ) ;
#73 = CALENDAR_DATE ( 2017, 6, 3 ) ;
#74 = EDGE_LOOP ( 'NONE', ( #123, #77, #167, #59 ) ) ;
#75 = DIRECTION ( 'NONE',  ( 1.000000000000000000, 0.0000000000000000000, 0.0000000000000000000 ) ) ;
#76 = DATE_TIME_ROLE ( 'creation_date' ) ;
#77 = ORIENTED_EDGE ( 'NONE', *, *, #121, .T. ) ;
#78 = LOCAL_TIME ( 14, 17, 34.00000000000000000, #86 ) ;
#79 = COORDINATED_UNIVERSAL_TIME_OFFSET ( 5, 0, .BEHIND. ) ;
#80 = DIRECTION ( 'NONE',  ( 0.0000000000000000000, 0.0000000000000000000, 1.000000000000000000 ) ) ;
#81 = AXIS2_PLACEMENT_3D ( 'NONE', #154, #131, #23 ) ;
#82 = DIRECTION ( 'NONE',  ( 0.0000000000000000000, 0.0000000000000000000, -1.000000000000000000 ) ) ;
#83 = ORIENTED_EDGE ( 'NONE', *, *, #17, .F. ) ;
#84 = ORIENTED_EDGE ( 'NONE', *, *, #101, .T. ) ;
#85 =( GEOMETRIC_REPRESENTATION_CONTEXT ( 3 ) GLOBAL_UNCERTAINTY_ASSIGNED_CONTEXT ( ( #174 ) ) GLOBAL_UNIT_ASSIGNED_CONTEXT ( ( #8, #48, #67 ) ) REPRESENTATION_CONTEXT ( 'NONE', 'WORKASPACE' ) );
#86 = COORDINATED_UNIVERSAL_TIME_OFFSET ( 5, 0, .BEHIND. ) ;
#87 = APPLICATION_PROTOCOL_DEFINITION ( 'international standard', 'config_control_design', 1994, #68 ) ;
#88 = PERSON_AND_ORGANIZATION ( #2, #43 ) ;
#89 = COORDINATED_UNIVERSAL_TIME_OFFSET ( 5, 0, .BEHIND. ) ;
#90 = CARTESIAN_POINT ( 'NONE',  ( 1.000000000000000000, 0.0000000000000000000, 25.00000000000000000 ) ) ;
#91 = APPROVAL_PERSON_ORGANIZATION ( #41, #12, #113 ) ;
#92 = ORIENTED_EDGE ( 'NONE', *, *, #26, .F. ) ;
#93 = AXIS2_PLACEMENT_3D ( 'NONE', #175, #75, #82 ) ;
#94 = AXIS2_PLACEMENT_3D ( 'NONE', #29, #49, #104 ) ;
#95 = APPROVAL_DATE_TIME ( #27, #12 ) ;
#96 = CIRCLE ( 'NONE', #47, 25.00000000000000000 ) ;
#97 = DIRECTION ( 'NONE',  ( 0.0000000000000000000, 0.0000000000000000000, 1.000000000000000000 ) ) ;
#98 = COORDINATED_UNIVERSAL_TIME_OFFSET ( 5, 0, .BEHIND. ) ;
#99 = FACE_OUTER_BOUND ( 'NONE', #165, .T. ) ;
#100 = PERSON_AND_ORGANIZATION_ROLE ( 'classification_officer' ) ;
#101 = EDGE_CURVE ( 'NONE', #18, #159, #24, .T. ) ;
#102 = AXIS2_PLACEMENT_3D ( 'NONE', #20, #155, #117 ) ;
#103 = CC_DESIGN_DATE_AND_TIME_ASSIGNMENT ( #137, #76, ( #52 ) ) ;
#104 = DIRECTION ( 'NONE',  ( 0.0000000000000000000, 0.0000000000000000000, -1.000000000000000000 ) ) ;
#105 = DATE_AND_TIME ( #118, #62 ) ;
#106 = CARTESIAN_POINT ( 'NONE',  ( 0.0000000000000000000, 3.061616997868383000E-015, -25.00000000000000000 ) ) ;
#107 = DATE_AND_TIME ( #50, #78 ) ;
#108 = PERSON_AND_ORGANIZATION ( #2, #43 ) ;
#109 = SHAPE_DEFINITION_REPRESENTATION ( #160, #147 ) ;
#110 = PRODUCT_DEFINITION_FORMATION_WITH_SPECIFIED_SOURCE ( 'ANY', '', #15, .NOT_KNOWN. ) ;
#111 = CARTESIAN_POINT ( 'NONE',  ( 0.0000000000000000000, 0.0000000000000000000, 0.0000000000000000000 ) ) ;
#112 = AXIS2_PLACEMENT_3D ( 'NONE', #55, #80, #36 ) ;
#113 = APPROVAL_ROLE ( '' ) ;
#114 = PERSON_AND_ORGANIZATION_ROLE ( 'creator' ) ;
#115 = ORIENTED_EDGE ( 'NONE', *, *, #26, .T. ) ;
#116 = EDGE_LOOP ( 'NONE', ( #125, #92, #63, #84 ) ) ;
#117 = DIRECTION ( 'NONE',  ( 0.0000000000000000000, 0.0000000000000000000, -1.000000000000000000 ) ) ;
#118 = CALENDAR_DATE ( 2017, 6, 3 ) ;
#119 = PLANE ( 'NONE',  #93 ) ;
#120 = CYLINDRICAL_SURFACE ( 'NONE', #122, 25.00000000000000000 ) ;
#121 = EDGE_CURVE ( 'NONE', #46, #159, #58, .T. ) ;
#122 = AXIS2_PLACEMENT_3D ( 'NONE', #45, #164, #37 ) ;
#123 = ORIENTED_EDGE ( 'NONE', *, *, #157, .F. ) ;
#124 = APPROVAL ( #158, 'UNSPECIFIED' ) ;
#125 = ORIENTED_EDGE ( 'NONE', *, *, #121, .F. ) ;
#126 = ADVANCED_FACE ( 'NONE', ( #99 ), #132, .F. ) ;
#127 = EDGE_LOOP ( 'NONE', ( #115, #130 ) ) ;
#128 = DIRECTION ( 'NONE',  ( 1.000000000000000000, 0.0000000000000000000, 0.0000000000000000000 ) ) ;
#129 = APPROVAL_STATUS ( 'not_yet_approved' ) ;
#130 = ORIENTED_EDGE ( 'NONE', *, *, #157, .T. ) ;
#131 = DIRECTION ( 'NONE',  ( 1.000000000000000000, 0.0000000000000000000, 0.0000000000000000000 ) ) ;
#132 = PLANE ( 'NONE',  #81 ) ;
#133 = APPROVAL_DATE_TIME ( #105, #60 ) ;
#134 = EDGE_CURVE ( 'NONE', #51, #18, #150, .T. ) ;
#135 = CC_DESIGN_PERSON_AND_ORGANIZATION_ASSIGNMENT ( #108, #53, ( #15 ) ) ;
#136 = CC_DESIGN_APPROVAL ( #124, ( #110 ) ) ;
#137 = DATE_AND_TIME ( #32, #42 ) ;
#138 = CALENDAR_DATE ( 2017, 6, 3 ) ;
#139 = CIRCLE ( 'NONE', #102, 25.00000000000000000 ) ;
#140 = PERSON_AND_ORGANIZATION ( #2, #43 ) ;
#141 = FACE_OUTER_BOUND ( 'NONE', #127, .T. ) ;
#142 = CC_DESIGN_PERSON_AND_ORGANIZATION_ASSIGNMENT ( #22, #56, ( #110 ) ) ;
#143 = DESIGN_CONTEXT ( 'detailed design', #68, 'design' ) ;
#144 = PERSON_AND_ORGANIZATION ( #2, #43 ) ;
#145 = CARTESIAN_POINT ( 'NONE',  ( 1.000000000000000000, 3.061616997868383000E-015, -25.00000000000000000 ) ) ;
#146 = MANIFOLD_SOLID_BREP ( 'Extrude1', #57 ) ;
#147 = ADVANCED_BREP_SHAPE_REPRESENTATION ( 'Web Model 68740_83351', ( #146, #112 ), #85 ) ;
#148 = CIRCLE ( 'NONE', #94, 25.00000000000000000 ) ;
#149 = APPROVAL_PERSON_ORGANIZATION ( #88, #60, #9 ) ;
#150 = LINE ( 'NONE', #16, #153 ) ;
#151 = CC_DESIGN_PERSON_AND_ORGANIZATION_ASSIGNMENT ( #144, #114, ( #52 ) ) ;
#152 = CC_DESIGN_PERSON_AND_ORGANIZATION_ASSIGNMENT ( #163, #35, ( #110 ) ) ;
#153 = VECTOR ( 'NONE', #25, 1000.000000000000000 ) ;
#154 = CARTESIAN_POINT ( 'NONE',  ( 0.0000000000000000000, 0.0000000000000000000, 0.0000000000000000000 ) ) ;
#155 = DIRECTION ( 'NONE',  ( 1.000000000000000000, 0.0000000000000000000, 0.0000000000000000000 ) ) ;
#156 = CARTESIAN_POINT ( 'NONE',  ( 0.0000000000000000000, 0.0000000000000000000, 25.00000000000000000 ) ) ;
#157 = EDGE_CURVE ( 'NONE', #46, #51, #96, .T. ) ;
#158 = APPROVAL_STATUS ( 'not_yet_approved' ) ;
#159 = VERTEX_POINT ( 'NONE', #106 ) ;
#160 = PRODUCT_DEFINITION_SHAPE ( 'NONE', 'NONE',  #52 ) ;
#161 = COORDINATED_UNIVERSAL_TIME_OFFSET ( 5, 0, .BEHIND. ) ;
#162 = SECURITY_CLASSIFICATION ( '', '', #11 ) ;
#163 = PERSON_AND_ORGANIZATION ( #2, #43 ) ;
#164 = DIRECTION ( 'NONE',  ( -1.000000000000000000, -0.0000000000000000000, -0.0000000000000000000 ) ) ;
#165 = EDGE_LOOP ( 'NONE', ( #4, #83 ) ) ;
#166 = DIRECTION ( 'NONE',  ( 0.0000000000000000000, 0.0000000000000000000, -1.000000000000000000 ) ) ;
#167 = ORIENTED_EDGE ( 'NONE', *, *, #17, .T. ) ;
#168 = DATE_TIME_ROLE ( 'classification_date' ) ;
#169 = CC_DESIGN_APPROVAL ( #60, ( #52 ) ) ;
#170 = APPROVAL_PERSON_ORGANIZATION ( #173, #124, #34 ) ;
#171 = CC_DESIGN_PERSON_AND_ORGANIZATION_ASSIGNMENT ( #140, #100, ( #162 ) ) ;
#172 = DIRECTION ( 'NONE',  ( -1.000000000000000000, -0.0000000000000000000, -0.0000000000000000000 ) ) ;
#173 = PERSON_AND_ORGANIZATION ( #2, #43 ) ;
#174 = UNCERTAINTY_MEASURE_WITH_UNIT (LENGTH_MEASURE( 1.000000000000000100E-005 ), #8, 'distance_accuracy_value', 'NONE');
#175 = CARTESIAN_POINT ( 'NONE',  ( 1.000000000000000000, 0.0000000000000000000, 0.0000000000000000000 ) ) ;
ENDSEC;
END-ISO-10303-21;
