ISO-10303-21;
HEADER;
FILE_DESCRIPTION (( 'STEP AP203' ),
    '1' );
FILE_NAME ('4356-E0W.STEP',
    '2008-10-14T20:56:20',
    ( 'Admin' ),
    ( 'Thorlabs, Inc.' ),
    'SwSTEP 2.0',
    'SolidWorks 2007',
    '' );
FILE_SCHEMA (( 'CONFIG_CONTROL_DESIGN' ));
ENDSEC;

DATA;
#1 = EDGE_LOOP ( 'NONE', ( #15, #30, #33, #26 ) ) ;
#2 = ADVANCED_FACE ( 'NONE', ( #53 ), #60, .F. ) ;
#3 = ORIENTED_EDGE ( 'NONE', *, *, #38, .T. ) ;
#4 = EDGE_CURVE ( 'NONE', #22, #49, #73, .T. ) ;
#5 = EDGE_CURVE ( 'NONE', #20, #22, #96, .T. ) ;
#6 = ORIENTED_EDGE ( 'NONE', *, *, #4, .T. ) ;
#7 = EDGE_LOOP ( 'NONE', ( #40, #18, #16, #103, #54 ) ) ;
#8 = EDGE_LOOP ( 'NONE', ( #9, #21, #6, #3 ) ) ;
#9 = ORIENTED_EDGE ( 'NONE', *, *, #10, .F. ) ;
#10 = EDGE_CURVE ( 'NONE', #20, #24, #101, .T. ) ;
#11 = ORIENTED_EDGE ( 'NONE', *, *, #61, .T. ) ;
#12 = ORIENTED_EDGE ( 'NONE', *, *, #32, .F. ) ;
#13 = CLOSED_SHELL ( 'NONE', ( #120, #39, #2, #25, #36 ) ) ;
#14 = EDGE_LOOP ( 'NONE', ( #35, #12 ) ) ;
#15 = ORIENTED_EDGE ( 'NONE', *, *, #5, .F. ) ;
#16 = ORIENTED_EDGE ( 'NONE', *, *, #17, .F. ) ;
#17 = EDGE_CURVE ( 'NONE', #24, #23, #72, .T. ) ;
#18 = ORIENTED_EDGE ( 'NONE', *, *, #19, .T. ) ;
#19 = EDGE_CURVE ( 'NONE', #42, #23, #67, .T. ) ;
#20 = VERTEX_POINT ( 'NONE', #71 ) ;
#21 = ORIENTED_EDGE ( 'NONE', *, *, #5, .T. ) ;
#22 = VERTEX_POINT ( 'NONE', #70 ) ;
#23 = VERTEX_POINT ( 'NONE', #69 ) ;
#24 = VERTEX_POINT ( 'NONE', #68 ) ;
#25 = ADVANCED_FACE ( 'NONE', ( #63 ), #82, .T. ) ;
#26 = ORIENTED_EDGE ( 'NONE', *, *, #34, .T. ) ;
#27 = ORIENTED_EDGE ( 'NONE', *, *, #34, .F. ) ;
#28 = ORIENTED_EDGE ( 'NONE', *, *, #19, .F. ) ;
#29 = EDGE_LOOP ( 'NONE', ( #28, #31, #11, #37, #27 ) ) ;
#30 = ORIENTED_EDGE ( 'NONE', *, *, #10, .T. ) ;
#31 = ORIENTED_EDGE ( 'NONE', *, *, #32, .T. ) ;
#32 = EDGE_CURVE ( 'NONE', #42, #102, #77, .T. ) ;
#33 = ORIENTED_EDGE ( 'NONE', *, *, #17, .T. ) ;
#34 = EDGE_CURVE ( 'NONE', #23, #22, #92, .T. ) ;
#35 = ORIENTED_EDGE ( 'NONE', *, *, #41, .F. ) ;
#36 = ADVANCED_FACE ( 'NONE', ( #93 ), #88, .F. ) ;
#37 = ORIENTED_EDGE ( 'NONE', *, *, #4, .F. ) ;
#38 = EDGE_CURVE ( 'NONE', #49, #24, #117, .T. ) ;
#39 = ADVANCED_FACE ( 'NONE', ( #118 ), #112, .F. ) ;
#40 = ORIENTED_EDGE ( 'NONE', *, *, #41, .T. ) ;
#41 = EDGE_CURVE ( 'NONE', #102, #42, #108, .T. ) ;
#42 = VERTEX_POINT ( 'NONE', #134 ) ;
#43 = DIRECTION ( 'NONE',  ( 0.0000000000000000000, 1.000000000000000000, 0.0000000000000000000 ) ) ;
#44 = DIRECTION ( 'NONE',  ( -1.000000000000000000, 0.0000000000000000000, 0.0000000000000000000 ) ) ;
#45 = DIRECTION ( 'NONE',  ( -1.224646799147353200E-016, -1.000000000000000000, 0.0000000000000000000 ) ) ;
#46 = DIRECTION ( 'NONE',  ( -1.000000000000000000, 1.224646799147353200E-016, 0.0000000000000000000 ) ) ;
#47 = CARTESIAN_POINT ( 'NONE',  ( 0.0000000000000000000, 0.0000000000000000000, 71.00000000000001400 ) ) ;
#48 = CARTESIAN_POINT ( 'NONE',  ( 0.0000000000000000000, 0.0000000000000000000, 71.00000000000001400 ) ) ;
#49 = VERTEX_POINT ( 'NONE', #136 ) ;
#50 = DIRECTION ( 'NONE',  ( 0.0000000000000000000, 0.0000000000000000000, 1.000000000000000000 ) ) ;
#51 = VECTOR ( 'NONE', #50, 1000.000000000000000 ) ;
#52 = CARTESIAN_POINT ( 'NONE',  ( -25.39999999999999900, 3.110602869834276900E-015, 2.000000000000000000 ) ) ;
#53 = FACE_OUTER_BOUND ( 'NONE', #1, .T. ) ;
#54 = ORIENTED_EDGE ( 'NONE', *, *, #61, .F. ) ;
#55 = DIRECTION ( 'NONE',  ( 0.0000000000000000000, 0.0000000000000000000, -1.000000000000000000 ) ) ;
#56 = DIRECTION ( 'NONE',  ( 1.000000000000000000, 0.0000000000000000000, 0.0000000000000000000 ) ) ;
#57 = AXIS2_PLACEMENT_3D ( 'NONE', #97, #56, #55 ) ;
#58 = CARTESIAN_POINT ( 'NONE',  ( 0.0000000000000000000, 0.0000000000000000000, 6.845187242109418000 ) ) ;
#59 = AXIS2_PLACEMENT_3D ( 'NONE', #48, #44, #43 ) ;
#60 = SPHERICAL_SURFACE ( 'NONE', #59, 69.00000000000000000 ) ;
#61 = EDGE_CURVE ( 'NONE', #102, #49, #133, .T. ) ;
#62 = CARTESIAN_POINT ( 'NONE',  ( 0.0000000000000000000, 0.0000000000000000000, 2.000000000000000000 ) ) ;
#63 = FACE_OUTER_BOUND ( 'NONE', #29, .T. ) ;
#64 = DIRECTION ( 'NONE',  ( 1.000000000000000000, 0.0000000000000000000, 0.0000000000000000000 ) ) ;
#65 = DIRECTION ( 'NONE',  ( 0.0000000000000000000, 0.0000000000000000000, 1.000000000000000000 ) ) ;
#66 = AXIS2_PLACEMENT_3D ( 'NONE', #58, #65, #64 ) ;
#67 = LINE ( 'NONE', #52, #51 ) ;
#68 = CARTESIAN_POINT ( 'NONE',  ( 0.0000000000000000000, 25.39999999999999100, 6.845187242109418000 ) ) ;
#69 = CARTESIAN_POINT ( 'NONE',  ( -25.39999999999999500, 3.110602869834276500E-015, 6.845187242109418000 ) ) ;
#70 = CARTESIAN_POINT ( 'NONE',  ( -3.110602869834276100E-015, -25.39999999999999100, 6.845187242109418000 ) ) ;
#71 = CARTESIAN_POINT ( 'NONE',  ( 0.0000000000000000000, 4.225031457058368900E-015, 2.000000000000001800 ) ) ;
#72 = CIRCLE ( 'NONE', #66, 25.39999999999999500 ) ;
#73 = CIRCLE ( 'NONE', #121, 25.39999999999999500 ) ;
#74 = DIRECTION ( 'NONE',  ( 0.0000000000000000000, 0.0000000000000000000, 1.000000000000000000 ) ) ;
#75 = CARTESIAN_POINT ( 'NONE',  ( 0.0000000000000000000, 0.0000000000000000000, -2.000000000000000000 ) ) ;
#76 = AXIS2_PLACEMENT_3D ( 'NONE', #75, #74, #94 ) ;
#77 = CIRCLE ( 'NONE', #76, 25.39999999999999900 ) ;
#78 = CARTESIAN_POINT ( 'NONE',  ( 0.0000000000000000000, 0.0000000000000000000, 6.845187242109418000 ) ) ;
#79 = DIRECTION ( 'NONE',  ( 1.000000000000000000, 0.0000000000000000000, 0.0000000000000000000 ) ) ;
#80 = DIRECTION ( 'NONE',  ( 0.0000000000000000000, 0.0000000000000000000, 1.000000000000000000 ) ) ;
#81 = AXIS2_PLACEMENT_3D ( 'NONE', #62, #80, #79 ) ;
#82 = CYLINDRICAL_SURFACE ( 'NONE', #81, 25.39999999999999900 ) ;
#83 = MANIFOLD_SOLID_BREP ( 'NONE', #13 ) ;
#84 = DIRECTION ( 'NONE',  ( 0.0000000000000000000, 0.0000000000000000000, 1.000000000000000000 ) ) ;
#85 = CARTESIAN_POINT ( 'NONE',  ( 0.0000000000000000000, 0.0000000000000000000, -2.000000000000000000 ) ) ;
#86 = AXIS2_PLACEMENT_3D ( 'NONE', #85, #84, #119 ) ;
#87 = CARTESIAN_POINT ( 'NONE',  ( 0.0000000000000000000, 0.0000000000000000000, 6.845187242109418000 ) ) ;
#88 = PLANE ( 'NONE',  #86 ) ;
#89 = DIRECTION ( 'NONE',  ( 1.000000000000000000, 0.0000000000000000000, 0.0000000000000000000 ) ) ;
#90 = DIRECTION ( 'NONE',  ( 0.0000000000000000000, 0.0000000000000000000, 1.000000000000000000 ) ) ;
#91 = AXIS2_PLACEMENT_3D ( 'NONE', #78, #90, #89 ) ;
#92 = CIRCLE ( 'NONE', #91, 25.39999999999999500 ) ;
#93 = FACE_OUTER_BOUND ( 'NONE', #14, .T. ) ;
#94 = DIRECTION ( 'NONE',  ( 1.000000000000000000, 0.0000000000000000000, 0.0000000000000000000 ) ) ;
#95 = AXIS2_PLACEMENT_3D ( 'NONE', #47, #46, #45 ) ;
#96 = CIRCLE ( 'NONE', #95, 69.00000000000000000 ) ;
#97 = CARTESIAN_POINT ( 'NONE',  ( 0.0000000000000000000, 0.0000000000000000000, 71.00000000000001400 ) ) ;
#98 = DIRECTION ( 'NONE',  ( 1.000000000000000000, 0.0000000000000000000, 0.0000000000000000000 ) ) ;
#99 = DIRECTION ( 'NONE',  ( 0.0000000000000000000, 0.0000000000000000000, 1.000000000000000000 ) ) ;
#100 = CARTESIAN_POINT ( 'NONE',  ( 0.0000000000000000000, 0.0000000000000000000, 6.845187242109418000 ) ) ;
#101 = CIRCLE ( 'NONE', #57, 69.00000000000000000 ) ;
#102 = VERTEX_POINT ( 'NONE', #125 ) ;
#103 = ORIENTED_EDGE ( 'NONE', *, *, #38, .F. ) ;
#104 = DIRECTION ( 'NONE',  ( 1.000000000000000000, 0.0000000000000000000, 0.0000000000000000000 ) ) ;
#105 = DIRECTION ( 'NONE',  ( 0.0000000000000000000, 0.0000000000000000000, 1.000000000000000000 ) ) ;
#106 = CARTESIAN_POINT ( 'NONE',  ( 0.0000000000000000000, 0.0000000000000000000, -2.000000000000000000 ) ) ;
#107 = AXIS2_PLACEMENT_3D ( 'NONE', #106, #105, #104 ) ;
#108 = CIRCLE ( 'NONE', #107, 25.39999999999999900 ) ;
#109 = DIRECTION ( 'NONE',  ( 0.0000000000000000000, 1.000000000000000000, 0.0000000000000000000 ) ) ;
#110 = DIRECTION ( 'NONE',  ( -1.000000000000000000, 0.0000000000000000000, 0.0000000000000000000 ) ) ;
#111 = AXIS2_PLACEMENT_3D ( 'NONE', #113, #110, #109 ) ;
#112 = SPHERICAL_SURFACE ( 'NONE', #111, 69.00000000000000000 ) ;
#113 = CARTESIAN_POINT ( 'NONE',  ( 0.0000000000000000000, 0.0000000000000000000, 71.00000000000001400 ) ) ;
#114 = DIRECTION ( 'NONE',  ( 1.000000000000000000, 0.0000000000000000000, 0.0000000000000000000 ) ) ;
#115 = DIRECTION ( 'NONE',  ( 0.0000000000000000000, 0.0000000000000000000, 1.000000000000000000 ) ) ;
#116 = AXIS2_PLACEMENT_3D ( 'NONE', #87, #115, #114 ) ;
#117 = CIRCLE ( 'NONE', #116, 25.39999999999999500 ) ;
#118 = FACE_OUTER_BOUND ( 'NONE', #8, .T. ) ;
#119 = DIRECTION ( 'NONE',  ( 1.000000000000000000, 0.0000000000000000000, 0.0000000000000000000 ) ) ;
#120 = ADVANCED_FACE ( 'NONE', ( #126 ), #130, .T. ) ;
#121 = AXIS2_PLACEMENT_3D ( 'NONE', #100, #99, #98 ) ;
#122 = CARTESIAN_POINT ( 'NONE',  ( 25.39999999999999900, 0.0000000000000000000, 2.000000000000000000 ) ) ;
#123 = DIRECTION ( 'NONE',  ( 0.0000000000000000000, 0.0000000000000000000, 1.000000000000000000 ) ) ;
#124 = VECTOR ( 'NONE', #123, 1000.000000000000000 ) ;
#125 = CARTESIAN_POINT ( 'NONE',  ( 25.39999999999999900, 0.0000000000000000000, -2.000000000000000000 ) ) ;
#126 = FACE_OUTER_BOUND ( 'NONE', #7, .T. ) ;
#127 = ADVANCED_BREP_SHAPE_REPRESENTATION ( '4356-E0W', ( #83, #145 ), #128 ) ;
#128 =( GEOMETRIC_REPRESENTATION_CONTEXT ( 3 ) GLOBAL_UNCERTAINTY_ASSIGNED_CONTEXT ( ( #137 ) ) GLOBAL_UNIT_ASSIGNED_CONTEXT ( ( #140, #139, #138 ) ) REPRESENTATION_CONTEXT ( 'NONE', 'WORKASPACE' ) );
#129 = DIRECTION ( 'NONE',  ( 0.0000000000000000000, 0.0000000000000000000, 1.000000000000000000 ) ) ;
#130 = CYLINDRICAL_SURFACE ( 'NONE', #132, 25.39999999999999900 ) ;
#131 = CARTESIAN_POINT ( 'NONE',  ( 0.0000000000000000000, 0.0000000000000000000, 2.000000000000000000 ) ) ;
#132 = AXIS2_PLACEMENT_3D ( 'NONE', #131, #129, #135 ) ;
#133 = LINE ( 'NONE', #122, #124 ) ;
#134 = CARTESIAN_POINT ( 'NONE',  ( -25.39999999999999900, 3.110602869834276900E-015, -2.000000000000000000 ) ) ;
#135 = DIRECTION ( 'NONE',  ( 1.000000000000000000, 0.0000000000000000000, 0.0000000000000000000 ) ) ;
#136 = CARTESIAN_POINT ( 'NONE',  ( 25.39999999999999500, 0.0000000000000000000, 6.845187242109418000 ) ) ;
#137 = UNCERTAINTY_MEASURE_WITH_UNIT (LENGTH_MEASURE( 1.000000000000000100E-005 ), #140, 'distance_accuracy_value', 'NONE');
#138 =( NAMED_UNIT ( * ) SI_UNIT ( $, .STERADIAN. ) SOLID_ANGLE_UNIT ( ) );
#139 =( NAMED_UNIT ( * ) PLANE_ANGLE_UNIT ( ) SI_UNIT ( $, .RADIAN. ) );
#140 =( LENGTH_UNIT ( ) NAMED_UNIT ( * ) SI_UNIT ( .MILLI., .METRE. ) );
#141 = MECHANICAL_CONTEXT ( 'NONE', #143, 'mechanical' ) ;
#142 = APPLICATION_PROTOCOL_DEFINITION ( 'international standard', 'config_control_design', 1994, #143 ) ;
#143 = APPLICATION_CONTEXT ( 'configuration controlled 3d designs of mechanical parts and assemblies' ) ;
#144 = CARTESIAN_POINT ( 'NONE',  ( 0.0000000000000000000, 0.0000000000000000000, 0.0000000000000000000 ) ) ;
#145 = AXIS2_PLACEMENT_3D ( 'NONE', #144, #147, #146 ) ;
#146 = DIRECTION ( 'NONE',  ( 1.000000000000000000, 0.0000000000000000000, 0.0000000000000000000 ) ) ;
#147 = DIRECTION ( 'NONE',  ( 0.0000000000000000000, 0.0000000000000000000, 1.000000000000000000 ) ) ;
#148 = PERSON ( 'UNSPECIFIED', 'UNSPECIFIED', 'UNSPECIFIED', ('UNSPECIFIED'), ('UNSPECIFIED'), ('UNSPECIFIED') ) ;
#149 = PRODUCT ( '4356-E0W', '4356-E0W', '', ( #141 ) ) ;
#150 = DATE_AND_TIME ( #219, #151 ) ;
#151 = LOCAL_TIME ( 16, 56, 20.00000000000000000, #152 ) ;
#152 = COORDINATED_UNIVERSAL_TIME_OFFSET ( 5, 0, .BEHIND. ) ;
#153 = PERSON_AND_ORGANIZATION_ROLE ( 'design_supplier' ) ;
#154 = PERSON_AND_ORGANIZATION ( #148, #199 ) ;
#155 = CC_DESIGN_PERSON_AND_ORGANIZATION_ASSIGNMENT ( #215, #156, ( #197 ) ) ;
#156 = PERSON_AND_ORGANIZATION_ROLE ( 'creator' ) ;
#157 = APPROVAL_DATE_TIME ( #150, #220 ) ;
#158 = APPROVAL_PERSON_ORGANIZATION ( #164, #220, #159 ) ;
#159 = APPROVAL_ROLE ( '' ) ;
#160 = PERSON_AND_ORGANIZATION_ROLE ( 'classification_officer' ) ;
#161 = PERSON_AND_ORGANIZATION ( #148, #199 ) ;
#162 = SECURITY_CLASSIFICATION ( '', '', #163 ) ;
#163 = SECURITY_CLASSIFICATION_LEVEL ( 'unclassified' ) ;
#164 = PERSON_AND_ORGANIZATION ( #148, #199 ) ;
#165 = DESIGN_CONTEXT ( 'detailed design', #192, 'design' ) ;
#166 = CALENDAR_DATE ( 2008, 14, 10 ) ;
#167 = LOCAL_TIME ( 16, 56, 20.00000000000000000, #168 ) ;
#168 = COORDINATED_UNIVERSAL_TIME_OFFSET ( 5, 0, .BEHIND. ) ;
#169 = APPROVAL_PERSON_ORGANIZATION ( #173, #171, #170 ) ;
#170 = APPROVAL_ROLE ( '' ) ;
#171 = APPROVAL ( #172, 'UNSPECIFIED' ) ;
#172 = APPROVAL_STATUS ( 'not_yet_approved' ) ;
#173 = PERSON_AND_ORGANIZATION ( #148, #199 ) ;
#174 = APPROVAL_ROLE ( '' ) ;
#175 = APPROVAL ( #176, 'UNSPECIFIED' ) ;
#176 = APPROVAL_STATUS ( 'not_yet_approved' ) ;
#177 = CC_DESIGN_PERSON_AND_ORGANIZATION_ASSIGNMENT ( #181, #210, ( #149 ) ) ;
#178 = SHAPE_DEFINITION_REPRESENTATION ( #179, #127 ) ;
#179 = PRODUCT_DEFINITION_SHAPE ( 'NONE', 'NONE',  #190 ) ;
#180 = PRODUCT_RELATED_PRODUCT_CATEGORY ( 'detail', '', ( #149 ) ) ;
#181 = PERSON_AND_ORGANIZATION ( #148, #199 ) ;
#182 = LOCAL_TIME ( 16, 56, 20.00000000000000000, #183 ) ;
#183 = COORDINATED_UNIVERSAL_TIME_OFFSET ( 5, 0, .BEHIND. ) ;
#184 = CC_DESIGN_PERSON_AND_ORGANIZATION_ASSIGNMENT ( #161, #160, ( #162 ) ) ;
#185 = CC_DESIGN_DATE_AND_TIME_ASSIGNMENT ( #187, #186, ( #162 ) ) ;
#186 = DATE_TIME_ROLE ( 'classification_date' ) ;
#187 = DATE_AND_TIME ( #188, #182 ) ;
#188 = CALENDAR_DATE ( 2008, 14, 10 ) ;
#189 = CC_DESIGN_PERSON_AND_ORGANIZATION_ASSIGNMENT ( #154, #153, ( #197 ) ) ;
#190 = PRODUCT_DEFINITION ( 'UNKNOWN', '', #197, #165 ) ;
#191 = APPLICATION_PROTOCOL_DEFINITION ( 'international standard', 'config_control_design', 1994, #192 ) ;
#192 = APPLICATION_CONTEXT ( 'configuration controlled 3d designs of mechanical parts and assemblies' ) ;
#193 = CC_DESIGN_APPROVAL ( #175, ( #197 ) ) ;
#194 = APPROVAL_DATE_TIME ( #195, #175 ) ;
#195 = DATE_AND_TIME ( #196, #203 ) ;
#196 = CALENDAR_DATE ( 2008, 14, 10 ) ;
#197 = PRODUCT_DEFINITION_FORMATION_WITH_SPECIFIED_SOURCE ( 'ANY', '', #149, .NOT_KNOWN. ) ;
#198 = CC_DESIGN_DATE_AND_TIME_ASSIGNMENT ( #208, #207, ( #190 ) ) ;
#199 = ORGANIZATION ( 'UNSPECIFIED', 'UNSPECIFIED', '' ) ;
#200 = CC_DESIGN_PERSON_AND_ORGANIZATION_ASSIGNMENT ( #202, #201, ( #190 ) ) ;
#201 = PERSON_AND_ORGANIZATION_ROLE ( 'creator' ) ;
#202 = PERSON_AND_ORGANIZATION ( #148, #199 ) ;
#203 = LOCAL_TIME ( 16, 56, 20.00000000000000000, #204 ) ;
#204 = COORDINATED_UNIVERSAL_TIME_OFFSET ( 5, 0, .BEHIND. ) ;
#205 = APPROVAL_PERSON_ORGANIZATION ( #206, #175, #174 ) ;
#206 = PERSON_AND_ORGANIZATION ( #148, #199 ) ;
#207 = DATE_TIME_ROLE ( 'creation_date' ) ;
#208 = DATE_AND_TIME ( #209, #216 ) ;
#209 = CALENDAR_DATE ( 2008, 14, 10 ) ;
#210 = PERSON_AND_ORGANIZATION_ROLE ( 'design_owner' ) ;
#211 = CC_DESIGN_SECURITY_CLASSIFICATION ( #162, ( #197 ) ) ;
#212 = CC_DESIGN_APPROVAL ( #171, ( #162 ) ) ;
#213 = APPROVAL_DATE_TIME ( #214, #171 ) ;
#214 = DATE_AND_TIME ( #166, #167 ) ;
#215 = PERSON_AND_ORGANIZATION ( #148, #199 ) ;
#216 = LOCAL_TIME ( 16, 56, 20.00000000000000000, #217 ) ;
#217 = COORDINATED_UNIVERSAL_TIME_OFFSET ( 5, 0, .BEHIND. ) ;
#218 = CC_DESIGN_APPROVAL ( #220, ( #190 ) ) ;
#219 = CALENDAR_DATE ( 2008, 14, 10 ) ;
#220 = APPROVAL ( #221, 'UNSPECIFIED' ) ;
#221 = APPROVAL_STATUS ( 'not_yet_approved' ) ;
ENDSEC;
END-ISO-10303-21;
