  0
SECTION
  2
HEADER
  9
$ACADVER
  1
AC1012
  9
$DWGCODEPAGE
  3
ANSI_1252
  9
$INSBASE
 10
0.0
 20
0.0
 30
0.0
  9
$EXTMIN
 10
0.1874779101192203
 20
0.4763610174104081
 30
-0.5277185646174596
  9
$EXTMAX
 10
17.21956628989298
 20
11.50746282325374
 30
0.4725355758600199
  9
$LIMMIN
 10
0.0
 20
0.0
  9
$LIMMAX
 10
17.0
 20
11.0
  9
$ORTHOMODE
 70
     1
  9
$REGENMODE
 70
     1
  9
$FILLMODE
 70
     1
  9
$QTEXTMODE
 70
     0
  9
$MIRRTEXT
 70
     0
  9
$DRAGMODE
 70
     2
  9
$LTSCALE
 40
0.35
  9
$OSMODE
 70
    37
  9
$ATTMODE
 70
     1
  9
$TEXTSIZE
 40
0.08
  9
$TRACEWID
 40
0.05
  9
$TEXTSTYLE
  7
STANDARD
  9
$CLAYER
  8
D1
  9
$CELTYPE
  6
CONTINUOUS
  9
$CECOLOR
 62
   256
  9
$CELTSCALE
 40
1.0
  9
$DELOBJ
 70
     1
  9
$DISPSILH
 70
     0
  9
$DIMSCALE
 40
1.0
  9
$DIMASZ
 40
0.18
  9
$DIMEXO
 40
0.04
  9
$DIMDLI
 40
0.38
  9
$DIMRND
 40
0.0
  9
$DIMDLE
 40
0.0
  9
$DIMEXE
 40
0.04
  9
$DIMTP
 40
0.0
  9
$DIMTM
 40
0.0
  9
$DIMTXT
 40
0.1
  9
$DIMCEN
 40
0.09
  9
$DIMTSZ
 40
0.0
  9
$DIMTOL
 70
     0
  9
$DIMLIM
 70
     0
  9
$DIMTIH
 70
     1
  9
$DIMTOH
 70
     1
  9
$DIMSE1
 70
     0
  9
$DIMSE2
 70
     0
  9
$DIMTAD
 70
     0
  9
$DIMZIN
 70
     0
  9
$DIMBLK
  1

  9
$DIMASO
 70
     0
  9
$DIMSHO
 70
     0
  9
$DIMPOST
  1

  9
$DIMAPOST
  1

  9
$DIMALT
 70
     0
  9
$DIMALTD
 70
     2
  9
$DIMALTF
 40
25.4
  9
$DIMLFAC
 40
1.0
  9
$DIMTOFL
 70
     0
  9
$DIMTVP
 40
0.0
  9
$DIMTIX
 70
     0
  9
$DIMSOXD
 70
     0
  9
$DIMSAH
 70
     0
  9
$DIMBLK1
  1

  9
$DIMBLK2
  1

  9
$DIMSTYLE
  2
STANDARD
  9
$DIMCLRD
 70
     0
  9
$DIMCLRE
 70
     0
  9
$DIMCLRT
 70
     0
  9
$DIMTFAC
 40
1.0
  9
$DIMGAP
 40
0.09
  9
$DIMJUST
 70
     0
  9
$DIMSD1
 70
     0
  9
$DIMSD2
 70
     0
  9
$DIMTOLJ
 70
     1
  9
$DIMTZIN
 70
     0
  9
$DIMALTZ
 70
     0
  9
$DIMALTTZ
 70
     0
  9
$DIMFIT
 70
     0
  9
$DIMUPT
 70
     1
  9
$DIMUNIT
 70
     2
  9
$DIMDEC
 70
     3
  9
$DIMTDEC
 70
     3
  9
$DIMALTU
 70
     2
  9
$DIMALTTD
 70
     2
  9
$DIMTXSTY
  7
STANDARD
  9
$DIMAUNIT
 70
     0
  9
$LUNITS
 70
     2
  9
$LUPREC
 70
     8
  9
$SKETCHINC
 40
0.005
  9
$FILLETRAD
 40
0.0
  9
$AUNITS
 70
     0
  9
$AUPREC
 70
     0
  9
$MENU
  1
C:\R13\WIN\SUPPORT\ACAD
  9
$ELEVATION
 40
0.0
  9
$PELEVATION
 40
0.0
  9
$THICKNESS
 40
0.0
  9
$LIMCHECK
 70
     0
  9
$BLIPMODE
 70
     0
  9
$CHAMFERA
 40
0.3
  9
$CHAMFERB
 40
0.3
  9
$CHAMFERC
 40
0.0
  9
$CHAMFERD
 40
0.0
  9
$SKPOLY
 70
     0
  9
$TDCREATE
 40
2449547.531668518
  9
$TDUPDATE
 40
2452807.597959398
  9
$TDINDWG
 40
0.4702338889
  9
$TDUSRTIMER
 40
0.4702338889
  9
$USRTIMER
 70
     1
  9
$ANGBASE
 50
0.0
  9
$ANGDIR
 70
     0
  9
$PDMODE
 70
     0
  9
$PDSIZE
 40
0.0
  9
$PLINEWID
 40
0.03
  9
$COORDS
 70
     1
  9
$SPLFRAME
 70
     0
  9
$SPLINETYPE
 70
     6
  9
$SPLINESEGS
 70
     8
  9
$ATTDIA
 70
     0
  9
$ATTREQ
 70
     1
  9
$HANDLING
 70
-16383
  9
$HANDSEED
  5
65C0
  9
$SURFTAB1
 70
     6
  9
$SURFTAB2
 70
     6
  9
$SURFTYPE
 70
     6
  9
$SURFU
 70
     6
  9
$SURFV
 70
     6
  9
$UCSNAME
  2

  9
$UCSORG
 10
2.353318641884428
 20
8.017111620010812
 30
0.0
  9
$UCSXDIR
 10
1.0
 20
0.0
 30
0.0
  9
$UCSYDIR
 10
0.0
 20
1.0
 30
0.0
  9
$PUCSNAME
  2

  9
$PUCSORG
 10
0.0
 20
0.0
 30
0.0
  9
$PUCSXDIR
 10
1.0
 20
0.0
 30
0.0
  9
$PUCSYDIR
 10
0.0
 20
1.0
 30
0.0
  9
$USERI1
 70
     0
  9
$USERI2
 70
     0
  9
$USERI3
 70
     0
  9
$USERI4
 70
     0
  9
$USERI5
 70
     0
  9
$USERR1
 40
0.0
  9
$USERR2
 40
0.0
  9
$USERR3
 40
0.0
  9
$USERR4
 40
0.0
  9
$USERR5
 40
0.0
  9
$WORLDVIEW
 70
     1
  9
$SHADEDGE
 70
     3
  9
$SHADEDIF
 70
    70
  9
$TILEMODE
 70
     1
  9
$MAXACTVP
 70
    16
  9
$PINSBASE
 10
0.0
 20
0.0
 30
0.0
  9
$PLIMCHECK
 70
     0
  9
$PEXTMIN
 10
1.000000000000000E+20
 20
1.000000000000000E+20
 30
1.000000000000000E+20
  9
$PEXTMAX
 10
-1.000000000000000E+20
 20
-1.000000000000000E+20
 30
-1.000000000000000E+20
  9
$PLIMMIN
 10
0.0
 20
0.0
  9
$PLIMMAX
 10
12.0
 20
9.0
  9
$UNITMODE
 70
     0
  9
$VISRETAIN
 70
     0
  9
$PLINEGEN
 70
     0
  9
$PSLTSCALE
 70
     0
  9
$TREEDEPTH
 70
  3020
  9
$PICKSTYLE
 70
     1
  9
$CMLSTYLE
  2
STANDARD
  9
$CMLJUST
 70
     0
  9
$CMLSCALE
 40
1.0
  9
$SAVEIMAGES
 70
     1
  0
ENDSEC
  0
SECTION
  2
CLASSES
  0
CLASS
  1
LWPOLYLINE
  2
AcDbPolyline
  3
AutoCAD 2000
 90
    32768
280
     0
281
     1
  0
CLASS
  1
ACDBDICTIONARYWDFLT
  2
AcDbDictionaryWithDefault
  3
AutoCAD 2000
 90
    32768
280
     0
281
     0
  0
CLASS
  1
ACDBPLACEHOLDER
  2
AcDbPlaceHolder
  3
AutoCAD 2000
 90
    32768
280
     0
281
     0
  0
CLASS
  1
LAYOUT
  2
AcDbLayout
  3
AutoCAD 2000
 90
    32768
280
     0
281
     0
  0
CLASS
  1
LONG_TRANSACTION
  2
AcDbLongTransaction
  3
AutoCAD 2000
 90
    32768
280
     0
281
     0
  0
CLASS
  1
LWPOLYLINE
  2
AcDbPolyline
  3
AutoCAD 2000
 90
    32768
280
     0
281
     1
  0
CLASS
  1
HATCH
  2
AcDbHatch
  3
AutoCAD 2000
 90
    32768
280
     0
281
     1
  0
CLASS
  1
XRECORD
  2
AcDbXrecord
  3
AutoCAD 2000
 90
    32768
280
     0
281
     0
  0
ENDSEC
  0
SECTION
  2
TABLES
  0
TABLE
  2
VPORT
  5
8
330
0
100
AcDbSymbolTable
 70
     3
  0
VPORT
  5
6497
330
8
100
AcDbSymbolTableRecord
100
AcDbViewportTableRecord
  2
*ACTIVE
 70
     0
 10
0.0
 20
0.0
 11
1.0
 21
1.0
 12
7.054131410905943
 22
5.901544620277087
 13
0.0
 23
0.0
 14
0.005
 24
0.005
 15
0.25
 25
0.25
 16
0.0
 26
0.0
 36
1.0
 17
0.0
 27
0.0
 37
0.0
 40
12.25043516107137
 41
1.818713450292397
 42
50.0
 43
0.0
 44
0.0
 50
0.0
 51
0.0
 71
     0
 72
 20000
 73
     1
 74
     2
 75
     0
 76
     0
 77
     0
 78
     0
  0
ENDTAB
  0
TABLE
  2
LTYPE
  5
5
330
0
100
AcDbSymbolTable
 70
     6
  0
LTYPE
  5
12
330
5
100
AcDbSymbolTableRecord
100
AcDbLinetypeTableRecord
  2
BYBLOCK
 70
     0
  3

 72
    65
 73
     0
 40
0.0
  0
LTYPE
  5
13
330
5
100
AcDbSymbolTableRecord
100
AcDbLinetypeTableRecord
  2
BYLAYER
 70
     0
  3

 72
    65
 73
     0
 40
0.0
  0
LTYPE
  5
14
330
5
100
AcDbSymbolTableRecord
100
AcDbLinetypeTableRecord
  2
CONTINUOUS
 70
     0
  3
Solid line
 72
    65
 73
     0
 40
0.0
  0
LTYPE
  5
5DB3
330
5
100
AcDbSymbolTableRecord
100
AcDbLinetypeTableRecord
  2
CENTER
 70
     0
  3
Center ____ _ ____ _ ____ _ ____ _ ____ _ ____
 72
    65
 73
     4
 40
2.0
 49
1.25
 74
     0
 49
-0.25
 74
     0
 49
0.25
 74
     0
 49
-0.25
 74
     0
  0
LTYPE
  5
5DB4
330
5
100
AcDbSymbolTableRecord
100
AcDbLinetypeTableRecord
  2
HIDDEN
 70
     0
  3
Hidden __ __ __ __ __ __ __ __ __ __ __ __ __ _
 72
    65
 73
     2
 40
0.375
 49
0.25
 74
     0
 49
-0.125
 74
     0
  0
LTYPE
  5
6347
330
5
100
AcDbSymbolTableRecord
100
AcDbLinetypeTableRecord
  2
HIDDEN2
 70
     0
  3
Hidden (.5x) _ _ _ _ _ _ _ _ _ _ _ _ _ _ _ _ _
 72
    65
 73
     2
 40
0.1875
 49
0.125
 74
     0
 49
-0.0625
 74
     0
  0
LTYPE
  5
6348
330
5
100
AcDbSymbolTableRecord
100
AcDbLinetypeTableRecord
  2
CENTER2
 70
     0
  3
Center (.5x) ___ _ ___ _ ___ _ ___ _ ___ _ ___
 72
    65
 73
     4
 40
1.125
 49
0.75
 74
     0
 49
-0.125
 74
     0
 49
0.125
 74
     0
 49
-0.125
 74
     0
  0
LTYPE
  5
63B9
330
5
100
AcDbSymbolTableRecord
100
AcDbLinetypeTableRecord
  2
CENTERX2
 70
     0
  3
Center (2x) ________  __  ________  __  _____
 72
    65
 73
     4
 40
4.0
 49
2.5
 74
     0
 49
-0.5
 74
     0
 49
0.5
 74
     0
 49
-0.5
 74
     0
  0
ENDTAB
  0
TABLE
  2
LAYER
  5
2
330
0
100
AcDbSymbolTable
 70
    13
  0
LAYER
  5
F
330
2
100
AcDbSymbolTableRecord
100
AcDbLayerTableRecord
  2
0
 70
     0
 62
     7
  6
CONTINUOUS
  0
LAYER
  5
1E
330
2
100
AcDbSymbolTableRecord
100
AcDbLayerTableRecord
  2
BORDER
 70
     0
 62
     7
  6
CONTINUOUS
  0
LAYER
  5
20
330
2
100
AcDbSymbolTableRecord
100
AcDbLayerTableRecord
  2
D1
 70
     0
 62
     7
  6
CONTINUOUS
  0
LAYER
  5
13F
330
2
100
AcDbSymbolTableRecord
100
AcDbLayerTableRecord
  2
S2
 70
     0
 62
     7
  6
CONTINUOUS
  0
LAYER
  5
5944
330
2
100
AcDbSymbolTableRecord
100
AcDbLayerTableRecord
  2
S1
 70
     0
 62
     7
  6
CONTINUOUS
  0
LAYER
  5
5DAE
330
2
100
AcDbSymbolTableRecord
100
AcDbLayerTableRecord
  2
S3
 70
     0
 62
     7
  6
CONTINUOUS
  0
LAYER
  5
5F2C
330
2
100
AcDbSymbolTableRecord
100
AcDbLayerTableRecord
  2
SFBODY
 70
     0
 62
     7
  6
CONTINUOUS
  0
LAYER
  5
5F2D
330
2
100
AcDbSymbolTableRecord
100
AcDbLayerTableRecord
  2
OUTER_HOUSING
 70
     0
 62
     7
  6
CONTINUOUS
  0
LAYER
  5
5F2E
330
2
100
AcDbSymbolTableRecord
100
AcDbLayerTableRecord
  2
RAY_REFLECTIVE
 70
     0
 62
     7
  6
CONTINUOUS
  0
LAYER
  5
5F2F
330
2
100
AcDbSymbolTableRecord
100
AcDbLayerTableRecord
  2
RAY_ATTBYTES
 70
     0
 62
     7
  6
CONTINUOUS
  0
LAYER
  5
5F30
330
2
100
AcDbSymbolTableRecord
100
AcDbLayerTableRecord
  2
SMA_BODY
 70
     0
 62
     7
  6
CONTINUOUS
  0
LAYER
  5
632C
330
2
100
AcDbSymbolTableRecord
100
AcDbLayerTableRecord
  2
MAINPLATE
 70
     0
 62
     7
  6
CONTINUOUS
  0
LAYER
  5
63BA
330
2
100
AcDbSymbolTableRecord
100
AcDbLayerTableRecord
  2
S8
 70
     0
 62
     7
  6
CONTINUOUS
  0
ENDTAB
  0
TABLE
  2
STYLE
  5
3
330
0
100
AcDbSymbolTable
 70
     2
  0
STYLE
  5
10
330
3
100
AcDbSymbolTableRecord
100
AcDbTextStyleTableRecord
  2
STANDARD
 70
     0
 40
0.0
 41
1.0
 50
0.0
 71
     0
 42
0.08
  3
txt
  4

  0
STYLE
  5
5DB2
330
3
100
AcDbSymbolTableRecord
100
AcDbTextStyleTableRecord
  2

 70
     1
 40
0.0
 41
1.0
 50
0.0
 71
     0
 42
0.08
  3
ltypeshp.shx
  4

  0
ENDTAB
  0
TABLE
  2
VIEW
  5
6
330
0
100
AcDbSymbolTable
 70
     0
  0
ENDTAB
  0
TABLE
  2
UCS
  5
7
330
0
100
AcDbSymbolTable
 70
     0
  0
ENDTAB
  0
TABLE
  2
APPID
  5
9
330
0
100
AcDbSymbolTable
 70
     7
  0
APPID
  5
11
330
9
100
AcDbSymbolTableRecord
100
AcDbRegAppTableRecord
  2
ACAD
 70
     0
  0
APPID
  5
140
330
9
100
AcDbSymbolTableRecord
100
AcDbRegAppTableRecord
  2
AME_SOL
 70
     0
  0
APPID
  5
5904
330
9
100
AcDbSymbolTableRecord
100
AcDbRegAppTableRecord
  2
CONTENTTABDATA
 70
     0
  0
APPID
  5
5905
330
9
100
AcDbSymbolTableRecord
100
AcDbRegAppTableRecord
  2
CONTENTCURRENTTAB
 70
     0
  0
APPID
  5
5908
330
9
100
AcDbSymbolTableRecord
100
AcDbRegAppTableRecord
  2
CONTENTBLOCKDESCRIPTION
 70
     0
  0
APPID
  5
5922
330
9
100
AcDbSymbolTableRecord
100
AcDbRegAppTableRecord
  2
CONTENTLONGBLOCKNAME
 70
     0
  0
APPID
  5
5923
330
9
100
AcDbSymbolTableRecord
100
AcDbRegAppTableRecord
  2
CONTENTBLOCKICON
 70
     0
  0
ENDTAB
  0
TABLE
  2
DIMSTYLE
  5
A
330
0
100
AcDbSymbolTable
 70
     1
  0
DIMSTYLE
105
12F
330
A
100
AcDbSymbolTableRecord
100
AcDbDimStyleTableRecord
  2
STANDARD
 70
     0
  3

  4

  5

  6

  7

 40
1.0
 41
0.18
 42
0.04
 43
0.38
 44
0.04
 45
0.0
 46
0.0
 47
0.0
 48
0.0
140
0.1
141
0.09
142
0.0
143
25.4
144
1.0
145
0.0
146
1.0
147
0.09
 71
     0
 72
     0
 73
     1
 74
     1
 75
     0
 76
     0
 77
     0
 78
     0
170
     0
171
     2
172
     0
173
     0
174
     0
175
     0
176
     0
177
     0
178
     0
270
     2
271
     3
272
     3
273
     2
274
     2
340
10
275
     0
280
     0
281
     0
282
     0
283
     1
284
     0
285
     0
286
     0
287
     3
288
     1
  0
ENDTAB
  0
TABLE
  2
BLOCK_RECORD
  5
1
330
0
100
AcDbSymbolTable
 70
    15
  0
BLOCK_RECORD
  5
18
102
{ACAD_XDICTIONARY
360
649A
102
}
330
1
100
AcDbSymbolTableRecord
100
AcDbBlockTableRecord
  2
*MODEL_SPACE
  0
BLOCK_RECORD
  5
15
102
{ACAD_XDICTIONARY
360
6498
102
}
330
1
100
AcDbSymbolTableRecord
100
AcDbBlockTableRecord
  2
*PAPER_SPACE
  0
BLOCK_RECORD
  5
139
330
1
100
AcDbSymbolTableRecord
100
AcDbBlockTableRecord
  2
AME_NIL
  0
BLOCK_RECORD
  5
13C
330
1
100
AcDbSymbolTableRecord
100
AcDbBlockTableRecord
  2
AME_SOL
  0
BLOCK_RECORD
  5
5DDD
330
1
100
AcDbSymbolTableRecord
100
AcDbBlockTableRecord
  2
BODY-1
  0
BLOCK_RECORD
  5
5E23
330
1
100
AcDbSymbolTableRecord
100
AcDbBlockTableRecord
  2
BODY-2
  0
BLOCK_RECORD
  5
5E8F
330
1
100
AcDbSymbolTableRecord
100
AcDbBlockTableRecord
  2
SURF-4
  0
BLOCK_RECORD
  5
5ED3
330
1
100
AcDbSymbolTableRecord
100
AcDbBlockTableRecord
  2
BODY-3
  0
BLOCK_RECORD
  5
5F19
330
1
100
AcDbSymbolTableRecord
100
AcDbBlockTableRecord
  2
ASDF
  0
BLOCK_RECORD
  5
5F23
330
1
100
AcDbSymbolTableRecord
100
AcDbBlockTableRecord
  2
DFDSFAAF
1001
CONTENTBLOCKICON
1071
        0
1004
2800000020000000200000000100080000000000000400000000000000000000000000000000000000000000000080000080000000808000800000008000800080800000C0C0C000C0DCC000F0CAA6000020400000206000002080000020A0000020C0000020E00000400000004020000040400000406000004080000040A0
1004
000040C0000040E00000600000006020000060400000606000006080000060A0000060C0000060E00000800000008020000080400000806000008080000080A0000080C0000080E00000A0000000A0200000A0400000A0600000A0800000A0A00000A0C00000A0E00000C0000000C0200000C0400000C0600000C0800000C0
1004
A00000C0C00000C0E00000E0000000E0200000E0400000E0600000E0800000E0A00000E0C00000E0E00040000000400020004000400040006000400080004000A0004000C0004000E00040200000402020004020400040206000402080004020A0004020C0004020E000404000004040200040404000404060004040800040
1004
40A0004040C0004040E00040600000406020004060400040606000406080004060A0004060C0004060E00040800000408020004080400040806000408080004080A0004080C0004080E00040A0000040A0200040A0400040A0600040A0800040A0A00040A0C00040A0E00040C0000040C0200040C0400040C0600040C08000
1004
40C0A00040C0C00040C0E00040E0000040E0200040E0400040E0600040E0800040E0A00040E0C00040E0E00080000000800020008000400080006000800080008000A0008000C0008000E00080200000802020008020400080206000802080008020A0008020C0008020E00080400000804020008040400080406000804080
1004
008040A0008040C0008040E00080600000806020008060400080606000806080008060A0008060C0008060E00080800000808020008080400080806000808080008080A0008080C0008080E00080A0000080A0200080A0400080A0600080A0800080A0A00080A0C00080A0E00080C0000080C0200080C0400080C0600080C0
1004
800080C0A00080C0C00080C0E00080E0000080E0200080E0400080E0600080E0800080E0A00080E0C00080E0E000C0000000C0002000C0004000C0006000C0008000C000A000C000C000C000E000C0200000C0202000C0204000C0206000C0208000C020A000C020C000C020E000C0400000C0402000C0404000C0406000C0
1004
408000C040A000C040C000C040E000C0600000C0602000C0604000C0606000C0608000C060A000C060C000C060E000C0800000C0802000C0804000C0806000C0808000C080A000C080C000C080E000C0A00000C0A02000C0A04000C0A06000C0A08000C0A0A000C0A0C000C0A0E000C0C00000C0C02000C0C04000C0C06000
1004
C0C08000C0C0A000F0FBFF00A4A0A000808080000000FF0000FF000000FFFF00FF000000FF00FF00FFFF0000FFFFFF0000000000000000000000000000000000000000000000000000000000000000000000000000000000000000000000000000000000000000000000000000000000000000000000000000000000000000
1004
0000000000000000000000000000000000000000000000000000000000000000000000000000000000000000000000000000BEBEBEBEBEBEBEBEBEBEBEBEBEBEBEBEBEBEBEBEBEBEBEBEBEBEBEBEBEBE0000BE00000000000000000000000000000000000000000000000000000000BE0000BE000000000000000000000000
1004
00000000000000000000000000000000BE0000BE00000000000000000000000000000000000000000000000000000000BE0000BE00000000000000000000000000000000000000BEBEBE000000000000BE0000BE00000000000000000000000000000000BEBEBEBEBE00BE0000000000BE0000BE0000000000000000000000
1004
000000BEBE00BE000000BE00BE00000000BE0000BE0000000000000000000000000000BE00BE0000000000BEBE00000000BE0000BE0000000000000000000000000000BEBE00000000000000BEBE000000BE0000BE0000000000000000000000000000BE000000000000000000BEBE0000BE0000BE00000000000000000000
1004
00000000BEBE00000000000000BEBE000000BE0000BE0000000000000000000000000000BE00BE0000000000BE00BE000000BE0000BE0000000000000000000000000000BE0000BE000000BE00BE00000000BE0000BE0000000000000000000000000000BEBE0000BE00BE00BE0000000000BE0000BE000000000000000000
1004
00000000000000BEBEBEBE0000BE0000000000BE0000BE0000000000000000000000000000000000000000BEBE000000000000BE0000BE00000000000000000000000000000000000000000000000000000000BE0000BE00000000000000000000000000000000000000000000000000000000BE0000BE0000000000000000
1004
0000000000000000000000000000000000000000BE0000BE00000000000000000000000000000000000000000000000000000000BE0000BE00000000000000000000000000000000000000000000000000000000BE0000BE00000000000000000000000000000000000000000000000000000000BE0000BE00000000000000
1004
000000000000000000000000000000000000000000BE0000BEBEBEBEBEBEBEBEBEBEBEBEBEBEBEBEBEBEBEBEBEBEBEBEBEBEBEBEBEBE00000000000000000000000000000000000000000000000000000000000000000000000000000000000000000000000000000000000000000000000000000000000000000000000000
1004
0000000000000000000000000000000000000000000000000000000000000000000000000000000000000000000000000000000000000000
  0
BLOCK_RECORD
  5
6325
330
1
100
AcDbSymbolTableRecord
100
AcDbBlockTableRecord
  2
DFSF
  0
BLOCK_RECORD
  5
6343
330
1
100
AcDbSymbolTableRecord
100
AcDbBlockTableRecord
  2
COPYRIGHT00
  0
BLOCK_RECORD
  5
6349
330
1
100
AcDbSymbolTableRecord
100
AcDbBlockTableRecord
  2
COPYWRITE
  0
BLOCK_RECORD
  5
634F
330
1
100
AcDbSymbolTableRecord
100
AcDbBlockTableRecord
  2
MANUFACTURING_INFO
  0
BLOCK_RECORD
  5
636E
330
1
100
AcDbSymbolTableRecord
100
AcDbBlockTableRecord
  2
A$C14651BC8
  0
BLOCK_RECORD
  5
643E
330
1
100
AcDbSymbolTableRecord
100
AcDbBlockTableRecord
  2
DFASDF
  0
BLOCK_RECORD
  5
65AA
330
1
100
AcDbSymbolTableRecord
100
AcDbBlockTableRecord
  2
*X14
  0
ENDTAB
  0
ENDSEC
  0
SECTION
  2
BLOCKS
  0
BLOCK
  5
28
330
18
100
AcDbEntity
  8
0
100
AcDbBlockBegin
  2
*MODEL_SPACE
 70
     0
 10
0.0
 20
0.0
 30
0.0
  3
*MODEL_SPACE
  1

  0
ENDBLK
  5
29
330
18
100
AcDbEntity
  8
0
100
AcDbBlockEnd
  0
BLOCK
  5
26
330
15
100
AcDbEntity
 67
     1
  8
0
100
AcDbBlockBegin
  2
*PAPER_SPACE
 70
     0
 10
0.0
 20
0.0
 30
0.0
  3
*PAPER_SPACE
  1

  0
ENDBLK
  5
27
330
15
100
AcDbEntity
 67
     1
  8
0
100
AcDbBlockEnd
  0
BLOCK
  5
13A
330
139
100
AcDbEntity
  8
0
100
AcDbBlockBegin
  2
AME_NIL
 70
     0
 10
0.0
 20
0.0
 30
0.0
  3
AME_NIL
  1
AME_NIL
  0
ENDBLK
  5
13B
330
139
100
AcDbEntity
  8
0
100
AcDbBlockEnd
  0
BLOCK
  5
13D
330
13C
100
AcDbEntity
  8
0
100
AcDbBlockBegin
  2
AME_SOL
 70
     0
 10
0.0
 20
0.0
 30
0.0
  3
AME_SOL
  1
AME_SOL
  0
ENDBLK
  5
13E
330
13C
100
AcDbEntity
  8
0
100
AcDbBlockEnd
  0
BLOCK
  5
5E21
330
5DDD
100
AcDbEntity
  8
0
100
AcDbBlockBegin
  2
BODY-1
 70
     0
 10
0.0
 20
0.0
 30
0.0
  3
BODY-1
  1

  0
POLYLINE
  5
5DDE
330
5DDD
100
AcDbEntity
  8
SFBODY
100
AcDbPolygonMesh
 66
     1
 10
0.0
 20
0.0
 30
0.0
 70
    48
 71
     2
 72
    32
  0
VERTEX
  5
5DDF
330
5DDE
100
AcDbEntity
  8
SFBODY
100
AcDbVertex
100
AcDbPolygonMeshVertex
 10
7.5
 20
-0.0000000000000014
 30
0.4705955010467165
 70
    64
  0
VERTEX
  5
5DE0
330
5DDE
100
AcDbEntity
  8
SFBODY
100
AcDbVertex
100
AcDbPolygonMeshVertex
 10
7.355889603024223
 20
1.46317741512096
 30
0.4705955010467165
 70
    64
  0
VERTEX
  5
5DE1
330
5DDE
100
AcDbEntity
  8
SFBODY
100
AcDbVertex
100
AcDbPolygonMeshVertex
 10
6.929096493834649
 20
2.870125742738172
 30
0.4705955010467165
 70
    64
  0
VERTEX
  5
5DE2
330
5DDE
100
AcDbEntity
  8
SFBODY
100
AcDbVertex
100
AcDbPolygonMeshVertex
 10
6.236022092269095
 20
4.166776747647015
 30
0.4705955010467165
 70
    64
  0
VERTEX
  5
5DE3
330
5DDE
100
AcDbEntity
  8
SFBODY
100
AcDbVertex
100
AcDbPolygonMeshVertex
 10
5.303300858899106
 20
5.303300858899105
 30
0.4705955010467165
 70
    64
  0
VERTEX
  5
5DE4
330
5DDE
100
AcDbEntity
  8
SFBODY
100
AcDbVertex
100
AcDbPolygonMeshVertex
 10
4.16677674764702
 20
6.236022092269088
 30
0.4705955010467165
 70
    64
  0
VERTEX
  5
5DE5
330
5DDE
100
AcDbEntity
  8
SFBODY
100
AcDbVertex
100
AcDbPolygonMeshVertex
 10
2.870125742738167
 20
6.929096493834649
 30
0.4705955010467165
 70
    64
  0
VERTEX
  5
5DE6
330
5DDE
100
AcDbEntity
  8
SFBODY
100
AcDbVertex
100
AcDbPolygonMeshVertex
 10
1.463177415120966
 20
7.355889603024227
 30
0.4705955010467165
 70
    64
  0
VERTEX
  5
5DE7
330
5DDE
100
AcDbEntity
  8
SFBODY
100
AcDbVertex
100
AcDbPolygonMeshVertex
 10
0.0
 20
7.5
 30
0.4705955010467165
 70
    64
  0
VERTEX
  5
5DE8
330
5DDE
100
AcDbEntity
  8
SFBODY
100
AcDbVertex
100
AcDbPolygonMeshVertex
 10
-1.463177415120966
 20
7.355889603024228
 30
0.4705955010467165
 70
    64
  0
VERTEX
  5
5DE9
330
5DDE
100
AcDbEntity
  8
SFBODY
100
AcDbVertex
100
AcDbPolygonMeshVertex
 10
-2.870125742738167
 20
6.92909649383465
 30
0.4705955010467165
 70
    64
  0
VERTEX
  5
5DEA
330
5DDE
100
AcDbEntity
  8
SFBODY
100
AcDbVertex
100
AcDbPolygonMeshVertex
 10
-4.16677674764702
 20
6.236022092269091
 30
0.4705955010467165
 70
    64
  0
VERTEX
  5
5DEB
330
5DDE
100
AcDbEntity
  8
SFBODY
100
AcDbVertex
100
AcDbPolygonMeshVertex
 10
-5.303300858899092
 20
5.303300858899107
 30
0.4705955010467165
 70
    64
  0
VERTEX
  5
5DEC
330
5DDE
100
AcDbEntity
  8
SFBODY
100
AcDbVertex
100
AcDbPolygonMeshVertex
 10
-6.236022092269081
 20
4.166776747647016
 30
0.4705955010467165
 70
    64
  0
VERTEX
  5
5DED
330
5DDE
100
AcDbEntity
  8
SFBODY
100
AcDbVertex
100
AcDbPolygonMeshVertex
 10
-6.929096493834663
 20
2.870125742738172
 30
0.4705955010467165
 70
    64
  0
VERTEX
  5
5DEE
330
5DDE
100
AcDbEntity
  8
SFBODY
100
AcDbVertex
100
AcDbPolygonMeshVertex
 10
-7.355889603024223
 20
1.463177415120959
 30
0.4705955010467165
 70
    64
  0
VERTEX
  5
5DEF
330
5DDE
100
AcDbEntity
  8
SFBODY
100
AcDbVertex
100
AcDbPolygonMeshVertex
 10
-7.5
 20
-0.0000000000000044
 30
0.4705955010467165
 70
    64
  0
VERTEX
  5
5DF0
330
5DDE
100
AcDbEntity
  8
SFBODY
100
AcDbVertex
100
AcDbPolygonMeshVertex
 10
-7.355889603024223
 20
-1.463177415120967
 30
0.4705955010467165
 70
    64
  0
VERTEX
  5
5DF1
330
5DDE
100
AcDbEntity
  8
SFBODY
100
AcDbVertex
100
AcDbPolygonMeshVertex
 10
-6.929096493834634
 20
-2.87012574273818
 30
0.4705955010467165
 70
    64
  0
VERTEX
  5
5DF2
330
5DDE
100
AcDbEntity
  8
SFBODY
100
AcDbVertex
100
AcDbPolygonMeshVertex
 10
-6.236022092269081
 20
-4.166776747647024
 30
0.4705955010467165
 70
    64
  0
VERTEX
  5
5DF3
330
5DDE
100
AcDbEntity
  8
SFBODY
100
AcDbVertex
100
AcDbPolygonMeshVertex
 10
-5.303300858899092
 20
-5.303300858899113
 30
0.4705955010467165
 70
    64
  0
VERTEX
  5
5DF4
330
5DDE
100
AcDbEntity
  8
SFBODY
100
AcDbVertex
100
AcDbPolygonMeshVertex
 10
-4.166776747646991
 20
-6.236022092269095
 30
0.4705955010467165
 70
    64
  0
VERTEX
  5
5DF5
330
5DDE
100
AcDbEntity
  8
SFBODY
100
AcDbVertex
100
AcDbPolygonMeshVertex
 10
-2.870125742738153
 20
-6.929096493834656
 30
0.4705955010467165
 70
    64
  0
VERTEX
  5
5DF6
330
5DDE
100
AcDbEntity
  8
SFBODY
100
AcDbVertex
100
AcDbPolygonMeshVertex
 10
-1.463177415120938
 20
-7.355889603024231
 30
0.4705955010467165
 70
    64
  0
VERTEX
  5
5DF7
330
5DDE
100
AcDbEntity
  8
SFBODY
100
AcDbVertex
100
AcDbPolygonMeshVertex
 10
0.0000000000000142
 20
-7.5
 30
0.4705955010467165
 70
    64
  0
VERTEX
  5
5DF8
330
5DDE
100
AcDbEntity
  8
SFBODY
100
AcDbVertex
100
AcDbPolygonMeshVertex
 10
1.463177415120981
 20
-7.355889603024225
 30
0.4705955010467165
 70
    64
  0
VERTEX
  5
5DF9
330
5DDE
100
AcDbEntity
  8
SFBODY
100
AcDbVertex
100
AcDbPolygonMeshVertex
 10
2.870125742738196
 20
-6.929096493834642
 30
0.4705955010467165
 70
    64
  0
VERTEX
  5
5DFA
330
5DDE
100
AcDbEntity
  8
SFBODY
100
AcDbVertex
100
AcDbPolygonMeshVertex
 10
4.166776747647034
 20
-6.236022092269076
 30
0.4705955010467165
 70
    64
  0
VERTEX
  5
5DFB
330
5DDE
100
AcDbEntity
  8
SFBODY
100
AcDbVertex
100
AcDbPolygonMeshVertex
 10
5.30330085889912
 20
-5.303300858899089
 30
0.4705955010467165
 70
    64
  0
VERTEX
  5
5DFC
330
5DDE
100
AcDbEntity
  8
SFBODY
100
AcDbVertex
100
AcDbPolygonMeshVertex
 10
6.236022092269109
 20
-4.166776747646996
 30
0.4705955010467165
 70
    64
  0
VERTEX
  5
5DFD
330
5DDE
100
AcDbEntity
  8
SFBODY
100
AcDbVertex
100
AcDbPolygonMeshVertex
 10
6.929096493834663
 20
-2.870125742738148
 30
0.4705955010467165
 70
    64
  0
VERTEX
  5
5DFE
330
5DDE
100
AcDbEntity
  8
SFBODY
100
AcDbVertex
100
AcDbPolygonMeshVertex
 10
7.355889603024237
 20
-1.463177415120934
 30
0.4705955010467165
 70
    64
  0
VERTEX
  5
5DFF
330
5DDE
100
AcDbEntity
  8
SFBODY
100
AcDbVertex
100
AcDbPolygonMeshVertex
 10
7.5
 20
-0.0000000000000014
 30
-3.0
 70
    64
  0
VERTEX
  5
5E00
330
5DDE
100
AcDbEntity
  8
SFBODY
100
AcDbVertex
100
AcDbPolygonMeshVertex
 10
7.355889603024223
 20
1.46317741512096
 30
-3.0
 70
    64
  0
VERTEX
  5
5E01
330
5DDE
100
AcDbEntity
  8
SFBODY
100
AcDbVertex
100
AcDbPolygonMeshVertex
 10
6.929096493834649
 20
2.870125742738172
 30
-3.0
 70
    64
  0
VERTEX
  5
5E02
330
5DDE
100
AcDbEntity
  8
SFBODY
100
AcDbVertex
100
AcDbPolygonMeshVertex
 10
6.236022092269095
 20
4.166776747647015
 30
-3.0
 70
    64
  0
VERTEX
  5
5E03
330
5DDE
100
AcDbEntity
  8
SFBODY
100
AcDbVertex
100
AcDbPolygonMeshVertex
 10
5.303300858899106
 20
5.303300858899105
 30
-3.0
 70
    64
  0
VERTEX
  5
5E04
330
5DDE
100
AcDbEntity
  8
SFBODY
100
AcDbVertex
100
AcDbPolygonMeshVertex
 10
4.16677674764702
 20
6.236022092269088
 30
-3.0
 70
    64
  0
VERTEX
  5
5E05
330
5DDE
100
AcDbEntity
  8
SFBODY
100
AcDbVertex
100
AcDbPolygonMeshVertex
 10
2.870125742738167
 20
6.929096493834649
 30
-3.0
 70
    64
  0
VERTEX
  5
5E06
330
5DDE
100
AcDbEntity
  8
SFBODY
100
AcDbVertex
100
AcDbPolygonMeshVertex
 10
1.463177415120966
 20
7.355889603024227
 30
-3.0
 70
    64
  0
VERTEX
  5
5E07
330
5DDE
100
AcDbEntity
  8
SFBODY
100
AcDbVertex
100
AcDbPolygonMeshVertex
 10
0.0
 20
7.5
 30
-3.0
 70
    64
  0
VERTEX
  5
5E08
330
5DDE
100
AcDbEntity
  8
SFBODY
100
AcDbVertex
100
AcDbPolygonMeshVertex
 10
-1.463177415120966
 20
7.355889603024228
 30
-3.0
 70
    64
  0
VERTEX
  5
5E09
330
5DDE
100
AcDbEntity
  8
SFBODY
100
AcDbVertex
100
AcDbPolygonMeshVertex
 10
-2.870125742738167
 20
6.92909649383465
 30
-3.0
 70
    64
  0
VERTEX
  5
5E0A
330
5DDE
100
AcDbEntity
  8
SFBODY
100
AcDbVertex
100
AcDbPolygonMeshVertex
 10
-4.16677674764702
 20
6.236022092269091
 30
-3.0
 70
    64
  0
VERTEX
  5
5E0B
330
5DDE
100
AcDbEntity
  8
SFBODY
100
AcDbVertex
100
AcDbPolygonMeshVertex
 10
-5.303300858899092
 20
5.303300858899107
 30
-3.0
 70
    64
  0
VERTEX
  5
5E0C
330
5DDE
100
AcDbEntity
  8
SFBODY
100
AcDbVertex
100
AcDbPolygonMeshVertex
 10
-6.236022092269081
 20
4.166776747647016
 30
-3.0
 70
    64
  0
VERTEX
  5
5E0D
330
5DDE
100
AcDbEntity
  8
SFBODY
100
AcDbVertex
100
AcDbPolygonMeshVertex
 10
-6.929096493834663
 20
2.870125742738172
 30
-3.0
 70
    64
  0
VERTEX
  5
5E0E
330
5DDE
100
AcDbEntity
  8
SFBODY
100
AcDbVertex
100
AcDbPolygonMeshVertex
 10
-7.355889603024223
 20
1.463177415120959
 30
-3.0
 70
    64
  0
VERTEX
  5
5E0F
330
5DDE
100
AcDbEntity
  8
SFBODY
100
AcDbVertex
100
AcDbPolygonMeshVertex
 10
-7.5
 20
-0.0000000000000044
 30
-3.0
 70
    64
  0
VERTEX
  5
5E10
330
5DDE
100
AcDbEntity
  8
SFBODY
100
AcDbVertex
100
AcDbPolygonMeshVertex
 10
-7.355889603024223
 20
-1.463177415120967
 30
-3.0
 70
    64
  0
VERTEX
  5
5E11
330
5DDE
100
AcDbEntity
  8
SFBODY
100
AcDbVertex
100
AcDbPolygonMeshVertex
 10
-6.929096493834634
 20
-2.87012574273818
 30
-3.0
 70
    64
  0
VERTEX
  5
5E12
330
5DDE
100
AcDbEntity
  8
SFBODY
100
AcDbVertex
100
AcDbPolygonMeshVertex
 10
-6.236022092269081
 20
-4.166776747647024
 30
-3.0
 70
    64
  0
VERTEX
  5
5E13
330
5DDE
100
AcDbEntity
  8
SFBODY
100
AcDbVertex
100
AcDbPolygonMeshVertex
 10
-5.303300858899092
 20
-5.303300858899113
 30
-3.0
 70
    64
  0
VERTEX
  5
5E14
330
5DDE
100
AcDbEntity
  8
SFBODY
100
AcDbVertex
100
AcDbPolygonMeshVertex
 10
-4.166776747646991
 20
-6.236022092269095
 30
-3.0
 70
    64
  0
VERTEX
  5
5E15
330
5DDE
100
AcDbEntity
  8
SFBODY
100
AcDbVertex
100
AcDbPolygonMeshVertex
 10
-2.870125742738153
 20
-6.929096493834656
 30
-3.0
 70
    64
  0
VERTEX
  5
5E16
330
5DDE
100
AcDbEntity
  8
SFBODY
100
AcDbVertex
100
AcDbPolygonMeshVertex
 10
-1.463177415120938
 20
-7.355889603024231
 30
-3.0
 70
    64
  0
VERTEX
  5
5E17
330
5DDE
100
AcDbEntity
  8
SFBODY
100
AcDbVertex
100
AcDbPolygonMeshVertex
 10
0.0000000000000142
 20
-7.5
 30
-3.0
 70
    64
  0
VERTEX
  5
5E18
330
5DDE
100
AcDbEntity
  8
SFBODY
100
AcDbVertex
100
AcDbPolygonMeshVertex
 10
1.463177415120981
 20
-7.355889603024225
 30
-3.0
 70
    64
  0
VERTEX
  5
5E19
330
5DDE
100
AcDbEntity
  8
SFBODY
100
AcDbVertex
100
AcDbPolygonMeshVertex
 10
2.870125742738196
 20
-6.929096493834642
 30
-3.0
 70
    64
  0
VERTEX
  5
5E1A
330
5DDE
100
AcDbEntity
  8
SFBODY
100
AcDbVertex
100
AcDbPolygonMeshVertex
 10
4.166776747647034
 20
-6.236022092269076
 30
-3.0
 70
    64
  0
VERTEX
  5
5E1B
330
5DDE
100
AcDbEntity
  8
SFBODY
100
AcDbVertex
100
AcDbPolygonMeshVertex
 10
5.30330085889912
 20
-5.303300858899089
 30
-3.0
 70
    64
  0
VERTEX
  5
5E1C
330
5DDE
100
AcDbEntity
  8
SFBODY
100
AcDbVertex
100
AcDbPolygonMeshVertex
 10
6.236022092269109
 20
-4.166776747646996
 30
-3.0
 70
    64
  0
VERTEX
  5
5E1D
330
5DDE
100
AcDbEntity
  8
SFBODY
100
AcDbVertex
100
AcDbPolygonMeshVertex
 10
6.929096493834663
 20
-2.870125742738148
 30
-3.0
 70
    64
  0
VERTEX
  5
5E1E
330
5DDE
100
AcDbEntity
  8
SFBODY
100
AcDbVertex
100
AcDbPolygonMeshVertex
 10
7.355889603024237
 20
-1.463177415120934
 30
-3.0
 70
    64
  0
SEQEND
  5
5E1F
330
5DDE
100
AcDbEntity
  8
SFBODY
  0
CIRCLE
  5
5E20
330
5DDD
100
AcDbEntity
  8
SFBODY
100
AcDbCircle
 10
0.0
 20
0.0
 30
-3.0
 40
7.5
  0
ENDBLK
  5
5E22
330
5DDD
100
AcDbEntity
  8
0
100
AcDbBlockEnd
  0
BLOCK
  5
5E8D
330
5E23
100
AcDbEntity
  8
0
100
AcDbBlockBegin
  2
BODY-2
 70
     0
 10
0.0
 20
0.0
 30
0.0
  3
BODY-2
  1

  0
POLYLINE
  5
5E24
330
5E23
100
AcDbEntity
  8
SFBODY
100
AcDbPolygonMesh
 66
     1
 10
0.0
 20
0.0
 30
0.0
 70
    16
 71
    12
 72
     2
  0
VERTEX
  5
5E25
330
5E24
100
AcDbEntity
  8
SFBODY
100
AcDbVertex
100
AcDbPolygonMeshVertex
 10
6.349999999999994
 20
6.349999999999998
 30
0.0
 70
    64
  0
VERTEX
  5
5E26
330
5E24
100
AcDbEntity
  8
SFBODY
100
AcDbVertex
100
AcDbPolygonMeshVertex
 10
6.349999999999994
 20
6.349999999999998
 30
-6.0
 70
    64
  0
VERTEX
  5
5E27
330
5E24
100
AcDbEntity
  8
SFBODY
100
AcDbVertex
100
AcDbPolygonMeshVertex
 10
6.349999999999994
 20
5.714999999999998
 30
0.0
 70
    64
  0
VERTEX
  5
5E28
330
5E24
100
AcDbEntity
  8
SFBODY
100
AcDbVertex
100
AcDbPolygonMeshVertex
 10
6.349999999999994
 20
5.714999999999998
 30
-6.0
 70
    64
  0
VERTEX
  5
5E29
330
5E24
100
AcDbEntity
  8
SFBODY
100
AcDbVertex
100
AcDbPolygonMeshVertex
 10
6.349999999999994
 20
4.444999999999998
 30
0.0
 70
    64
  0
VERTEX
  5
5E2A
330
5E24
100
AcDbEntity
  8
SFBODY
100
AcDbVertex
100
AcDbPolygonMeshVertex
 10
6.349999999999994
 20
4.444999999999998
 30
-6.0
 70
    64
  0
VERTEX
  5
5E2B
330
5E24
100
AcDbEntity
  8
SFBODY
100
AcDbVertex
100
AcDbPolygonMeshVertex
 10
6.349999999999994
 20
3.175
 30
0.0
 70
    64
  0
VERTEX
  5
5E2C
330
5E24
100
AcDbEntity
  8
SFBODY
100
AcDbVertex
100
AcDbPolygonMeshVertex
 10
6.349999999999994
 20
3.175
 30
-6.0
 70
    64
  0
VERTEX
  5
5E2D
330
5E24
100
AcDbEntity
  8
SFBODY
100
AcDbVertex
100
AcDbPolygonMeshVertex
 10
6.349999999999994
 20
1.904999999999999
 30
0.0
 70
    64
  0
VERTEX
  5
5E2E
330
5E24
100
AcDbEntity
  8
SFBODY
100
AcDbVertex
100
AcDbPolygonMeshVertex
 10
6.349999999999994
 20
1.904999999999999
 30
-6.0
 70
    64
  0
VERTEX
  5
5E2F
330
5E24
100
AcDbEntity
  8
SFBODY
100
AcDbVertex
100
AcDbPolygonMeshVertex
 10
6.349999999999994
 20
0.6350000000000002
 30
0.0
 70
    64
  0
VERTEX
  5
5E30
330
5E24
100
AcDbEntity
  8
SFBODY
100
AcDbVertex
100
AcDbPolygonMeshVertex
 10
6.349999999999994
 20
0.6350000000000002
 30
-6.0
 70
    64
  0
VERTEX
  5
5E31
330
5E24
100
AcDbEntity
  8
SFBODY
100
AcDbVertex
100
AcDbPolygonMeshVertex
 10
6.349999999999994
 20
-0.6349999999999999
 30
0.0
 70
    64
  0
VERTEX
  5
5E32
330
5E24
100
AcDbEntity
  8
SFBODY
100
AcDbVertex
100
AcDbPolygonMeshVertex
 10
6.349999999999994
 20
-0.6349999999999999
 30
-6.0
 70
    64
  0
VERTEX
  5
5E33
330
5E24
100
AcDbEntity
  8
SFBODY
100
AcDbVertex
100
AcDbPolygonMeshVertex
 10
6.349999999999994
 20
-1.905
 30
0.0
 70
    64
  0
VERTEX
  5
5E34
330
5E24
100
AcDbEntity
  8
SFBODY
100
AcDbVertex
100
AcDbPolygonMeshVertex
 10
6.349999999999994
 20
-1.905
 30
-6.0
 70
    64
  0
VERTEX
  5
5E35
330
5E24
100
AcDbEntity
  8
SFBODY
100
AcDbVertex
100
AcDbPolygonMeshVertex
 10
6.349999999999994
 20
-3.174999999999999
 30
0.0
 70
    64
  0
VERTEX
  5
5E36
330
5E24
100
AcDbEntity
  8
SFBODY
100
AcDbVertex
100
AcDbPolygonMeshVertex
 10
6.349999999999994
 20
-3.174999999999999
 30
-6.0
 70
    64
  0
VERTEX
  5
5E37
330
5E24
100
AcDbEntity
  8
SFBODY
100
AcDbVertex
100
AcDbPolygonMeshVertex
 10
6.349999999999994
 20
-4.445
 30
0.0
 70
    64
  0
VERTEX
  5
5E38
330
5E24
100
AcDbEntity
  8
SFBODY
100
AcDbVertex
100
AcDbPolygonMeshVertex
 10
6.349999999999994
 20
-4.445
 30
-6.0
 70
    64
  0
VERTEX
  5
5E39
330
5E24
100
AcDbEntity
  8
SFBODY
100
AcDbVertex
100
AcDbPolygonMeshVertex
 10
6.349999999999994
 20
-5.714999999999999
 30
0.0
 70
    64
  0
VERTEX
  5
5E3A
330
5E24
100
AcDbEntity
  8
SFBODY
100
AcDbVertex
100
AcDbPolygonMeshVertex
 10
6.349999999999994
 20
-5.714999999999999
 30
-6.0
 70
    64
  0
VERTEX
  5
5E3B
330
5E24
100
AcDbEntity
  8
SFBODY
100
AcDbVertex
100
AcDbPolygonMeshVertex
 10
6.349999999999994
 20
-6.35
 30
0.0
 70
    64
  0
VERTEX
  5
5E3C
330
5E24
100
AcDbEntity
  8
SFBODY
100
AcDbVertex
100
AcDbPolygonMeshVertex
 10
6.349999999999994
 20
-6.35
 30
-6.0
 70
    64
  0
SEQEND
  5
5E3D
330
5E24
100
AcDbEntity
  8
SFBODY
  0
POLYLINE
  5
5E3E
330
5E23
100
AcDbEntity
  8
SFBODY
100
AcDbPolygonMesh
 66
     1
 10
0.0
 20
0.0
 30
0.0
 70
    16
 71
    12
 72
     2
  0
VERTEX
  5
5E3F
330
5E3E
100
AcDbEntity
  8
SFBODY
100
AcDbVertex
100
AcDbPolygonMeshVertex
 10
-6.349999999999994
 20
6.349999999999999
 30
0.0
 70
    64
  0
VERTEX
  5
5E40
330
5E3E
100
AcDbEntity
  8
SFBODY
100
AcDbVertex
100
AcDbPolygonMeshVertex
 10
-6.349999999999994
 20
6.349999999999999
 30
-6.0
 70
    64
  0
VERTEX
  5
5E41
330
5E3E
100
AcDbEntity
  8
SFBODY
100
AcDbVertex
100
AcDbPolygonMeshVertex
 10
-6.349999999999994
 20
5.714999999999998
 30
0.0
 70
    64
  0
VERTEX
  5
5E42
330
5E3E
100
AcDbEntity
  8
SFBODY
100
AcDbVertex
100
AcDbPolygonMeshVertex
 10
-6.349999999999994
 20
5.714999999999998
 30
-6.0
 70
    64
  0
VERTEX
  5
5E43
330
5E3E
100
AcDbEntity
  8
SFBODY
100
AcDbVertex
100
AcDbPolygonMeshVertex
 10
-6.349999999999994
 20
4.444999999999999
 30
0.0
 70
    64
  0
VERTEX
  5
5E44
330
5E3E
100
AcDbEntity
  8
SFBODY
100
AcDbVertex
100
AcDbPolygonMeshVertex
 10
-6.349999999999994
 20
4.444999999999999
 30
-6.0
 70
    64
  0
VERTEX
  5
5E45
330
5E3E
100
AcDbEntity
  8
SFBODY
100
AcDbVertex
100
AcDbPolygonMeshVertex
 10
-6.349999999999994
 20
3.174999999999999
 30
0.0
 70
    64
  0
VERTEX
  5
5E46
330
5E3E
100
AcDbEntity
  8
SFBODY
100
AcDbVertex
100
AcDbPolygonMeshVertex
 10
-6.349999999999994
 20
3.174999999999999
 30
-6.0
 70
    64
  0
VERTEX
  5
5E47
330
5E3E
100
AcDbEntity
  8
SFBODY
100
AcDbVertex
100
AcDbPolygonMeshVertex
 10
-6.349999999999994
 20
1.905
 30
0.0
 70
    64
  0
VERTEX
  5
5E48
330
5E3E
100
AcDbEntity
  8
SFBODY
100
AcDbVertex
100
AcDbPolygonMeshVertex
 10
-6.349999999999994
 20
1.905
 30
-6.0
 70
    64
  0
VERTEX
  5
5E49
330
5E3E
100
AcDbEntity
  8
SFBODY
100
AcDbVertex
100
AcDbPolygonMeshVertex
 10
-6.349999999999994
 20
0.635
 30
0.0
 70
    64
  0
VERTEX
  5
5E4A
330
5E3E
100
AcDbEntity
  8
SFBODY
100
AcDbVertex
100
AcDbPolygonMeshVertex
 10
-6.349999999999994
 20
0.635
 30
-6.0
 70
    64
  0
VERTEX
  5
5E4B
330
5E3E
100
AcDbEntity
  8
SFBODY
100
AcDbVertex
100
AcDbPolygonMeshVertex
 10
-6.349999999999994
 20
-0.635
 30
0.0
 70
    64
  0
VERTEX
  5
5E4C
330
5E3E
100
AcDbEntity
  8
SFBODY
100
AcDbVertex
100
AcDbPolygonMeshVertex
 10
-6.349999999999994
 20
-0.635
 30
-6.0
 70
    64
  0
VERTEX
  5
5E4D
330
5E3E
100
AcDbEntity
  8
SFBODY
100
AcDbVertex
100
AcDbPolygonMeshVertex
 10
-6.349999999999994
 20
-1.905
 30
0.0
 70
    64
  0
VERTEX
  5
5E4E
330
5E3E
100
AcDbEntity
  8
SFBODY
100
AcDbVertex
100
AcDbPolygonMeshVertex
 10
-6.349999999999994
 20
-1.905
 30
-6.0
 70
    64
  0
VERTEX
  5
5E4F
330
5E3E
100
AcDbEntity
  8
SFBODY
100
AcDbVertex
100
AcDbPolygonMeshVertex
 10
-6.349999999999994
 20
-3.174999999999999
 30
0.0
 70
    64
  0
VERTEX
  5
5E50
330
5E3E
100
AcDbEntity
  8
SFBODY
100
AcDbVertex
100
AcDbPolygonMeshVertex
 10
-6.349999999999994
 20
-3.174999999999999
 30
-6.0
 70
    64
  0
VERTEX
  5
5E51
330
5E3E
100
AcDbEntity
  8
SFBODY
100
AcDbVertex
100
AcDbPolygonMeshVertex
 10
-6.349999999999994
 20
-4.444999999999999
 30
0.0
 70
    64
  0
VERTEX
  5
5E52
330
5E3E
100
AcDbEntity
  8
SFBODY
100
AcDbVertex
100
AcDbPolygonMeshVertex
 10
-6.349999999999994
 20
-4.444999999999999
 30
-6.0
 70
    64
  0
VERTEX
  5
5E53
330
5E3E
100
AcDbEntity
  8
SFBODY
100
AcDbVertex
100
AcDbPolygonMeshVertex
 10
-6.349999999999994
 20
-5.714999999999998
 30
0.0
 70
    64
  0
VERTEX
  5
5E54
330
5E3E
100
AcDbEntity
  8
SFBODY
100
AcDbVertex
100
AcDbPolygonMeshVertex
 10
-6.349999999999994
 20
-5.714999999999998
 30
-6.0
 70
    64
  0
VERTEX
  5
5E55
330
5E3E
100
AcDbEntity
  8
SFBODY
100
AcDbVertex
100
AcDbPolygonMeshVertex
 10
-6.349999999999994
 20
-6.349999999999999
 30
0.0
 70
    64
  0
VERTEX
  5
5E56
330
5E3E
100
AcDbEntity
  8
SFBODY
100
AcDbVertex
100
AcDbPolygonMeshVertex
 10
-6.349999999999994
 20
-6.349999999999999
 30
-6.0
 70
    64
  0
SEQEND
  5
5E57
330
5E3E
100
AcDbEntity
  8
SFBODY
  0
POLYLINE
  5
5E58
330
5E23
100
AcDbEntity
  8
SFBODY
100
AcDbPolygonMesh
 66
     1
 10
0.0
 20
0.0
 30
0.0
 70
    16
 71
    12
 72
     2
  0
VERTEX
  5
5E59
330
5E58
100
AcDbEntity
  8
SFBODY
100
AcDbVertex
100
AcDbPolygonMeshVertex
 10
-6.349999999999994
 20
6.349999999999999
 30
0.0
 70
    64
  0
VERTEX
  5
5E5A
330
5E58
100
AcDbEntity
  8
SFBODY
100
AcDbVertex
100
AcDbPolygonMeshVertex
 10
-6.349999999999994
 20
6.349999999999999
 30
-6.0
 70
    64
  0
VERTEX
  5
5E5B
330
5E58
100
AcDbEntity
  8
SFBODY
100
AcDbVertex
100
AcDbPolygonMeshVertex
 10
-5.715000000000003
 20
6.349999999999999
 30
0.0
 70
    64
  0
VERTEX
  5
5E5C
330
5E58
100
AcDbEntity
  8
SFBODY
100
AcDbVertex
100
AcDbPolygonMeshVertex
 10
-5.715000000000003
 20
6.349999999999999
 30
-6.0
 70
    64
  0
VERTEX
  5
5E5D
330
5E58
100
AcDbEntity
  8
SFBODY
100
AcDbVertex
100
AcDbPolygonMeshVertex
 10
-4.444999999999993
 20
6.349999999999999
 30
0.0
 70
    64
  0
VERTEX
  5
5E5E
330
5E58
100
AcDbEntity
  8
SFBODY
100
AcDbVertex
100
AcDbPolygonMeshVertex
 10
-4.444999999999993
 20
6.349999999999999
 30
-6.0
 70
    64
  0
VERTEX
  5
5E5F
330
5E58
100
AcDbEntity
  8
SFBODY
100
AcDbVertex
100
AcDbPolygonMeshVertex
 10
-3.174999999999997
 20
6.349999999999998
 30
0.0
 70
    64
  0
VERTEX
  5
5E60
330
5E58
100
AcDbEntity
  8
SFBODY
100
AcDbVertex
100
AcDbPolygonMeshVertex
 10
-3.174999999999997
 20
6.349999999999998
 30
-6.0
 70
    64
  0
VERTEX
  5
5E61
330
5E58
100
AcDbEntity
  8
SFBODY
100
AcDbVertex
100
AcDbPolygonMeshVertex
 10
-1.905000000000001
 20
6.349999999999999
 30
0.0
 70
    64
  0
VERTEX
  5
5E62
330
5E58
100
AcDbEntity
  8
SFBODY
100
AcDbVertex
100
AcDbPolygonMeshVertex
 10
-1.905000000000001
 20
6.349999999999999
 30
-6.0
 70
    64
  0
VERTEX
  5
5E63
330
5E58
100
AcDbEntity
  8
SFBODY
100
AcDbVertex
100
AcDbPolygonMeshVertex
 10
-0.6350000000000052
 20
6.349999999999999
 30
0.0
 70
    64
  0
VERTEX
  5
5E64
330
5E58
100
AcDbEntity
  8
SFBODY
100
AcDbVertex
100
AcDbPolygonMeshVertex
 10
-0.6350000000000052
 20
6.349999999999999
 30
-6.0
 70
    64
  0
VERTEX
  5
5E65
330
5E58
100
AcDbEntity
  8
SFBODY
100
AcDbVertex
100
AcDbPolygonMeshVertex
 10
0.6350000000000052
 20
6.349999999999999
 30
0.0
 70
    64
  0
VERTEX
  5
5E66
330
5E58
100
AcDbEntity
  8
SFBODY
100
AcDbVertex
100
AcDbPolygonMeshVertex
 10
0.6350000000000052
 20
6.349999999999999
 30
-6.0
 70
    64
  0
VERTEX
  5
5E67
330
5E58
100
AcDbEntity
  8
SFBODY
100
AcDbVertex
100
AcDbPolygonMeshVertex
 10
1.905000000000001
 20
6.349999999999998
 30
0.0
 70
    64
  0
VERTEX
  5
5E68
330
5E58
100
AcDbEntity
  8
SFBODY
100
AcDbVertex
100
AcDbPolygonMeshVertex
 10
1.905000000000001
 20
6.349999999999998
 30
-6.0
 70
    64
  0
VERTEX
  5
5E69
330
5E58
100
AcDbEntity
  8
SFBODY
100
AcDbVertex
100
AcDbPolygonMeshVertex
 10
3.174999999999997
 20
6.349999999999999
 30
0.0
 70
    64
  0
VERTEX
  5
5E6A
330
5E58
100
AcDbEntity
  8
SFBODY
100
AcDbVertex
100
AcDbPolygonMeshVertex
 10
3.174999999999997
 20
6.349999999999999
 30
-6.0
 70
    64
  0
VERTEX
  5
5E6B
330
5E58
100
AcDbEntity
  8
SFBODY
100
AcDbVertex
100
AcDbPolygonMeshVertex
 10
4.444999999999993
 20
6.349999999999999
 30
0.0
 70
    64
  0
VERTEX
  5
5E6C
330
5E58
100
AcDbEntity
  8
SFBODY
100
AcDbVertex
100
AcDbPolygonMeshVertex
 10
4.444999999999993
 20
6.349999999999999
 30
-6.0
 70
    64
  0
VERTEX
  5
5E6D
330
5E58
100
AcDbEntity
  8
SFBODY
100
AcDbVertex
100
AcDbPolygonMeshVertex
 10
5.715000000000003
 20
6.349999999999998
 30
0.0
 70
    64
  0
VERTEX
  5
5E6E
330
5E58
100
AcDbEntity
  8
SFBODY
100
AcDbVertex
100
AcDbPolygonMeshVertex
 10
5.715000000000003
 20
6.349999999999998
 30
-6.0
 70
    64
  0
VERTEX
  5
5E6F
330
5E58
100
AcDbEntity
  8
SFBODY
100
AcDbVertex
100
AcDbPolygonMeshVertex
 10
6.349999999999994
 20
6.349999999999998
 30
0.0
 70
    64
  0
VERTEX
  5
5E70
330
5E58
100
AcDbEntity
  8
SFBODY
100
AcDbVertex
100
AcDbPolygonMeshVertex
 10
6.349999999999994
 20
6.349999999999998
 30
-6.0
 70
    64
  0
SEQEND
  5
5E71
330
5E58
100
AcDbEntity
  8
SFBODY
  0
POLYLINE
  5
5E72
330
5E23
100
AcDbEntity
  8
SFBODY
100
AcDbPolygonMesh
 66
     1
 10
0.0
 20
0.0
 30
0.0
 70
    16
 71
    12
 72
     2
  0
VERTEX
  5
5E73
330
5E72
100
AcDbEntity
  8
SFBODY
100
AcDbVertex
100
AcDbPolygonMeshVertex
 10
-6.349999999999994
 20
-6.349999999999999
 30
0.0
 70
    64
  0
VERTEX
  5
5E74
330
5E72
100
AcDbEntity
  8
SFBODY
100
AcDbVertex
100
AcDbPolygonMeshVertex
 10
-6.349999999999994
 20
-6.349999999999999
 30
-6.0
 70
    64
  0
VERTEX
  5
5E75
330
5E72
100
AcDbEntity
  8
SFBODY
100
AcDbVertex
100
AcDbPolygonMeshVertex
 10
-5.715000000000003
 20
-6.349999999999999
 30
0.0
 70
    64
  0
VERTEX
  5
5E76
330
5E72
100
AcDbEntity
  8
SFBODY
100
AcDbVertex
100
AcDbPolygonMeshVertex
 10
-5.715000000000003
 20
-6.349999999999999
 30
-6.0
 70
    64
  0
VERTEX
  5
5E77
330
5E72
100
AcDbEntity
  8
SFBODY
100
AcDbVertex
100
AcDbPolygonMeshVertex
 10
-4.444999999999993
 20
-6.349999999999999
 30
0.0
 70
    64
  0
VERTEX
  5
5E78
330
5E72
100
AcDbEntity
  8
SFBODY
100
AcDbVertex
100
AcDbPolygonMeshVertex
 10
-4.444999999999993
 20
-6.349999999999999
 30
-6.0
 70
    64
  0
VERTEX
  5
5E79
330
5E72
100
AcDbEntity
  8
SFBODY
100
AcDbVertex
100
AcDbPolygonMeshVertex
 10
-3.174999999999997
 20
-6.35
 30
0.0
 70
    64
  0
VERTEX
  5
5E7A
330
5E72
100
AcDbEntity
  8
SFBODY
100
AcDbVertex
100
AcDbPolygonMeshVertex
 10
-3.174999999999997
 20
-6.35
 30
-6.0
 70
    64
  0
VERTEX
  5
5E7B
330
5E72
100
AcDbEntity
  8
SFBODY
100
AcDbVertex
100
AcDbPolygonMeshVertex
 10
-1.905000000000001
 20
-6.349999999999999
 30
0.0
 70
    64
  0
VERTEX
  5
5E7C
330
5E72
100
AcDbEntity
  8
SFBODY
100
AcDbVertex
100
AcDbPolygonMeshVertex
 10
-1.905000000000001
 20
-6.349999999999999
 30
-6.0
 70
    64
  0
VERTEX
  5
5E7D
330
5E72
100
AcDbEntity
  8
SFBODY
100
AcDbVertex
100
AcDbPolygonMeshVertex
 10
-0.6350000000000052
 20
-6.349999999999999
 30
0.0
 70
    64
  0
VERTEX
  5
5E7E
330
5E72
100
AcDbEntity
  8
SFBODY
100
AcDbVertex
100
AcDbPolygonMeshVertex
 10
-0.6350000000000052
 20
-6.349999999999999
 30
-6.0
 70
    64
  0
VERTEX
  5
5E7F
330
5E72
100
AcDbEntity
  8
SFBODY
100
AcDbVertex
100
AcDbPolygonMeshVertex
 10
0.6350000000000052
 20
-6.349999999999999
 30
0.0
 70
    64
  0
VERTEX
  5
5E80
330
5E72
100
AcDbEntity
  8
SFBODY
100
AcDbVertex
100
AcDbPolygonMeshVertex
 10
0.6350000000000052
 20
-6.349999999999999
 30
-6.0
 70
    64
  0
VERTEX
  5
5E81
330
5E72
100
AcDbEntity
  8
SFBODY
100
AcDbVertex
100
AcDbPolygonMeshVertex
 10
1.905000000000001
 20
-6.35
 30
0.0
 70
    64
  0
VERTEX
  5
5E82
330
5E72
100
AcDbEntity
  8
SFBODY
100
AcDbVertex
100
AcDbPolygonMeshVertex
 10
1.905000000000001
 20
-6.35
 30
-6.0
 70
    64
  0
VERTEX
  5
5E83
330
5E72
100
AcDbEntity
  8
SFBODY
100
AcDbVertex
100
AcDbPolygonMeshVertex
 10
3.174999999999997
 20
-6.349999999999999
 30
0.0
 70
    64
  0
VERTEX
  5
5E84
330
5E72
100
AcDbEntity
  8
SFBODY
100
AcDbVertex
100
AcDbPolygonMeshVertex
 10
3.174999999999997
 20
-6.349999999999999
 30
-6.0
 70
    64
  0
VERTEX
  5
5E85
330
5E72
100
AcDbEntity
  8
SFBODY
100
AcDbVertex
100
AcDbPolygonMeshVertex
 10
4.444999999999993
 20
-6.349999999999999
 30
0.0
 70
    64
  0
VERTEX
  5
5E86
330
5E72
100
AcDbEntity
  8
SFBODY
100
AcDbVertex
100
AcDbPolygonMeshVertex
 10
4.444999999999993
 20
-6.349999999999999
 30
-6.0
 70
    64
  0
VERTEX
  5
5E87
330
5E72
100
AcDbEntity
  8
SFBODY
100
AcDbVertex
100
AcDbPolygonMeshVertex
 10
5.715000000000003
 20
-6.35
 30
0.0
 70
    64
  0
VERTEX
  5
5E88
330
5E72
100
AcDbEntity
  8
SFBODY
100
AcDbVertex
100
AcDbPolygonMeshVertex
 10
5.715000000000003
 20
-6.35
 30
-6.0
 70
    64
  0
VERTEX
  5
5E89
330
5E72
100
AcDbEntity
  8
SFBODY
100
AcDbVertex
100
AcDbPolygonMeshVertex
 10
6.349999999999994
 20
-6.35
 30
0.0
 70
    64
  0
VERTEX
  5
5E8A
330
5E72
100
AcDbEntity
  8
SFBODY
100
AcDbVertex
100
AcDbPolygonMeshVertex
 10
6.349999999999994
 20
-6.35
 30
-6.0
 70
    64
  0
SEQEND
  5
5E8B
330
5E72
100
AcDbEntity
  8
SFBODY
  0
3DFACE
  5
5E8C
330
5E23
100
AcDbEntity
  8
SFBODY
100
AcDbFace
 10
6.349999999999994
 20
-6.350000000000002
 30
-6.0
 11
-6.349999999999994
 21
-6.35
 31
-6.0
 12
-6.349999999999994
 22
6.35
 32
-6.0
 13
6.349999999999994
 23
6.349999999999998
 33
-6.0
  0
ENDBLK
  5
5E8E
330
5E23
100
AcDbEntity
  8
0
100
AcDbBlockEnd
  0
BLOCK
  5
5ED1
330
5E8F
100
AcDbEntity
  8
0
100
AcDbBlockBegin
  2
SURF-4
 70
     2
 10
0.0
 20
0.0
 30
0.0
  3
SURF-4
  1

  0
LINE
  5
5E90
330
5E8F
100
AcDbEntity
  8
RAY_REFLECTIVE
100
AcDbLine
 10
0.0
 20
0.0
 30
0.0
 11
0.0
 21
0.0
 31
1.25
210
0.0000000000000002
220
1.0
230
0.0
  0
POLYLINE
  5
5E91
330
5E8F
100
AcDbEntity
  8
RAY_REFLECTIVE
100
AcDb3dPolyline
 66
     1
 10
0.0
 20
0.0
 30
0.0
 70
     8
  0
VERTEX
  5
5E92
330
5E91
100
AcDbEntity
  8
RAY_REFLECTIVE
100
AcDbVertex
100
AcDb3dPolylineVertex
 10
0.0
 20
10.0
 30
0.4173925689860312
 70
    32
  0
VERTEX
  5
5E93
330
5E91
100
AcDbEntity
  8
RAY_REFLECTIVE
100
AcDbVertex
100
AcDb3dPolylineVertex
 10
0.0
 20
9.990104919542245
 30
0.4165655130421726
 70
    32
  0
VERTEX
  5
5E94
330
5E91
100
AcDbEntity
  8
RAY_REFLECTIVE
100
AcDbVertex
100
AcDb3dPolylineVertex
 10
0.0
 20
8.992916948129213
 30
0.3374434304362239
 70
    32
  0
VERTEX
  5
5E95
330
5E91
100
AcDbEntity
  8
RAY_REFLECTIVE
100
AcDbVertex
100
AcDb3dPolylineVertex
 10
0.0
 20
7.995138939204758
 30
0.2666389290653512
 70
    32
  0
VERTEX
  5
5E96
330
5E91
100
AcDbEntity
  8
RAY_REFLECTIVE
100
AcDbVertex
100
AcDb3dPolylineVertex
 10
0.0
 20
6.99684023965732
 30
0.2041560543075036
 70
    32
  0
VERTEX
  5
5E97
330
5E91
100
AcDbEntity
  8
RAY_REFLECTIVE
100
AcDbVertex
100
AcDb3dPolylineVertex
 10
0.0
 20
5.998090225276516
 30
0.1499982743035559
 70
    32
  0
VERTEX
  5
5E98
330
5E91
100
AcDbEntity
  8
RAY_REFLECTIVE
100
AcDbVertex
100
AcDb3dPolylineVertex
 10
0.0
 20
4.99895829594029
 30
0.104168479652941
 70
    32
  0
VERTEX
  5
5E99
330
5E91
100
AcDbEntity
  8
RAY_REFLECTIVE
100
AcDbVertex
100
AcDb3dPolylineVertex
 10
0.0
 20
3.999513870799876
 30
0.0666689831501515
 70
    32
  0
VERTEX
  5
5E9A
330
5E91
100
AcDbEntity
  8
RAY_REFLECTIVE
100
AcDbVertex
100
AcDb3dPolylineVertex
 10
0.0
 20
2.999826383462893
 30
0.0375015195620279
 70
    32
  0
VERTEX
  5
5E9B
330
5E91
100
AcDbEntity
  8
RAY_REFLECTIVE
100
AcDbVertex
100
AcDb3dPolylineVertex
 10
0.0
 20
1.99996527717494
 30
0.0166672454457455
 70
    32
  0
VERTEX
  5
5E9C
330
5E91
100
AcDbEntity
  8
RAY_REFLECTIVE
100
AcDbVertex
100
AcDb3dPolylineVertex
 10
0.0
 20
1.0
 30
0.0041667390071325
 70
    32
  0
VERTEX
  5
5E9D
330
5E91
100
AcDbEntity
  8
RAY_REFLECTIVE
100
AcDbVertex
100
AcDb3dPolylineVertex
 10
0.0
 20
0.0
 30
0.0
 70
    32
  0
SEQEND
  5
5E9E
330
5E91
100
AcDbEntity
  8
RAY_REFLECTIVE
  0
POLYLINE
  5
5E9F
330
5E8F
100
AcDbEntity
  8
RAY_REFLECTIVE
100
AcDb3dPolyline
 66
     1
 10
0.0
 20
0.0
 30
0.0
 70
     8
  0
VERTEX
  5
5EA0
330
5E9F
100
AcDbEntity
  8
RAY_REFLECTIVE
100
AcDbVertex
100
AcDb3dPolylineVertex
 10
0.0
 20
0.0
 30
0.0
 70
    32
  0
VERTEX
  5
5EA1
330
5E9F
100
AcDbEntity
  8
RAY_REFLECTIVE
100
AcDbVertex
100
AcDb3dPolylineVertex
 10
0.0
 20
-1.0
 30
0.0041667390071325
 70
    32
  0
VERTEX
  5
5EA2
330
5E9F
100
AcDbEntity
  8
RAY_REFLECTIVE
100
AcDbVertex
100
AcDb3dPolylineVertex
 10
0.0
 20
-1.99996527717494
 30
0.0166672454457455
 70
    32
  0
VERTEX
  5
5EA3
330
5E9F
100
AcDbEntity
  8
RAY_REFLECTIVE
100
AcDbVertex
100
AcDb3dPolylineVertex
 10
0.0
 20
-2.999826383462892
 30
0.0375015195620279
 70
    32
  0
VERTEX
  5
5EA4
330
5E9F
100
AcDbEntity
  8
RAY_REFLECTIVE
100
AcDbVertex
100
AcDb3dPolylineVertex
 10
0.0
 20
-3.999513870799875
 30
0.0666689831501515
 70
    32
  0
VERTEX
  5
5EA5
330
5E9F
100
AcDbEntity
  8
RAY_REFLECTIVE
100
AcDbVertex
100
AcDb3dPolylineVertex
 10
0.0
 20
-4.99895829594029
 30
0.104168479652941
 70
    32
  0
VERTEX
  5
5EA6
330
5E9F
100
AcDbEntity
  8
RAY_REFLECTIVE
100
AcDbVertex
100
AcDb3dPolylineVertex
 10
0.0
 20
-5.998090225276516
 30
0.1499982743035559
 70
    32
  0
VERTEX
  5
5EA7
330
5E9F
100
AcDbEntity
  8
RAY_REFLECTIVE
100
AcDbVertex
100
AcDb3dPolylineVertex
 10
0.0
 20
-6.99684023965732
 30
0.2041560543075036
 70
    32
  0
VERTEX
  5
5EA8
330
5E9F
100
AcDbEntity
  8
RAY_REFLECTIVE
100
AcDbVertex
100
AcDb3dPolylineVertex
 10
0.0
 20
-7.995138939204758
 30
0.2666389290653512
 70
    32
  0
VERTEX
  5
5EA9
330
5E9F
100
AcDbEntity
  8
RAY_REFLECTIVE
100
AcDbVertex
100
AcDb3dPolylineVertex
 10
0.0
 20
-8.992916948129213
 30
0.3374434304362239
 70
    32
  0
VERTEX
  5
5EAA
330
5E9F
100
AcDbEntity
  8
RAY_REFLECTIVE
100
AcDbVertex
100
AcDb3dPolylineVertex
 10
0.0
 20
-9.990104919542245
 30
0.4165655130421726
 70
    32
  0
VERTEX
  5
5EAB
330
5E9F
100
AcDbEntity
  8
RAY_REFLECTIVE
100
AcDbVertex
100
AcDb3dPolylineVertex
 10
0.0
 20
-10.0
 30
0.4173925689860312
 70
    32
  0
SEQEND
  5
5EAC
330
5E9F
100
AcDbEntity
  8
RAY_REFLECTIVE
  0
POLYLINE
  5
5EAD
330
5E8F
100
AcDbEntity
  8
RAY_REFLECTIVE
100
AcDb3dPolyline
 66
     1
 10
0.0
 20
0.0
 30
0.0
 70
     8
  0
VERTEX
  5
5EAE
330
5EAD
100
AcDbEntity
  8
RAY_REFLECTIVE
100
AcDbVertex
100
AcDb3dPolylineVertex
 10
-10.00000000000001
 20
0.0
 30
0.4173925689860312
 70
    32
  0
VERTEX
  5
5EAF
330
5EAD
100
AcDbEntity
  8
RAY_REFLECTIVE
100
AcDbVertex
100
AcDb3dPolylineVertex
 10
-9.990104919542261
 20
0.0
 30
0.4165655130421726
 70
    32
  0
VERTEX
  5
5EB0
330
5EAD
100
AcDbEntity
  8
RAY_REFLECTIVE
100
AcDbVertex
100
AcDb3dPolylineVertex
 10
-8.992916948129234
 20
0.0
 30
0.3374434304362239
 70
    32
  0
VERTEX
  5
5EB1
330
5EAD
100
AcDbEntity
  8
RAY_REFLECTIVE
100
AcDbVertex
100
AcDb3dPolylineVertex
 10
-7.995138939204778
 20
0.0
 30
0.2666389290653512
 70
    32
  0
VERTEX
  5
5EB2
330
5EAD
100
AcDbEntity
  8
RAY_REFLECTIVE
100
AcDbVertex
100
AcDb3dPolylineVertex
 10
-6.996840239657331
 20
0.0
 30
0.2041560543075036
 70
    32
  0
VERTEX
  5
5EB3
330
5EAD
100
AcDbEntity
  8
RAY_REFLECTIVE
100
AcDbVertex
100
AcDb3dPolylineVertex
 10
-5.998090225276527
 20
0.0
 30
0.1499982743035559
 70
    32
  0
VERTEX
  5
5EB4
330
5EAD
100
AcDbEntity
  8
RAY_REFLECTIVE
100
AcDbVertex
100
AcDb3dPolylineVertex
 10
-4.998958295940312
 20
0.0
 30
0.104168479652941
 70
    32
  0
VERTEX
  5
5EB5
330
5EAD
100
AcDbEntity
  8
RAY_REFLECTIVE
100
AcDbVertex
100
AcDb3dPolylineVertex
 10
-3.999513870799887
 20
0.0
 30
0.0666689831501515
 70
    32
  0
VERTEX
  5
5EB6
330
5EAD
100
AcDbEntity
  8
RAY_REFLECTIVE
100
AcDbVertex
100
AcDb3dPolylineVertex
 10
-2.999826383462902
 20
0.0
 30
0.0375015195620279
 70
    32
  0
VERTEX
  5
5EB7
330
5EAD
100
AcDbEntity
  8
RAY_REFLECTIVE
100
AcDbVertex
100
AcDb3dPolylineVertex
 10
-1.999965277174936
 20
0.0
 30
0.0166672454457455
 70
    32
  0
VERTEX
  5
5EB8
330
5EAD
100
AcDbEntity
  8
RAY_REFLECTIVE
100
AcDbVertex
100
AcDb3dPolylineVertex
 10
-1.0
 20
0.0
 30
0.0041667390071325
 70
    32
  0
VERTEX
  5
5EB9
330
5EAD
100
AcDbEntity
  8
RAY_REFLECTIVE
100
AcDbVertex
100
AcDb3dPolylineVertex
 10
0.0
 20
0.0
 30
0.0
 70
    32
  0
SEQEND
  5
5EBA
330
5EAD
100
AcDbEntity
  8
RAY_REFLECTIVE
  0
POLYLINE
  5
5EBB
330
5E8F
100
AcDbEntity
  8
RAY_REFLECTIVE
100
AcDb3dPolyline
 66
     1
 10
0.0
 20
0.0
 30
0.0
 70
     8
  0
VERTEX
  5
5EBC
330
5EBB
100
AcDbEntity
  8
RAY_REFLECTIVE
100
AcDbVertex
100
AcDb3dPolylineVertex
 10
0.0
 20
0.0
 30
0.0
 70
    32
  0
VERTEX
  5
5EBD
330
5EBB
100
AcDbEntity
  8
RAY_REFLECTIVE
100
AcDbVertex
100
AcDb3dPolylineVertex
 10
1.0
 20
0.0
 30
0.0041667390071325
 70
    32
  0
VERTEX
  5
5EBE
330
5EBB
100
AcDbEntity
  8
RAY_REFLECTIVE
100
AcDbVertex
100
AcDb3dPolylineVertex
 10
1.999965277174936
 20
0.0
 30
0.0166672454457455
 70
    32
  0
VERTEX
  5
5EBF
330
5EBB
100
AcDbEntity
  8
RAY_REFLECTIVE
100
AcDbVertex
100
AcDb3dPolylineVertex
 10
2.999826383462902
 20
0.0
 30
0.0375015195620279
 70
    32
  0
VERTEX
  5
5EC0
330
5EBB
100
AcDbEntity
  8
RAY_REFLECTIVE
100
AcDbVertex
100
AcDb3dPolylineVertex
 10
3.999513870799887
 20
0.0
 30
0.0666689831501515
 70
    32
  0
VERTEX
  5
5EC1
330
5EBB
100
AcDbEntity
  8
RAY_REFLECTIVE
100
AcDbVertex
100
AcDb3dPolylineVertex
 10
4.998958295940298
 20
0.0
 30
0.104168479652941
 70
    32
  0
VERTEX
  5
5EC2
330
5EBB
100
AcDbEntity
  8
RAY_REFLECTIVE
100
AcDbVertex
100
AcDb3dPolylineVertex
 10
5.998090225276513
 20
0.0
 30
0.1499982743035559
 70
    32
  0
VERTEX
  5
5EC3
330
5EBB
100
AcDbEntity
  8
RAY_REFLECTIVE
100
AcDbVertex
100
AcDb3dPolylineVertex
 10
6.996840239657331
 20
0.0
 30
0.2041560543075036
 70
    32
  0
VERTEX
  5
5EC4
330
5EBB
100
AcDbEntity
  8
RAY_REFLECTIVE
100
AcDbVertex
100
AcDb3dPolylineVertex
 10
7.995138939204764
 20
0.0
 30
0.2666389290653512
 70
    32
  0
VERTEX
  5
5EC5
330
5EBB
100
AcDbEntity
  8
RAY_REFLECTIVE
100
AcDbVertex
100
AcDb3dPolylineVertex
 10
8.99291694812922
 20
0.0
 30
0.3374434304362239
 70
    32
  0
VERTEX
  5
5EC6
330
5EBB
100
AcDbEntity
  8
RAY_REFLECTIVE
100
AcDbVertex
100
AcDb3dPolylineVertex
 10
9.990104919542233
 20
0.0
 30
0.4165655130421726
 70
    32
  0
VERTEX
  5
5EC7
330
5EBB
100
AcDbEntity
  8
RAY_REFLECTIVE
100
AcDbVertex
100
AcDb3dPolylineVertex
 10
10.0
 20
0.0
 30
0.4173925689860312
 70
    32
  0
SEQEND
  5
5EC8
330
5EBB
100
AcDbEntity
  8
RAY_REFLECTIVE
  0
CIRCLE
  5
5EC9
330
5E8F
100
AcDbEntity
  8
RAY_REFLECTIVE
100
AcDbCircle
 10
0.0
 20
0.0
 30
0.4173925689860312
 40
10.0
  0
ATTDEF
  5
5ECA
330
5E8F
100
AcDbEntity
  8
RAY_ATTBYTES
100
AcDbText
 10
0.0
 20
0.0
 30
0.0
 40
0.635
  1
index^J-1.0
 50
89.99999999999998
210
0.0000000000000002
220
1.0
230
0.0
100
AcDbAttributeDefinition
  3

  2
MATERIAL
 70
     0
  0
ATTDEF
  5
5ECB
330
5E8F
100
AcDbEntity
  8
RAY_ATTBYTES
100
AcDbText
 10
0.0
 20
0.0
 30
0.0
 40
0.635
  1
shape^JSphere^Jradius^J-120.000000000000
 50
89.99999999999998
210
0.0000000000000002
220
1.0
230
0.0
100
AcDbAttributeDefinition
  3

  2
SHAPE
 70
     0
  0
ATTDEF
  5
5ECC
330
5E8F
100
AcDbEntity
  8
RAY_ATTBYTES
100
AcDbText
 10
0.0
 20
0.0
 30
0.0
 40
0.635
  1
thick^J-3.0000
 50
89.99999999999998
210
0.0000000000000002
220
1.0
230
0.0
100
AcDbAttributeDefinition
  3

  2
THICK
 70
     0
  0
ATTDEF
  5
5ECD
330
5E8F
100
AcDbEntity
  8
RAY_ATTBYTES
100
AcDbText
 10
0.0
 20
0.0
 30
0.0
 40
0.635
  1
height^J0.000000000^Jwidth^J20.000000000^Jhole^J0.000000000
 50
89.99999999999998
210
0.0000000000000002
220
1.0
230
0.0
100
AcDbAttributeDefinition
  3

  2
SIZE
 70
     0
  0
ATTDEF
  5
5ECE
330
5E8F
100
AcDbEntity
  8
RAY_ATTBYTES
100
AcDbText
 10
0.0
 20
0.0
 30
0.0
 40
0.635
  1
Type^JMirror
 50
89.99999999999998
210
0.0000000000000002
220
1.0
230
0.0
100
AcDbAttributeDefinition
  3

  2
TYPE
 70
     0
  0
ATTDEF
  5
5ECF
330
5E8F
100
AcDbEntity
  8
RAY_ATTBYTES
100
AcDbText
 10
0.0
 20
0.0
 30
0.0
 40
0.635
  1
None
 50
89.99999999999998
210
0.0000000000000002
220
1.0
230
0.0
100
AcDbAttributeDefinition
  3

  2
MODIFIER
 70
     0
  0
ATTDEF
  5
5ED0
330
5E8F
100
AcDbEntity
  8
RAY_ATTBYTES
100
AcDbText
 10
0.0
 20
0.0
 30
0.0
 40
0.635
  1
None
 50
89.99999999999998
210
0.0000000000000002
220
1.0
230
0.0
100
AcDbAttributeDefinition
  3

  2
OTHER
 70
     0
  0
ENDBLK
  5
5ED2
330
5E8F
100
AcDbEntity
  8
0
100
AcDbBlockEnd
  0
BLOCK
  5
5F17
330
5ED3
100
AcDbEntity
  8
0
100
AcDbBlockBegin
  2
BODY-3
 70
     0
 10
0.0
 20
0.0
 30
0.0
  3
BODY-3
  1

  0
POLYLINE
  5
5ED4
330
5ED3
100
AcDbEntity
  8
SFBODY
100
AcDbPolygonMesh
 66
     1
 10
0.0
 20
0.0
 30
0.0
 70
    48
 71
     2
 72
    32
  0
VERTEX
  5
5ED5
330
5ED4
100
AcDbEntity
  8
SFBODY
100
AcDbVertex
100
AcDbPolygonMeshVertex
 10
10.0
 20
-0.0000000000000018
 30
0.6274606680622697
 70
    64
  0
VERTEX
  5
5ED6
330
5ED4
100
AcDbEntity
  8
SFBODY
100
AcDbVertex
100
AcDbPolygonMeshVertex
 10
9.807852804032307
 20
1.95090322016128
 30
0.6274606680622697
 70
    64
  0
VERTEX
  5
5ED7
330
5ED4
100
AcDbEntity
  8
SFBODY
100
AcDbVertex
100
AcDbPolygonMeshVertex
 10
9.238795325112874
 20
3.826834323650895
 30
0.6274606680622697
 70
    64
  0
VERTEX
  5
5ED8
330
5ED4
100
AcDbEntity
  8
SFBODY
100
AcDbVertex
100
AcDbPolygonMeshVertex
 10
8.314696123025456
 20
5.55570233019602
 30
0.6274606680622697
 70
    64
  0
VERTEX
  5
5ED9
330
5ED4
100
AcDbEntity
  8
SFBODY
100
AcDbVertex
100
AcDbPolygonMeshVertex
 10
7.071067811865475
 20
7.071067811865473
 30
0.6274606680622697
 70
    64
  0
VERTEX
  5
5EDA
330
5ED4
100
AcDbEntity
  8
SFBODY
100
AcDbVertex
100
AcDbPolygonMeshVertex
 10
5.555702330196027
 20
8.31469612302545
 30
0.6274606680622697
 70
    64
  0
VERTEX
  5
5EDB
330
5ED4
100
AcDbEntity
  8
SFBODY
100
AcDbVertex
100
AcDbPolygonMeshVertex
 10
3.826834323650899
 20
9.238795325112866
 30
0.6274606680622697
 70
    64
  0
VERTEX
  5
5EDC
330
5ED4
100
AcDbEntity
  8
SFBODY
100
AcDbVertex
100
AcDbPolygonMeshVertex
 10
1.950903220161279
 20
9.807852804032302
 30
0.6274606680622697
 70
    64
  0
VERTEX
  5
5EDD
330
5ED4
100
AcDbEntity
  8
SFBODY
100
AcDbVertex
100
AcDbPolygonMeshVertex
 10
0.0
 20
10.0
 30
0.6274606680622697
 70
    64
  0
VERTEX
  5
5EDE
330
5ED4
100
AcDbEntity
  8
SFBODY
100
AcDbVertex
100
AcDbPolygonMeshVertex
 10
-1.950903220161279
 20
9.807852804032304
 30
0.6274606680622697
 70
    64
  0
VERTEX
  5
5EDF
330
5ED4
100
AcDbEntity
  8
SFBODY
100
AcDbVertex
100
AcDbPolygonMeshVertex
 10
-3.826834323650899
 20
9.238795325112867
 30
0.6274606680622697
 70
    64
  0
VERTEX
  5
5EE0
330
5ED4
100
AcDbEntity
  8
SFBODY
100
AcDbVertex
100
AcDbPolygonMeshVertex
 10
-5.555702330196027
 20
8.314696123025454
 30
0.6274606680622697
 70
    64
  0
VERTEX
  5
5EE1
330
5ED4
100
AcDbEntity
  8
SFBODY
100
AcDbVertex
100
AcDbPolygonMeshVertex
 10
-7.071067811865475
 20
7.071067811865477
 30
0.6274606680622697
 70
    64
  0
VERTEX
  5
5EE2
330
5ED4
100
AcDbEntity
  8
SFBODY
100
AcDbVertex
100
AcDbPolygonMeshVertex
 10
-8.314696123025441
 20
5.555702330196022
 30
0.6274606680622697
 70
    64
  0
VERTEX
  5
5EE3
330
5ED4
100
AcDbEntity
  8
SFBODY
100
AcDbVertex
100
AcDbPolygonMeshVertex
 10
-9.238795325112874
 20
3.826834323650896
 30
0.6274606680622697
 70
    64
  0
VERTEX
  5
5EE4
330
5ED4
100
AcDbEntity
  8
SFBODY
100
AcDbVertex
100
AcDbPolygonMeshVertex
 10
-9.807852804032307
 20
1.950903220161279
 30
0.6274606680622697
 70
    64
  0
VERTEX
  5
5EE5
330
5ED4
100
AcDbEntity
  8
SFBODY
100
AcDbVertex
100
AcDbPolygonMeshVertex
 10
-10.0
 20
-0.0000000000000058
 30
0.6274606680622697
 70
    64
  0
VERTEX
  5
5EE6
330
5ED4
100
AcDbEntity
  8
SFBODY
100
AcDbVertex
100
AcDbPolygonMeshVertex
 10
-9.807852804032307
 20
-1.95090322016129
 30
0.6274606680622697
 70
    64
  0
VERTEX
  5
5EE7
330
5ED4
100
AcDbEntity
  8
SFBODY
100
AcDbVertex
100
AcDbPolygonMeshVertex
 10
-9.238795325112874
 20
-3.826834323650906
 30
0.6274606680622697
 70
    64
  0
VERTEX
  5
5EE8
330
5ED4
100
AcDbEntity
  8
SFBODY
100
AcDbVertex
100
AcDbPolygonMeshVertex
 10
-8.314696123025441
 20
-5.555702330196032
 30
0.6274606680622697
 70
    64
  0
VERTEX
  5
5EE9
330
5ED4
100
AcDbEntity
  8
SFBODY
100
AcDbVertex
100
AcDbPolygonMeshVertex
 10
-7.071067811865475
 20
-7.071067811865485
 30
0.6274606680622697
 70
    64
  0
VERTEX
  5
5EEA
330
5ED4
100
AcDbEntity
  8
SFBODY
100
AcDbVertex
100
AcDbPolygonMeshVertex
 10
-5.555702330195998
 20
-8.314696123025463
 30
0.6274606680622697
 70
    64
  0
VERTEX
  5
5EEB
330
5ED4
100
AcDbEntity
  8
SFBODY
100
AcDbVertex
100
AcDbPolygonMeshVertex
 10
-3.826834323650871
 20
-9.238795325112874
 30
0.6274606680622697
 70
    64
  0
VERTEX
  5
5EEC
330
5ED4
100
AcDbEntity
  8
SFBODY
100
AcDbVertex
100
AcDbPolygonMeshVertex
 10
-1.950903220161251
 20
-9.807852804032309
 30
0.6274606680622697
 70
    64
  0
VERTEX
  5
5EED
330
5ED4
100
AcDbEntity
  8
SFBODY
100
AcDbVertex
100
AcDbPolygonMeshVertex
 10
0.0000000000000284
 20
-10.0
 30
0.6274606680622697
 70
    64
  0
VERTEX
  5
5EEE
330
5ED4
100
AcDbEntity
  8
SFBODY
100
AcDbVertex
100
AcDbPolygonMeshVertex
 10
1.950903220161308
 20
-9.8078528040323
 30
0.6274606680622697
 70
    64
  0
VERTEX
  5
5EEF
330
5ED4
100
AcDbEntity
  8
SFBODY
100
AcDbVertex
100
AcDbPolygonMeshVertex
 10
3.826834323650928
 20
-9.238795325112858
 30
0.6274606680622697
 70
    64
  0
VERTEX
  5
5EF0
330
5ED4
100
AcDbEntity
  8
SFBODY
100
AcDbVertex
100
AcDbPolygonMeshVertex
 10
5.555702330196055
 20
-8.314696123025436
 30
0.6274606680622697
 70
    64
  0
VERTEX
  5
5EF1
330
5ED4
100
AcDbEntity
  8
SFBODY
100
AcDbVertex
100
AcDbPolygonMeshVertex
 10
7.071067811865503
 20
-7.071067811865452
 30
0.6274606680622697
 70
    64
  0
VERTEX
  5
5EF2
330
5ED4
100
AcDbEntity
  8
SFBODY
100
AcDbVertex
100
AcDbPolygonMeshVertex
 10
8.31469612302547
 20
-5.555702330195994
 30
0.6274606680622697
 70
    64
  0
VERTEX
  5
5EF3
330
5ED4
100
AcDbEntity
  8
SFBODY
100
AcDbVertex
100
AcDbPolygonMeshVertex
 10
9.238795325112874
 20
-3.826834323650864
 30
0.6274606680622697
 70
    64
  0
VERTEX
  5
5EF4
330
5ED4
100
AcDbEntity
  8
SFBODY
100
AcDbVertex
100
AcDbPolygonMeshVertex
 10
9.807852804032307
 20
-1.950903220161245
 30
0.6274606680622697
 70
    64
  0
VERTEX
  5
5EF5
330
5ED4
100
AcDbEntity
  8
SFBODY
100
AcDbVertex
100
AcDbPolygonMeshVertex
 10
10.0
 20
-0.0000000000000018
 30
-3.0
 70
    64
  0
VERTEX
  5
5EF6
330
5ED4
100
AcDbEntity
  8
SFBODY
100
AcDbVertex
100
AcDbPolygonMeshVertex
 10
9.807852804032307
 20
1.95090322016128
 30
-3.0
 70
    64
  0
VERTEX
  5
5EF7
330
5ED4
100
AcDbEntity
  8
SFBODY
100
AcDbVertex
100
AcDbPolygonMeshVertex
 10
9.238795325112874
 20
3.826834323650895
 30
-3.0
 70
    64
  0
VERTEX
  5
5EF8
330
5ED4
100
AcDbEntity
  8
SFBODY
100
AcDbVertex
100
AcDbPolygonMeshVertex
 10
8.314696123025456
 20
5.55570233019602
 30
-3.0
 70
    64
  0
VERTEX
  5
5EF9
330
5ED4
100
AcDbEntity
  8
SFBODY
100
AcDbVertex
100
AcDbPolygonMeshVertex
 10
7.071067811865475
 20
7.071067811865473
 30
-3.0
 70
    64
  0
VERTEX
  5
5EFA
330
5ED4
100
AcDbEntity
  8
SFBODY
100
AcDbVertex
100
AcDbPolygonMeshVertex
 10
5.555702330196027
 20
8.31469612302545
 30
-3.0
 70
    64
  0
VERTEX
  5
5EFB
330
5ED4
100
AcDbEntity
  8
SFBODY
100
AcDbVertex
100
AcDbPolygonMeshVertex
 10
3.826834323650899
 20
9.238795325112866
 30
-3.0
 70
    64
  0
VERTEX
  5
5EFC
330
5ED4
100
AcDbEntity
  8
SFBODY
100
AcDbVertex
100
AcDbPolygonMeshVertex
 10
1.950903220161279
 20
9.807852804032302
 30
-3.0
 70
    64
  0
VERTEX
  5
5EFD
330
5ED4
100
AcDbEntity
  8
SFBODY
100
AcDbVertex
100
AcDbPolygonMeshVertex
 10
0.0
 20
10.0
 30
-3.0
 70
    64
  0
VERTEX
  5
5EFE
330
5ED4
100
AcDbEntity
  8
SFBODY
100
AcDbVertex
100
AcDbPolygonMeshVertex
 10
-1.950903220161279
 20
9.807852804032304
 30
-3.0
 70
    64
  0
VERTEX
  5
5EFF
330
5ED4
100
AcDbEntity
  8
SFBODY
100
AcDbVertex
100
AcDbPolygonMeshVertex
 10
-3.826834323650899
 20
9.238795325112867
 30
-3.0
 70
    64
  0
VERTEX
  5
5F00
330
5ED4
100
AcDbEntity
  8
SFBODY
100
AcDbVertex
100
AcDbPolygonMeshVertex
 10
-5.555702330196027
 20
8.314696123025454
 30
-3.0
 70
    64
  0
VERTEX
  5
5F01
330
5ED4
100
AcDbEntity
  8
SFBODY
100
AcDbVertex
100
AcDbPolygonMeshVertex
 10
-7.071067811865475
 20
7.071067811865477
 30
-3.0
 70
    64
  0
VERTEX
  5
5F02
330
5ED4
100
AcDbEntity
  8
SFBODY
100
AcDbVertex
100
AcDbPolygonMeshVertex
 10
-8.314696123025441
 20
5.555702330196022
 30
-3.0
 70
    64
  0
VERTEX
  5
5F03
330
5ED4
100
AcDbEntity
  8
SFBODY
100
AcDbVertex
100
AcDbPolygonMeshVertex
 10
-9.238795325112874
 20
3.826834323650896
 30
-3.0
 70
    64
  0
VERTEX
  5
5F04
330
5ED4
100
AcDbEntity
  8
SFBODY
100
AcDbVertex
100
AcDbPolygonMeshVertex
 10
-9.807852804032307
 20
1.950903220161279
 30
-3.0
 70
    64
  0
VERTEX
  5
5F05
330
5ED4
100
AcDbEntity
  8
SFBODY
100
AcDbVertex
100
AcDbPolygonMeshVertex
 10
-10.0
 20
-0.0000000000000058
 30
-3.0
 70
    64
  0
VERTEX
  5
5F06
330
5ED4
100
AcDbEntity
  8
SFBODY
100
AcDbVertex
100
AcDbPolygonMeshVertex
 10
-9.807852804032307
 20
-1.95090322016129
 30
-3.0
 70
    64
  0
VERTEX
  5
5F07
330
5ED4
100
AcDbEntity
  8
SFBODY
100
AcDbVertex
100
AcDbPolygonMeshVertex
 10
-9.238795325112874
 20
-3.826834323650906
 30
-3.0
 70
    64
  0
VERTEX
  5
5F08
330
5ED4
100
AcDbEntity
  8
SFBODY
100
AcDbVertex
100
AcDbPolygonMeshVertex
 10
-8.314696123025441
 20
-5.555702330196032
 30
-3.0
 70
    64
  0
VERTEX
  5
5F09
330
5ED4
100
AcDbEntity
  8
SFBODY
100
AcDbVertex
100
AcDbPolygonMeshVertex
 10
-7.071067811865475
 20
-7.071067811865485
 30
-3.0
 70
    64
  0
VERTEX
  5
5F0A
330
5ED4
100
AcDbEntity
  8
SFBODY
100
AcDbVertex
100
AcDbPolygonMeshVertex
 10
-5.555702330195998
 20
-8.314696123025463
 30
-3.0
 70
    64
  0
VERTEX
  5
5F0B
330
5ED4
100
AcDbEntity
  8
SFBODY
100
AcDbVertex
100
AcDbPolygonMeshVertex
 10
-3.826834323650871
 20
-9.238795325112874
 30
-3.0
 70
    64
  0
VERTEX
  5
5F0C
330
5ED4
100
AcDbEntity
  8
SFBODY
100
AcDbVertex
100
AcDbPolygonMeshVertex
 10
-1.950903220161251
 20
-9.807852804032309
 30
-3.0
 70
    64
  0
VERTEX
  5
5F0D
330
5ED4
100
AcDbEntity
  8
SFBODY
100
AcDbVertex
100
AcDbPolygonMeshVertex
 10
0.0000000000000284
 20
-10.0
 30
-3.0
 70
    64
  0
VERTEX
  5
5F0E
330
5ED4
100
AcDbEntity
  8
SFBODY
100
AcDbVertex
100
AcDbPolygonMeshVertex
 10
1.950903220161308
 20
-9.8078528040323
 30
-3.0
 70
    64
  0
VERTEX
  5
5F0F
330
5ED4
100
AcDbEntity
  8
SFBODY
100
AcDbVertex
100
AcDbPolygonMeshVertex
 10
3.826834323650928
 20
-9.238795325112858
 30
-3.0
 70
    64
  0
VERTEX
  5
5F10
330
5ED4
100
AcDbEntity
  8
SFBODY
100
AcDbVertex
100
AcDbPolygonMeshVertex
 10
5.555702330196055
 20
-8.314696123025436
 30
-3.0
 70
    64
  0
VERTEX
  5
5F11
330
5ED4
100
AcDbEntity
  8
SFBODY
100
AcDbVertex
100
AcDbPolygonMeshVertex
 10
7.071067811865503
 20
-7.071067811865452
 30
-3.0
 70
    64
  0
VERTEX
  5
5F12
330
5ED4
100
AcDbEntity
  8
SFBODY
100
AcDbVertex
100
AcDbPolygonMeshVertex
 10
8.31469612302547
 20
-5.555702330195994
 30
-3.0
 70
    64
  0
VERTEX
  5
5F13
330
5ED4
100
AcDbEntity
  8
SFBODY
100
AcDbVertex
100
AcDbPolygonMeshVertex
 10
9.238795325112874
 20
-3.826834323650864
 30
-3.0
 70
    64
  0
VERTEX
  5
5F14
330
5ED4
100
AcDbEntity
  8
SFBODY
100
AcDbVertex
100
AcDbPolygonMeshVertex
 10
9.807852804032307
 20
-1.950903220161245
 30
-3.0
 70
    64
  0
SEQEND
  5
5F15
330
5ED4
100
AcDbEntity
  8
SFBODY
  0
CIRCLE
  5
5F16
330
5ED3
100
AcDbEntity
  8
SFBODY
100
AcDbCircle
 10
0.0
 20
0.0
 30
-3.0
 40
10.0
  0
ENDBLK
  5
5F18
330
5ED3
100
AcDbEntity
  8
0
100
AcDbBlockEnd
  0
BLOCK
  5
5F21
330
5F19
100
AcDbEntity
  8
0
100
AcDbBlockBegin
  2
ASDF
 70
     0
 10
0.0
 20
0.0
 30
0.0
  3
ASDF
  1

  0
LINE
  5
5F1A
330
5F19
100
AcDbEntity
  8
OUTER_HOUSING
  6
CONTINUOUS
100
AcDbLine
 10
6.612525462493387
 20
17.33480435386058
 30
0.0
 11
2.31252546249339
 21
17.33480435386058
 31
0.0
  0
LINE
  5
5F1B
330
5F19
100
AcDbEntity
  8
OUTER_HOUSING
  6
CONTINUOUS
100
AcDbLine
 10
6.612525462493388
 20
19.17980435386058
 30
0.0
 11
2.312525462493391
 21
19.17980435386058
 31
0.0
  0
LINE
  5
5F1C
330
5F19
100
AcDbEntity
  8
OUTER_HOUSING
  6
CONTINUOUS
100
AcDbLine
 10
3.422525462493387
 20
17.33480435386058
 30
0.0
 11
3.422525462493387
 21
17.93980435386058
 31
0.0
  0
LINE
  5
5F1D
330
5F19
100
AcDbEntity
  8
OUTER_HOUSING
  6
CONTINUOUS
100
AcDbLine
 10
2.912525462493391
 20
17.33480435386058
 30
0.0
 11
2.912525462493389
 21
17.93980435386058
 31
0.0
  0
LINE
  5
5F1E
330
5F19
100
AcDbEntity
  8
OUTER_HOUSING
100
AcDbLine
 10
2.312525462493391
 20
19.17980435386058
 30
0.0
 11
2.31252546249339
 21
17.33480435386058
 31
0.0
  0
LINE
  5
5F1F
330
5F19
100
AcDbEntity
  8
OUTER_HOUSING
  6
CONTINUOUS
100
AcDbLine
 10
3.422525462493389
 20
17.93980435386058
 30
0.0
 11
2.912525462493391
 21
17.93980435386058
 31
0.0
  0
LINE
  5
5F20
330
5F19
100
AcDbEntity
  8
OUTER_HOUSING
  6
CONTINUOUS
100
AcDbLine
 10
6.612525462493387
 20
17.33480435386058
 30
0.0
 11
6.612525462493389
 21
19.17980435386058
 31
0.0
  0
ENDBLK
  5
5F22
330
5F19
100
AcDbEntity
  8
0
100
AcDbBlockEnd
  0
BLOCK
  5
5F2A
330
5F23
100
AcDbEntity
  8
0
100
AcDbBlockBegin
  2
DFDSFAAF
 70
     0
 10
0.0
 20
0.0
 30
0.0
  3
DFDSFAAF
  1

  0
LINE
  5
5F24
330
5F23
100
AcDbEntity
  8
SMA_BODY
100
AcDbLine
 10
23.4228432354796
 20
17.5893669705524
 30
0.0
 11
22.8228432354796
 21
17.5893669705524
 31
0.0
  0
LINE
  5
5F25
330
5F23
100
AcDbEntity
  8
SMA_BODY
100
AcDbLine
 10
23.4228432354796
 20
17.0893669705524
 30
0.0
 11
22.8228432354796
 21
17.0893669705524
 31
0.0
  0
LINE
  5
5F26
330
5F23
100
AcDbEntity
  8
SMA_BODY
100
AcDbLine
 10
22.8228432354796
 20
17.5893669705524
 30
0.0
 11
22.8228432354796
 21
17.0893669705524
 31
0.0
  0
LINE
  5
5F27
330
5F23
100
AcDbEntity
  8
SMA_BODY
100
AcDbLine
 10
23.4228432354796
 20
17.5893669705524
 30
0.0
 11
23.4228432354796
 21
17.0893669705524
 31
0.0
  0
CIRCLE
  5
5F28
330
5F23
100
AcDbEntity
  8
SMA_BODY
100
AcDbCircle
 10
23.2378432354796
 20
17.2893669705524
 30
0.0
 40
0.1060000000000034
  0
CIRCLE
  5
5F29
330
5F23
100
AcDbEntity
  8
SMA_BODY
  6
HIDDEN
100
AcDbCircle
 10
23.2378432354796
 20
17.2893669705524
 30
0.0
 40
0.1240000000000012
  0
ENDBLK
  5
5F2B
330
5F23
100
AcDbEntity
  8
0
100
AcDbBlockEnd
  0
BLOCK
  5
632A
330
6325
100
AcDbEntity
  8
0
100
AcDbBlockBegin
  2
DFSF
 70
     0
 10
0.0
 20
0.0
 30
0.0
  3
DFSF
  1

  0
LINE
  5
6326
330
6325
100
AcDbEntity
  8
MAINPLATE
100
AcDbLine
 10
15.71323826379803
 20
17.82793825457626
 30
0.0
 11
20.01323826379803
 21
17.82793825457625
 31
0.0
  0
LINE
  5
6327
330
6325
100
AcDbEntity
  8
MAINPLATE
100
AcDbLine
 10
15.71323826379803
 20
17.62793825457626
 30
0.0
 11
20.01323826379804
 21
17.62793825457626
 31
0.0
  0
LINE
  5
6328
330
6325
100
AcDbEntity
  8
MAINPLATE
100
AcDbLine
 10
15.71323826379804
 20
17.82793825457626
 30
0.0
 11
15.71323826379803
 21
17.62793825457626
 31
0.0
  0
LINE
  5
6329
330
6325
100
AcDbEntity
  8
MAINPLATE
100
AcDbLine
 10
20.01323826379803
 20
17.82793825457626
 30
0.0
 11
20.01323826379804
 21
17.62793825457626
 31
0.0
  0
ENDBLK
  5
632B
330
6325
100
AcDbEntity
  8
0
100
AcDbBlockEnd
  0
BLOCK
  5
6345
330
6343
100
AcDbEntity
  8
0
100
AcDbBlockBegin
  2
COPYRIGHT00
 70
     0
 10
0.0
 20
0.0
 30
0.0
  3
COPYRIGHT00
  1

  0
MTEXT
  5
6344
330
6343
100
AcDbEntity
  8
BORDER
100
AcDbMText
 10
0.0258733304183885
 20
0.323044704881891
 30
0.0
 40
0.25
 41
9.340999999999999
 71
     1
 72
     1
  1
\FVERDANA.TTF;COPYRIGHT \FSYMBOL.TTF;\H0.3;Ó\FVERDANA.TTF;\H0.25; 2000 by THORLABS INC.
1001
ACAD
1000
MTEXTBEGIN
1070
    73
1070
     1
1070
    44
1040
1.0
1070
    74
1070
     0
1000
MTEXTEND
  0
ENDBLK
  5
6346
330
6343
100
AcDbEntity
  8
0
100
AcDbBlockEnd
  0
BLOCK
  5
634B
330
6349
100
AcDbEntity
  8
0
100
AcDbBlockBegin
  2
COPYWRITE
 70
     0
 10
0.0
 20
0.0
 30
0.0
  3
COPYWRITE
  1

  0
MTEXT
  5
634A
330
6349
100
AcDbEntity
  8
BORDER
100
AcDbMText
 10
0.3955447385683524
 20
8.629262701746421
 30
0.0
 40
0.25
 41
9.340999999999999
 71
     1
 72
     1
  1
{\FVERDANA.TTF;COPYRIGHT \FSYMBOL.TTF;\H1.2x;Ó\FVERDANA.TTF;\H0.8333x; 2002 by THORLABS INC.}
1001
ACAD
1000
MTEXTBEGIN
1070
    73
1070
     1
1070
    44
1040
1.0
1070
    74
1070
     0
1000
MTEXTEND
  0
ENDBLK
  5
634C
330
6349
100
AcDbEntity
  8
0
100
AcDbBlockEnd
  0
BLOCK
  5
6353
330
634F
100
AcDbEntity
  8
0
100
AcDbBlockBegin
  2
MANUFACTURING_INFO
 70
     0
 10
0.0
 20
0.0
 30
0.0
  3
MANUFACTURING_INFO
  1

  0
LINE
  5
6350
330
634F
100
AcDbEntity
  8
D1
100
AcDbLine
 10
8.164594172192856
 20
3.103088496756726
 30
0.0
 11
2.18937271603435
 21
3.103088496756726
 31
0.0
  0
LINE
  5
6351
330
634F
100
AcDbEntity
  8
D1
100
AcDbLine
 10
2.284406059273452
 20
3.162428530727649
 30
0.0
 11
8.069560828953754
 21
3.162428530727649
 31
0.0
  0
TEXT
  5
6352
330
634F
100
AcDbEntity
  8
D1
100
AcDbText
 10
2.382131319216185
 20
3.209310627742103
 30
0.0
 40
0.15
  1
INFORMATION ONLY, NOT FOR MANUFACTURING
100
AcDbText
  0
ENDBLK
  5
6354
330
634F
100
AcDbEntity
  8
0
100
AcDbBlockEnd
  0
BLOCK
  5
63B7
330
636E
100
AcDbEntity
  8
0
100
AcDbBlockBegin
  2
A$C14651BC8
 70
     0
 10
0.0
 20
0.0
 30
0.0
  3
A$C14651BC8
  1

  0
MTEXT
  5
636F
330
636E
100
AcDbEntity
  8
D1
  6
CENTERX2
100
AcDbMText
 10
0.2333333545316485
 20
1.891644190412931
 30
0.0
 40
0.1
 41
0.0
 71
     5
 72
     1
  1
\U+22050.420
1001
ACAD
1000
MTEXTBEGIN
1070
    73
1070
     1
1070
    44
1040
1.0
1070
    74
1070
     0
1000
MTEXTEND
  0
MTEXT
  5
6370
330
636E
100
AcDbEntity
  8
D1
  6
CONTINUOUS
100
AcDbMText
 10
5.65968332721448
 20
0.8502678179574516
 30
0.0
 40
0.1
 41
0.0
 71
     6
 72
     1
  1
\A1;CHAMFER 0.020 x 0.020
1001
ACAD
1000
MTEXTBEGIN
1070
    73
1070
     1
1070
    44
1040
1.0
1070
    74
1070
     0
1000
MTEXTEND
  0
LINE
  5
6371
330
636E
100
AcDbEntity
  8
D1
  6
CONTINUOUS
100
AcDbLine
 10
5.068902328896474
 20
-0.0000000035476813
 30
0.0
 11
7.571935091562469
 21
-0.0000000035476813
 31
0.0
  0
TEXT
  5
6372
330
636E
100
AcDbEntity
  8
D1
  6
CONTINUOUS
100
AcDbText
 10
2.186448302210632
 20
2.299030645161369
 30
0.0
 40
0.1
  1
MIN. DEPTH 0.250
100
AcDbText
  0
TEXT
  5
6373
330
636E
100
AcDbEntity
  8
D1
  6
CONTINUOUS
100
AcDbText
 10
2.164152463980645
 20
2.465697311828037
 30
0.0
 40
0.1
  1
#8-32 TAP,
100
AcDbText
  0
LINE
  5
6374
330
636E
100
AcDbEntity
  8
D1
  6
CONTINUOUS
100
AcDbLine
 10
1.969507255514546
 20
2.432363978494704
 30
0.0
 11
1.639909943036959
 21
1.893935619407058
 31
0.0
  0
LINE
  5
6375
330
636E
100
AcDbEntity
  8
D1
  6
CENTER
100
AcDbLine
 10
1.460309904270589
 20
1.730237307046733
 30
0.0
 11
1.460309904270589
 21
2.307673418621162
 31
0.0
  0
SOLID
  5
6376
330
636E
100
AcDbEntity
  8
D1
  6
CENTERX2
100
AcDbTrace
 10
1.262253462272518
 20
2.277673418621162
 30
0.0
 11
1.082253462272518
 21
2.307673418621162
 31
0.0
 12
1.262253462272518
 22
2.337673418621161
 32
0.0
 13
1.262253462272518
 23
2.337673418621161
 33
0.0
  0
MTEXT
  5
6377
330
636E
100
AcDbEntity
  8
D1
  6
CONTINUOUS
100
AcDbMText
 10
0.9792387087449441
 20
2.301682625785081
 30
0.0
 40
0.1
 41
0.0
 71
     5
 72
     1
  1
X
1001
ACAD
1000
MTEXTBEGIN
1070
    73
1070
     1
1070
    44
1040
1.0
1070
    74
1070
     0
1000
MTEXTEND
  0
CIRCLE
  5
6378
330
636E
100
AcDbEntity
  8
S8
  6
CONTINUOUS
100
AcDbCircle
 10
1.460309904270589
 20
1.600541982674565
 30
0.0
 40
0.1359999999999975
  0
CIRCLE
  5
6379
330
636E
100
AcDbEntity
  8
S8
  6
HIDDEN
100
AcDbCircle
 10
1.460309904270589
 20
1.600541982674565
 30
0.0
 40
0.1639999999999997
  0
CIRCLE
  5
637A
330
636E
100
AcDbEntity
  8
S8
  6
CONTINUOUS
100
AcDbCircle
 10
1.460309904270589
 20
1.600541982674565
 30
0.0
 40
0.4200000000000035
  0
CIRCLE
  5
637B
330
636E
100
AcDbEntity
  8
S8
  6
CONTINUOUS
100
AcDbCircle
 10
1.460309904270589
 20
1.600541982674565
 30
0.0
 40
0.3800000000000043
  0
POLYLINE
  5
637C
330
636E
100
AcDbEntity
  8
D1
  6
CENTERX2
100
AcDb2dPolyline
 66
     1
 10
0.0
 20
0.0
 30
0.0
  0
VERTEX
  5
65A4
330
637C
100
AcDbEntity
  8
D1
  6
CENTERX2
100
AcDbVertex
100
AcDb2dVertex
 10
1.262253462272518
 20
0.9458560222285488
 30
0.0
  0
VERTEX
  5
65A5
330
637C
100
AcDbEntity
  8
D1
  6
CENTERX2
100
AcDbVertex
100
AcDb2dVertex
 10
1.460309904270589
 20
0.9458560222285488
 30
0.0
  0
SEQEND
  5
65A6
330
637C
100
AcDbEntity
  8
D1
  6
CENTERX2
  0
MTEXT
  5
637D
330
636E
100
AcDbEntity
  8
D1
  6
CONTINUOUS
100
AcDbMText
 10
0.9792387087449441
 20
0.936091626695136
 30
0.0
 40
0.1
 41
0.0
 71
     5
 72
     1
  1
X
1001
ACAD
1000
MTEXTBEGIN
1070
    73
1070
     1
1070
    44
1040
1.0
1070
    74
1070
     0
1000
MTEXTEND
  0
SOLID
  5
637E
330
636E
100
AcDbEntity
  8
D1
  6
CENTERX2
100
AcDbTrace
 10
1.262253462272518
 20
0.9158560222285494
 30
0.0
 11
1.082253462272518
 21
0.9458560222285488
 31
0.0
 12
1.262253462272518
 22
0.9758560222285481
 32
0.0
 13
1.262253462272518
 23
0.9758560222285481
 33
0.0
  0
LINE
  5
637F
330
636E
100
AcDbEntity
  8
D1
  6
CENTERX2
100
AcDbLine
 10
0.5566666878649809
 20
1.891644190412931
 30
0.0
 11
0.7366666878649806
 21
1.891644190412931
 31
0.0
  0
LINE
  5
6380
330
636E
100
AcDbEntity
  8
D1
  6
CENTERX2
100
AcDbLine
 10
0.7366666878649806
 20
1.891644190412931
 30
0.0
 11
0.9036612762662734
 21
1.824466757857923
 31
0.0
  0
SOLID
  5
6381
330
636E
100
AcDbEntity
  8
D1
  6
CENTERX2
100
AcDbTrace
 10
0.9148575150254423
 20
1.85229918925814
 30
0.0
 11
0.8924650375071063
 21
1.796634326457709
 31
0.0
 12
1.070655864667568
 22
1.757289325302917
 32
0.0
 13
1.070655864667568
 23
1.757289325302917
 33
0.0
  0
LINE
  5
6382
330
636E
100
AcDbEntity
  8
D1
  6
CENTER
100
AcDbLine
 10
1.460309904270589
 20
1.470783662825143
 30
0.0
 11
1.460309904270589
 21
0.9458560222285488
 31
0.0
  0
SOLID
  5
6383
330
636E
100
AcDbEntity
  8
D1
  6
CONTINUOUS
100
AcDbTrace
 10
1.614323288670753
 20
1.909598413485518
 30
0.0
 11
1.665496597403166
 21
1.878272825328593
 31
0.0
 12
1.545933178566183
 22
1.740415693209822
 32
0.0
 13
1.545933178566183
 23
1.740415693209822
 33
0.0
  0
LINE
  5
6384
330
636E
100
AcDbEntity
  8
D1
  6
CONTINUOUS
100
AcDbLine
 10
1.460309904270589
 20
1.510541982674565
 30
0.0
 11
1.460309904270589
 21
1.690541982674565
 31
0.0
  0
LINE
  5
6385
330
636E
100
AcDbEntity
  8
D1
  6
CONTINUOUS
100
AcDbLine
 10
1.460309904270589
 20
1.510541982674565
 30
0.0
 11
1.460309904270589
 21
1.690541982674565
 31
0.0
  0
LINE
  5
6386
330
636E
100
AcDbEntity
  8
D1
  6
CENTERX2
100
AcDbLine
 10
1.460309904270589
 20
1.510541982674565
 30
0.0
 11
1.460309904270589
 21
1.690541982674565
 31
0.0
  0
LINE
  5
6387
330
636E
100
AcDbEntity
  8
D1
  6
CONTINUOUS
100
AcDbLine
 10
1.370309904270589
 20
1.600541982674565
 30
0.0
 11
1.550309904270589
 21
1.600541982674565
 31
0.0
  0
LINE
  5
6388
330
636E
100
AcDbEntity
  8
D1
  6
CONTINUOUS
100
AcDbLine
 10
1.370309904270589
 20
1.600541982674565
 30
0.0
 11
1.550309904270589
 21
1.600541982674565
 31
0.0
  0
LINE
  5
6389
330
636E
100
AcDbEntity
  8
D1
  6
CENTERX2
100
AcDbLine
 10
1.370309904270589
 20
1.600541982674565
 30
0.0
 11
1.550309904270589
 21
1.600541982674565
 31
0.0
  0
POLYLINE
  5
638A
330
636E
100
AcDbEntity
  8
D1
  6
CENTERX2
100
AcDb2dPolyline
 66
     1
 10
0.0
 20
0.0
 30
0.0
  0
VERTEX
  5
65A7
330
638A
100
AcDbEntity
  8
D1
  6
CENTERX2
100
AcDbVertex
100
AcDb2dVertex
 10
1.262253462272518
 20
2.307673418621162
 30
0.0
  0
VERTEX
  5
65A8
330
638A
100
AcDbEntity
  8
D1
  6
CENTERX2
100
AcDbVertex
100
AcDb2dVertex
 10
1.460309904270589
 20
2.307673418621162
 30
0.0
  0
SEQEND
  5
65A9
330
638A
100
AcDbEntity
  8
D1
  6
CENTERX2
  0
LINE
  5
638B
330
636E
100
AcDbEntity
  8
D1
  6
CONTINUOUS
100
AcDbLine
 10
2.149507255514546
 20
2.432363978494704
 30
0.0
 11
1.969507255514546
 21
2.432363978494704
 31
0.0
  0
MTEXT
  5
638C
330
636E
100
AcDbEntity
  8
D1
  6
CONTINUOUS
100
AcDbMText
 10
7.086759712273044
 20
0.1964739647505915
 30
0.0
 40
0.15
 41
0.0
 71
     6
 72
     1
  1
SECTION X-X
1001
ACAD
1000
MTEXTBEGIN
1070
    73
1070
     1
1070
    44
1040
1.0
1070
    74
1070
     0
1000
MTEXTEND
  0
LINE
  5
638D
330
636E
100
AcDbEntity
  8
D1
  6
CONTINUOUS
100
AcDbLine
 10
5.358727172232502
 20
0.078945938121878
 30
0.0
 11
7.268936406156814
 21
0.078945938121878
 31
0.0
  0
MTEXT
  5
638E
330
636E
100
AcDbEntity
  8
D1
  6
CONTINUOUS
100
AcDbMText
 10
7.210273413531666
 20
0.8522198175274056
 30
0.0
 40
0.1
 41
0.0
 71
     4
 72
     1
  1
\A1;M6-0.5 TAP
1001
ACAD
1000
MTEXTBEGIN
1070
    73
1070
     1
1070
    44
1040
1.0
1070
    74
1070
     0
1000
MTEXTEND
  0
LINE
  5
638F
330
636E
100
AcDbEntity
  8
D1
  6
CONTINUOUS
100
AcDbLine
 10
6.825480304068102
 20
1.846541982674573
 30
0.0
 11
6.825480304068101
 21
2.305545756523985
 31
0.0
  0
LINE
  5
6390
330
636E
100
AcDbEntity
  8
D1
  6
CONTINUOUS
100
AcDbLine
 10
6.185480304068105
 20
2.020541982674568
 30
0.0
 11
6.185480304068105
 21
2.387487693173413
 31
0.0
  0
LINE
  5
6391
330
636E
100
AcDbEntity
  8
D1
  6
CONTINUOUS
100
AcDbLine
 10
6.565480304068108
 20
2.060541982674564
 30
0.0
 11
6.565480304068108
 21
2.387487693173413
 31
0.0
  0
LINE
  5
6392
330
636E
100
AcDbEntity
  8
D1
  6
CONTINUOUS
100
AcDbLine
 10
6.185480304068105
 20
2.020541982674568
 30
0.0
 11
6.185480304068105
 21
2.734371361525626
 31
0.0
  0
LINE
  5
6393
330
636E
100
AcDbEntity
  8
S8
  6
CONTINUOUS
100
AcDbLine
 10
6.808159795992411
 20
1.836541982674567
 30
0.0
 11
6.565480304068101
 21
1.83654198267456
 31
0.0
1001
ACAD
1000
ASC_BOUNDS
1002
{
1070
    19
1005
6399
1002
}
  0
LINE
  5
6394
330
636E
100
AcDbEntity
  8
S8
  6
CONTINUOUS
100
AcDbLine
 10
6.808159795992411
 20
1.364541982674559
 30
0.0
 11
6.565480304068101
 21
1.364541982674566
 31
0.0
1001
ACAD
1000
ASC_BOUNDS
1002
{
1070
    19
1005
6399
1002
}
  0
LINE
  5
6395
330
636E
100
AcDbEntity
  8
S8
  6
CONTINUOUS
100
AcDbLine
 10
6.745480304068101
 20
1.464541982674557
 30
0.0
 11
6.185480304068102
 21
1.464541982674568
 31
0.0
1001
ACAD
1000
ASC_BOUNDS
1002
{
1070
    19
1005
6399
1002
}
  0
LINE
  5
6396
330
636E
100
AcDbEntity
  8
S8
  6
CONTINUOUS
100
AcDbLine
 10
6.745480304068104
 20
1.736541982674552
 30
0.0
 11
6.185480304068105
 21
1.736541982674566
 31
0.0
1001
ACAD
1000
ASC_BOUNDS
1002
{
1070
    19
1005
6399
1002
}
  0
LINE
  5
6397
330
636E
100
AcDbEntity
  8
S8
  6
HIDDEN
100
AcDbLine
 10
6.685480304068102
 20
1.436541982674562
 30
0.0
 11
6.185480304068102
 21
1.436541982674565
 31
0.0
1001
ACAD
1000
ASC_BOUNDS
1002
{
1070
    19
1005
6399
1002
}
  0
LINE
  5
6398
330
636E
100
AcDbEntity
  8
S8
  6
HIDDEN
100
AcDbLine
 10
6.685480304068102
 20
1.764541982674558
 30
0.0
 11
6.185480304068105
 21
1.764541982674568
 31
0.0
1001
ACAD
1000
ASC_BOUNDS
1002
{
1070
    19
1005
6399
1002
}
  0
INSERT
  5
6399
330
636E
100
AcDbEntity
  8
D1
  6
CONTINUOUS
100
AcDbBlockReference
  2
*X14
 10
0.0
 20
0.0
 30
0.0
1001
ACAD
1000
HATCH
1002
{
1070
    19
1000
ANSI31
1040
1.0
1040
0.0
1000
ASC_BOUNDS
1070
     1
1070
     1
1070
    19
1005
63A0
1005
6393
1005
63AB
1005
63A3
1005
63A5
1005
6394
1005
639F
1005
639C
1005
639E
1005
6397
1005
6395
1005
63AA
1005
63A9
1005
6396
1005
63A7
1005
6398
1005
639A
1005
63A2
1005
63A1
1000
ASC_SEEDPOINT
1011
6.495263221398428
1021
1.873379084733523
1031
0.0
1000
R14_HATCH_DATA
1000
6399
1011
1.0
1021
0.0
1031
0.0
1011
0.0
1021
1.0
1031
0.0
1011
0.0
1021
0.0
1031
1.0
1040
0.0
1010
0.0
1020
0.0
1030
1.0
1000
ANSI31
1070
     0
1070
     1
1071
        1
1071
        7
1070
     0
1070
     1
1071
       21
1040
6.56548030406811
1040
2.020541982674565
1040
6.225480304068106
1040
2.020541982674568
1040
6.185480304068105
1040
1.980541982674569
1040
6.185480304068104
1040
1.764541982674568
1040
6.6854803040681
1040
1.764541982674558
1040
6.6854803040681
1040
1.736541982674552
1040
6.745480304068104
1040
1.736541982674552
1040
6.764675044038236
1040
1.600541982674558
1040
6.745480304068101
1040
1.464541982674557
1040
6.685480304068102
1040
1.464541982674557
1040
6.685480304068102
1040
1.436541982674562
1040
6.185480304068104
1040
1.436541982674565
1040
6.185480304068104
1040
1.220541982674562
1040
6.225480304068099
1040
1.180541982674562
1040
6.565480304068106
1040
1.180541982674572
1040
6.565480304068106
1040
1.364541982674566
1040
6.808159795992409
1040
1.364541982674559
1040
6.825480304068106
1040
1.394541982674557
1040
6.825480304068102
1040
1.806541982674572
1040
6.808159795992409
1040
1.836541982674567
1040
6.565480304068106
1040
1.83654198267456
1071
       19
1005
63A1
1005
63A2
1005
639A
1005
6398
1005
63A7
1005
6396
1005
63A9
1005
63AA
1005
6395
1005
6397
1005
639E
1005
639C
1005
639F
1005
6394
1005
63A5
1005
63A3
1005
63AB
1005
6393
1005
63A0
1070
     0
1070
     1
1040
0.0
1040
1.0
1070
     0
1070
     1
1040
0.7853981633974483
1040
5.260708499489577
1040
3.158230622709639
1040
-0.0883883476483184
1040
0.0883883476483185
1070
     0
1040
0.0028893054514514
1071
        1
1040
6.495263221398428
1040
1.873379084733523
1040
0.0
1002
}
  0
LINE
  5
639A
330
636E
100
AcDbEntity
  8
S8
  6
CONTINUOUS
100
AcDbLine
 10
6.185480304068105
 20
1.980541982674569
 30
0.0
 11
6.185480304068102
 21
1.220541982674561
 31
0.0
1001
ACAD
1000
ASC_BOUNDS
1002
{
1070
    19
1005
6399
1002
}
  0
POLYLINE
  5
639B
330
636E
100
AcDbEntity
  8
D1
  6
CONTINUOUS
100
AcDb2dPolyline
 66
     1
 10
0.0
 20
0.0
 30
0.0
  0
VERTEX
  5
65B8
330
639B
100
AcDbEntity
  8
D1
  6
CONTINUOUS
100
AcDbVertex
100
AcDb2dVertex
 10
6.081332879469076
 20
1.070206197237753
 30
0.0
  0
VERTEX
  5
65B9
330
639B
100
AcDbEntity
  8
D1
  6
CONTINUOUS
100
AcDbVertex
100
AcDb2dVertex
 10
5.871837204381659
 20
0.8502678179574516
 30
0.0
  0
VERTEX
  5
65BA
330
639B
100
AcDbEntity
  8
D1
  6
CONTINUOUS
100
AcDbVertex
100
AcDb2dVertex
 10
5.74968332721448
 20
0.8502678179574516
 30
0.0
  0
SEQEND
  5
65BB
330
639B
100
AcDbEntity
  8
D1
  6
CONTINUOUS
  0
LINE
  5
639C
330
636E
100
AcDbEntity
  8
S8
  6
CONTINUOUS
100
AcDbLine
 10
6.565480304068104
 20
1.180541982674572
 30
0.0
 11
6.225480304068101
 21
1.180541982674562
 31
0.0
1001
ACAD
1000
ASC_BOUNDS
1002
{
1070
    19
1005
6399
1002
}
  0
SOLID
  5
639D
330
636E
100
AcDbEntity
  8
D1
  6
CONTINUOUS
100
AcDbTrace
 10
6.059610248562943
 20
1.090897434670925
 30
0.0
 11
6.205480304068101
 21
1.200541982674561
 31
0.0
 12
6.103055510375211
 22
1.049514959804582
 32
0.0
 13
6.103055510375211
 23
1.049514959804582
 33
0.0
  0
LINE
  5
639E
330
636E
100
AcDbEntity
  8
S8
  6
CONTINUOUS
100
AcDbLine
 10
6.185480304068102
 20
1.220541982674561
 30
0.0
 11
6.225480304068101
 21
1.180541982674562
 31
0.0
1001
ACAD
1000
ASC_BOUNDS
1002
{
1070
    19
1005
6399
1002
}
  0
LINE
  5
639F
330
636E
100
AcDbEntity
  8
S8
  6
CONTINUOUS
100
AcDbLine
 10
6.565480304068104
 20
1.364541982674566
 30
0.0
 11
6.565480304068104
 21
1.180541982674572
 31
0.0
1001
ACAD
1000
ASC_BOUNDS
1002
{
1070
    19
1005
6399
1002
}
  0
LINE
  5
63A0
330
636E
100
AcDbEntity
  8
S8
  6
CONTINUOUS
100
AcDbLine
 10
6.565480304068108
 20
2.020541982674565
 30
0.0
 11
6.565480304068104
 21
1.83654198267456
 31
0.0
1001
ACAD
1000
ASC_BOUNDS
1002
{
1070
    19
1005
6399
1002
}
  0
LINE
  5
63A1
330
636E
100
AcDbEntity
  8
S8
  6
CONTINUOUS
100
AcDbLine
 10
6.565480304068108
 20
2.020541982674565
 30
0.0
 11
6.225480304068105
 21
2.020541982674568
 31
0.0
1001
ACAD
1000
ASC_BOUNDS
1002
{
1070
    19
1005
6399
1002
}
  0
LINE
  5
63A2
330
636E
100
AcDbEntity
  8
S8
  6
CONTINUOUS
100
AcDbLine
 10
6.185480304068105
 20
1.980541982674569
 30
0.0
 11
6.225480304068105
 21
2.020541982674568
 31
0.0
1001
ACAD
1000
ASC_BOUNDS
1002
{
1070
    19
1005
6399
1002
}
  0
LINE
  5
63A3
330
636E
100
AcDbEntity
  8
S8
  6
CONTINUOUS
100
AcDbLine
 10
6.825480304068102
 20
1.806541982674573
 30
0.0
 11
6.825480304068106
 21
1.394541982674557
 31
0.0
1001
ACAD
1000
ASC_BOUNDS
1002
{
1070
    19
1005
6399
1002
}
  0
POLYLINE
  5
63A4
330
636E
100
AcDbEntity
  8
D1
  6
CONTINUOUS
100
AcDb2dPolyline
 66
     1
 10
0.0
 20
0.0
 30
0.0
  0
VERTEX
  5
65BC
330
63A4
100
AcDbEntity
  8
D1
  6
CONTINUOUS
100
AcDbVertex
100
AcDb2dVertex
 10
6.783548069776669
 20
1.212740499822984
 30
0.0
  0
VERTEX
  5
65BD
330
63A4
100
AcDbEntity
  8
D1
  6
CONTINUOUS
100
AcDbVertex
100
AcDb2dVertex
 10
7.013272121353775
 20
0.8522198175274056
 30
0.0
  0
VERTEX
  5
65BE
330
63A4
100
AcDbEntity
  8
D1
  6
CONTINUOUS
100
AcDbVertex
100
AcDb2dVertex
 10
7.120273413531666
 20
0.8522198175274056
 30
0.0
  0
SEQEND
  5
65BF
330
63A4
100
AcDbEntity
  8
D1
  6
CONTINUOUS
  0
LINE
  5
63A5
330
636E
100
AcDbEntity
  8
S8
100
AcDbLine
 10
6.825480304068106
 20
1.394541982674557
 30
0.0
 11
6.808159795992411
 21
1.364541982674563
 31
0.0
1001
ACAD
1000
ASC_BOUNDS
1002
{
1070
    19
1005
6399
1002
}
  0
SOLID
  5
63A6
330
636E
100
AcDbEntity
  8
D1
  6
CONTINUOUS
100
AcDbTrace
 10
6.758247822634739
 20
1.196619163198583
 30
0.0
 11
6.686820050030256
 21
1.364541982674563
 31
0.0
 12
6.808848316918599
 22
1.228861836447388
 32
0.0
 13
6.808848316918599
 23
1.228861836447388
 33
0.0
  0
LINE
  5
63A7
330
636E
100
AcDbEntity
  8
S8
  6
HIDDEN
100
AcDbLine
 10
6.685480304068102
 20
1.764541982674558
 30
0.0
 11
6.685480304068102
 21
1.436541982674562
 31
0.0
1001
ACAD
1000
ASC_BOUNDS
1002
{
1070
    19
1005
6399
1002
}
  0
LINE
  5
63A8
330
636E
100
AcDbEntity
  8
S8
  6
CONTINUOUS
100
AcDbLine
 10
6.745480304068104
 20
1.736541982674552
 30
0.0
 11
6.745480304068101
 21
1.464541982674557
 31
0.0
  0
LINE
  5
63A9
330
636E
100
AcDbEntity
  8
S8
  6
CONTINUOUS
100
AcDbLine
 10
6.764675044038236
 20
1.60054198267456
 30
0.0
 11
6.745480304068104
 21
1.736541982674559
 31
0.0
1001
ACAD
1000
ASC_BOUNDS
1002
{
1070
    19
1005
6399
1002
}
  0
LINE
  5
63AA
330
636E
100
AcDbEntity
  8
S8
  6
CONTINUOUS
100
AcDbLine
 10
6.745480304068101
 20
1.46454198267456
 30
0.0
 11
6.764675044038236
 21
1.60054198267456
 31
0.0
1001
ACAD
1000
ASC_BOUNDS
1002
{
1070
    19
1005
6399
1002
}
  0
LINE
  5
63AB
330
636E
100
AcDbEntity
  8
S8
100
AcDbLine
 10
6.825480304068102
 20
1.806541982674573
 30
0.0
 11
6.808159795992411
 21
1.836541982674564
 31
0.0
1001
ACAD
1000
ASC_BOUNDS
1002
{
1070
    19
1005
6399
1002
}
  0
MTEXT
  5
63AC
330
636E
100
AcDbEntity
  8
D1
  6
CONTINUOUS
100
AcDbMText
 10
6.505480304068104
 20
2.694371361525625
 30
0.0
 40
0.1
 41
0.0
 71
     5
 72
     1
  1
0.320
1001
ACAD
1000
MTEXTBEGIN
1070
    73
1070
     1
1070
    44
1040
1.0
1070
    74
1070
     0
1000
MTEXTEND
  0
SOLID
  5
63AD
330
636E
100
AcDbEntity
  8
D1
  6
CONTINUOUS
100
AcDbTrace
 10
6.745480304068108
 20
2.377487693173414
 30
0.0
 11
6.745480304068108
 21
2.317487693173413
 31
0.0
 12
6.565480304068108
 22
2.347487693173412
 32
0.0
 13
6.565480304068108
 23
2.347487693173412
 33
0.0
  0
LINE
  5
63AE
330
636E
100
AcDbEntity
  8
D1
  6
CONTINUOUS
100
AcDbLine
 10
5.825480304068104
 20
2.694371361525625
 30
0.0
 11
6.005480304068106
 21
2.694371361525625
 31
0.0
  0
LINE
  5
63AF
330
636E
100
AcDbEntity
  8
D1
  6
CONTINUOUS
100
AcDbLine
 10
6.005480304068106
 20
2.347487693173412
 30
0.0
 11
5.825480304068104
 21
2.347487693173412
 31
0.0
  0
MTEXT
  5
63B0
330
636E
100
AcDbEntity
  8
D1
  6
CONTINUOUS
100
AcDbMText
 10
5.552146970734773
 20
2.347487693173412
 30
0.0
 40
0.1
 41
0.0
 71
     5
 72
     1
  1
0.190
1001
ACAD
1000
MTEXTBEGIN
1070
    73
1070
     1
1070
    44
1040
1.0
1070
    74
1070
     0
1000
MTEXTEND
  0
SOLID
  5
63B1
330
636E
100
AcDbEntity
  8
D1
  6
CONTINUOUS
100
AcDbTrace
 10
6.005480304068106
 20
2.377487693173414
 30
0.0
 11
6.005480304068106
 21
2.317487693173413
 31
0.0
 12
6.185480304068105
 22
2.347487693173412
 32
0.0
 13
6.185480304068105
 23
2.347487693173412
 33
0.0
  0
SOLID
  5
63B2
330
636E
100
AcDbEntity
  8
D1
  6
CONTINUOUS
100
AcDbTrace
 10
6.005480304068106
 20
2.724371361525626
 30
0.0
 11
6.005480304068106
 21
2.664371361525626
 31
0.0
 12
6.185480304068105
 22
2.694371361525625
 32
0.0
 13
6.185480304068105
 23
2.694371361525625
 33
0.0
  0
LINE
  5
63B3
330
636E
100
AcDbEntity
  8
D1
  6
CONTINUOUS
100
AcDbLine
 10
6.825480304068101
 20
2.387487693173413
 30
0.0
 11
6.825480304068102
 21
2.734371361525626
 31
0.0
  0
SOLID
  5
63B4
330
636E
100
AcDbEntity
  8
D1
  6
CONTINUOUS
100
AcDbTrace
 10
7.005480304068102
 20
2.724371361525626
 30
0.0
 11
7.005480304068102
 21
2.664371361525626
 31
0.0
 12
6.825480304068102
 22
2.694371361525625
 32
0.0
 13
6.825480304068102
 23
2.694371361525625
 33
0.0
  0
LINE
  5
63B5
330
636E
100
AcDbEntity
  8
D1
  6
CONTINUOUS
100
AcDbLine
 10
6.745480304068108
 20
2.347487693173412
 30
0.0
 11
6.925480304068109
 21
2.347487693173412
 31
0.0
  0
LINE
  5
63B6
330
636E
100
AcDbEntity
  8
D1
  6
CONTINUOUS
100
AcDbLine
 10
7.005480304068102
 20
2.694371361525625
 30
0.0
 11
7.185480304068104
 21
2.694371361525625
 31
0.0
  0
ENDBLK
  5
63B8
330
636E
100
AcDbEntity
  8
0
100
AcDbBlockEnd
  0
BLOCK
  5
643F
330
643E
100
AcDbEntity
  8
0
100
AcDbBlockBegin
  2
DFASDF
 70
     0
 10
0.0
 20
0.0
 30
0.0
  3
DFASDF
  1

  0
LINE
  5
6441
330
643E
100
AcDbEntity
  8
S8
  6
CONTINUOUS
100
AcDbLine
 10
22.98754683555187
 20
-4.853817092481757
 30
0.0
 11
22.98754683555187
 21
-5.089817092481761
 31
0.0
  0
LINE
  5
6442
330
643E
100
AcDbEntity
  8
S8
  6
CONTINUOUS
100
AcDbLine
 10
22.69620708958971
 20
-4.761817092481757
 30
0.0
 11
22.69620708958971
 21
-5.18181709248176
 31
0.0
  0
LINE
  5
6443
330
643E
100
AcDbEntity
  8
S8
  6
CONTINUOUS
100
AcDbLine
 10
22.86620708958972
 20
-4.761817092481758
 30
0.0
 11
22.86620708958972
 21
-5.181817092481755
 31
0.0
  0
LINE
  5
6444
330
643E
100
AcDbEntity
  8
S8
  6
CONTINUOUS
100
AcDbLine
 10
22.67620708958971
 20
-4.781817092481756
 30
0.0
 11
22.67620708958971
 21
-5.161817092481761
 31
0.0
  0
LINE
  5
6445
330
643E
100
AcDbEntity
  8
S8
  6
CONTINUOUS
100
AcDbLine
 10
22.99620708958971
 20
-4.868817092481754
 30
0.0
 11
22.99620708958971
 21
-5.074817092481763
 31
0.0
  0
LINE
  5
6446
330
643E
100
AcDbEntity
  8
S8
  6
CONTINUOUS
100
AcDbLine
 10
22.86620708958972
 20
-5.181817092481755
 30
0.0
 11
22.69620708958971
 21
-5.18181709248176
 31
0.0
  0
LINE
  5
6447
330
643E
100
AcDbEntity
  8
S8
  6
CONTINUOUS
100
AcDbLine
 10
22.67620708958971
 20
-5.161817092481761
 30
0.0
 11
22.69620708958971
 21
-5.18181709248176
 31
0.0
  0
LINE
  5
6448
330
643E
100
AcDbEntity
  8
S8
  6
CONTINUOUS
100
AcDbLine
 10
22.98754683555187
 20
-5.089817092481761
 30
0.0
 11
22.86620708958971
 21
-5.089817092481758
 31
0.0
  0
LINE
  5
6449
330
643E
100
AcDbEntity
  8
S8
100
AcDbLine
 10
22.99620708958971
 20
-5.074817092481763
 30
0.0
 11
22.98754683555187
 21
-5.08981709248176
 31
0.0
  0
LINE
  5
644A
330
643E
100
AcDbEntity
  8
S8
  6
CONTINUOUS
100
AcDbLine
 10
22.86620708958972
 20
-4.761817092481758
 30
0.0
 11
22.69620708958971
 21
-4.761817092481757
 31
0.0
  0
LINE
  5
644B
330
643E
100
AcDbEntity
  8
S8
  6
CONTINUOUS
100
AcDbLine
 10
22.67620708958971
 20
-4.781817092481756
 30
0.0
 11
22.69620708958971
 21
-4.761817092481757
 31
0.0
  0
LINE
  5
644C
330
643E
100
AcDbEntity
  8
S8
  6
CONTINUOUS
100
AcDbLine
 10
22.98754683555187
 20
-4.853817092481757
 30
0.0
 11
22.86620708958971
 21
-4.853817092481761
 31
0.0
  0
LINE
  5
644D
330
643E
100
AcDbEntity
  8
S8
100
AcDbLine
 10
22.99620708958971
 20
-4.868817092481754
 30
0.0
 11
22.98754683555187
 21
-4.853817092481759
 31
0.0
  0
ENDBLK
  5
6440
330
643E
100
AcDbEntity
  8
0
100
AcDbBlockEnd
  0
BLOCK
  5
65B6
330
65AA
100
AcDbEntity
  8
0
100
AcDbBlockBegin
  2
*X14
 70
     1
 10
0.0
 20
0.0
 30
0.0
  3
*X14
  1

  0
LINE
  5
65AB
330
65AA
100
AcDbEntity
  8
0
  6
CONTINUOUS
 62
     0
100
AcDbLine
 10
6.649000374793965
 20
1.364541982674564
 30
0.0
 11
6.825480304068105
 21
1.541021911948704
 31
0.0
  0
LINE
  5
65AC
330
65AA
100
AcDbEntity
  8
0
  6
CONTINUOUS
 62
     0
100
AcDbLine
 10
6.46500037479397
 20
1.180541982674569
 30
0.0
 11
6.565480304068106
 21
1.281021911948704
 31
0.0
  0
LINE
  5
65AD
330
65AA
100
AcDbEntity
  8
0
  6
CONTINUOUS
 62
     0
100
AcDbLine
 10
6.757693046687485
 20
1.65001134986472
 30
0.0
 11
6.825480304068103
 21
1.717798607245339
 31
0.0
  0
LINE
  5
65AE
330
65AA
100
AcDbEntity
  8
0
  6
CONTINUOUS
 62
     0
100
AcDbLine
 10
6.288223679497328
 20
1.180541982674563
 30
0.0
 11
6.544223679497327
 21
1.436541982674563
 31
0.0
  0
LINE
  5
65AF
330
65AA
100
AcDbEntity
  8
0
  6
CONTINUOUS
 62
     0
100
AcDbLine
 10
6.6854803040681
 20
1.754575302541972
 30
0.0
 11
6.767446984200693
 21
1.836541982674566
 31
0.0
  0
LINE
  5
65B0
330
65AA
100
AcDbEntity
  8
0
  6
CONTINUOUS
 62
     0
100
AcDbLine
 10
6.185480304068104
 20
1.254575302541976
 30
0.0
 11
6.367446984200691
 21
1.436541982674564
 31
0.0
  0
LINE
  5
65B1
330
65AA
100
AcDbEntity
  8
0
  6
CONTINUOUS
 62
     0
100
AcDbLine
 10
6.518670288904052
 20
1.764541982674561
 30
0.0
 11
6.590670288904052
 21
1.836541982674561
 31
0.0
  0
LINE
  5
65B2
330
65AA
100
AcDbEntity
  8
0
  6
CONTINUOUS
 62
     0
100
AcDbLine
 10
6.185480304068104
 20
1.431351997838613
 30
0.0
 11
6.190670288904057
 21
1.436541982674566
 31
0.0
  0
LINE
  5
65B3
330
65AA
100
AcDbEntity
  8
0
  6
CONTINUOUS
 62
     0
100
AcDbLine
 10
6.341893593607418
 20
1.764541982674565
 30
0.0
 11
6.565480304068109
 21
1.988128693135255
 31
0.0
  0
LINE
  5
65B4
330
65AA
100
AcDbEntity
  8
0
  6
CONTINUOUS
 62
     0
100
AcDbLine
 10
6.185480304068104
 20
1.784905388431887
 30
0.0
 11
6.421116898310783
 21
2.020541982674567
 31
0.0
  0
LINE
  5
65B5
330
65AA
100
AcDbEntity
  8
0
  6
CONTINUOUS
 62
     0
100
AcDbLine
 10
6.185480304068105
 20
1.961682083728526
 30
0.0
 11
6.244340203014148
 21
2.020541982674568
 31
0.0
  0
ENDBLK
  5
65B7
330
65AA
100
AcDbEntity
  8
0
100
AcDbBlockEnd
  0
ENDSEC
  0
SECTION
  2
ENTITIES
  0
TEXT
  5
119
330
18
100
AcDbEntity
  8
D1
100
AcDbText
 10
13.09499999999999
 20
1.41
 30
0.0
 40
0.1
  1
   
100
AcDbText
  0
TEXT
  5
121
330
18
100
AcDbEntity
  8
D1
100
AcDbText
 10
13.935
 20
0.5400000000000005
 30
0.0
 40
0.1099999999999999
  1
    
100
AcDbText
  0
TEXT
  5
122
330
18
100
AcDbEntity
  8
D1
100
AcDbText
 10
14.97499999999999
 20
1.375
 30
0.0
 40
0.1
  1
 
100
AcDbText
  0
INSERT
  5
B99
330
18
100
AcDbEntity
  8
S2
100
AcDbBlockReference
  2
AME_NIL
 10
18.01494614176086
 20
14.67117853937151
 30
0.0
  0
INSERT
  5
B9A
330
18
100
AcDbEntity
  8
S2
100
AcDbBlockReference
  2
AME_SOL
 10
18.01494614176086
 20
14.67117853937151
 30
0.0
1001
AME_SOL
1000
R2.1_c2
1000
AME2
1000
sq cm
1070
     3
1070
     0
1070
     3
1000
wire
1040
45.0
1000
U
1040
1.0
1000
cm
1000
gm
1000
MILD_STEEL
1070
    25
1000
CSG
1070
     1
1070
     3
1070
     3
1070
     3
1070
     0
1000
cu cm
1070
     1
1070
     0
1005
0
  0
MTEXT
  5
5512
330
18
100
AcDbEntity
  8
D1
  6
CONTINUOUS
100
AcDbMText
 10
6.007481415616639
 20
4.98365142100042
 30
0.0
 40
0.13
 41
0.0
 71
     6
 72
     1
  1

1001
ACAD
1000
MTEXTBEGIN
1070
    73
1070
     1
1070
    44
1040
1.0
1070
    74
1070
     0
1000
MTEXTEND
  0
POLYLINE
  5
5907
330
18
100
AcDbEntity
  8
BORDER
  6
CONTINUOUS
100
AcDb2dPolyline
 66
     1
 10
0.0
 20
0.0
 30
0.0
 70
     1
 40
0.03
 41
0.03
  0
VERTEX
  5
649C
330
5907
100
AcDbEntity
  8
BORDER
  6
CONTINUOUS
100
AcDbVertex
100
AcDb2dVertex
 10
0.2033186418844295
 20
0.4921116272831716
 30
0.0
  0
VERTEX
  5
649D
330
5907
100
AcDbEntity
  8
BORDER
  6
CONTINUOUS
100
AcDbVertex
100
AcDb2dVertex
 10
17.20331864188443
 20
0.4921116272831716
 30
0.0
  0
VERTEX
  5
649E
330
5907
100
AcDbEntity
  8
BORDER
  6
CONTINUOUS
100
AcDbVertex
100
AcDb2dVertex
 10
17.20331864188443
 20
11.49211162728317
 30
0.0
  0
VERTEX
  5
649F
330
5907
100
AcDbEntity
  8
BORDER
  6
CONTINUOUS
100
AcDbVertex
100
AcDb2dVertex
 10
0.2033186418844295
 20
11.49211162728317
 30
0.0
  0
SEQEND
  5
64A0
330
5907
100
AcDbEntity
  8
BORDER
  6
CONTINUOUS
  0
POLYLINE
  5
59EC
330
18
100
AcDbEntity
  8
BORDER
100
AcDb2dPolyline
 66
     1
 10
0.0
 20
0.0
 30
0.0
 39
0.0108
 40
0.0144
 41
0.0144
  0
VERTEX
  5
64A1
330
59EC
100
AcDbEntity
  8
BORDER
100
AcDbVertex
100
AcDb2dVertex
 10
16.13808983146224
 20
1.06111962728317
 30
0.0
  0
VERTEX
  5
64A2
330
59EC
100
AcDbEntity
  8
BORDER
100
AcDbVertex
100
AcDb2dVertex
 10
16.13808983146224
 20
0.7816156272831709
 30
0.0
  0
SEQEND
  5
64A3
330
59EC
100
AcDbEntity
  8
BORDER
  0
POLYLINE
  5
59ED
330
18
100
AcDbEntity
  8
BORDER
100
AcDb2dPolyline
 66
     1
 10
0.0
 20
0.0
 30
0.0
 39
0.0108
 40
0.0144
 41
0.0144
  0
VERTEX
  5
64A4
330
59ED
100
AcDbEntity
  8
BORDER
100
AcDbVertex
100
AcDb2dVertex
 10
15.3078441832334
 20
1.06111962728317
 30
0.0
  0
VERTEX
  5
64A5
330
59ED
100
AcDbEntity
  8
BORDER
100
AcDbVertex
100
AcDb2dVertex
 10
15.3078441832334
 20
0.4838757627084576
 30
0.0
  0
SEQEND
  5
64A6
330
59ED
100
AcDbEntity
  8
BORDER
  0
POLYLINE
  5
59EE
330
18
100
AcDbEntity
  8
BORDER
100
AcDb2dPolyline
 66
     1
 10
0.0
 20
0.0
 30
0.0
 39
0.0108
 40
0.0144
 41
0.0144
  0
VERTEX
  5
64A7
330
59EE
100
AcDbEntity
  8
BORDER
100
AcDbVertex
100
AcDb2dVertex
 10
17.20913868652081
 20
0.7816156272831709
 30
0.0
  0
VERTEX
  5
64A8
330
59EE
100
AcDbEntity
  8
BORDER
100
AcDbVertex
100
AcDb2dVertex
 10
13.93243864188443
 20
0.7816156272831709
 30
0.0
  0
SEQEND
  5
64A9
330
59EE
100
AcDbEntity
  8
BORDER
  0
POLYLINE
  5
59EF
330
18
100
AcDbEntity
  8
BORDER
100
AcDb2dPolyline
 66
     1
 10
0.0
 20
0.0
 30
0.0
 39
0.0108
 40
0.0144
 41
0.0144
  0
VERTEX
  5
64AA
330
59EF
100
AcDbEntity
  8
BORDER
100
AcDbVertex
100
AcDb2dVertex
 10
17.21349565830657
 20
1.06111962728317
 30
0.0
  0
VERTEX
  5
64AB
330
59EF
100
AcDbEntity
  8
BORDER
100
AcDbVertex
100
AcDb2dVertex
 10
13.93243864188443
 20
1.06111962728317
 30
0.0
  0
SEQEND
  5
64AC
330
59EF
100
AcDbEntity
  8
BORDER
  0
POLYLINE
  5
59F0
330
18
100
AcDbEntity
  8
BORDER
100
AcDb2dPolyline
 66
     1
 10
0.0
 20
0.0
 30
0.0
 39
0.0108
 40
0.0144
 41
0.0144
  0
VERTEX
  5
64AD
330
59F0
100
AcDbEntity
  8
BORDER
100
AcDbVertex
100
AcDb2dVertex
 10
13.93243864188443
 20
1.34062362728317
 30
0.0
  0
VERTEX
  5
64AE
330
59F0
100
AcDbEntity
  8
BORDER
100
AcDbVertex
100
AcDb2dVertex
 10
17.21349565830657
 20
1.34062362728317
 30
0.0
  0
SEQEND
  5
64AF
330
59F0
100
AcDbEntity
  8
BORDER
  0
POLYLINE
  5
59F1
330
18
100
AcDbEntity
  8
BORDER
100
AcDb2dPolyline
 66
     1
 10
0.0
 20
0.0
 30
0.0
 39
0.0108
 40
0.0144
 41
0.0144
  0
VERTEX
  5
64B0
330
59F1
100
AcDbEntity
  8
BORDER
100
AcDbVertex
100
AcDb2dVertex
 10
13.93243864188443
 20
1.620127627283171
 30
0.0
  0
VERTEX
  5
64B1
330
59F1
100
AcDbEntity
  8
BORDER
100
AcDbVertex
100
AcDb2dVertex
 10
17.19331864188443
 20
1.620127627283171
 30
0.0
  0
SEQEND
  5
64B2
330
59F1
100
AcDbEntity
  8
BORDER
  0
POLYLINE
  5
59F2
330
18
100
AcDbEntity
  8
BORDER
100
AcDb2dPolyline
 66
     1
 10
0.0
 20
0.0
 30
0.0
 39
0.0108
 40
0.0144
 41
0.0144
  0
VERTEX
  5
64B3
330
59F2
100
AcDbEntity
  8
BORDER
100
AcDbVertex
100
AcDb2dVertex
 10
17.19331864188443
 20
1.778273835643592
 30
0.0
  0
VERTEX
  5
64B4
330
59F2
100
AcDbEntity
  8
BORDER
100
AcDbVertex
100
AcDb2dVertex
 10
13.93243864188443
 20
1.778273835643592
 30
0.0
  0
SEQEND
  5
64B5
330
59F2
100
AcDbEntity
  8
BORDER
  0
POLYLINE
  5
59F3
330
18
100
AcDbEntity
  8
BORDER
100
AcDb2dPolyline
 66
     1
 10
0.0
 20
0.0
 30
0.0
 39
0.0108
 40
0.0144
 41
0.0144
  0
VERTEX
  5
64B6
330
59F3
100
AcDbEntity
  8
BORDER
100
AcDbVertex
100
AcDb2dVertex
 10
13.93243864188443
 20
1.936673835643592
 30
0.0
  0
VERTEX
  5
64B7
330
59F3
100
AcDbEntity
  8
BORDER
100
AcDbVertex
100
AcDb2dVertex
 10
17.19331864188443
 20
1.936673835643592
 30
0.0
  0
SEQEND
  5
64B8
330
59F3
100
AcDbEntity
  8
BORDER
  0
LINE
  5
59F4
330
18
100
AcDbEntity
  8
BORDER
100
AcDbLine
 39
0.0108
 10
13.93243864188443
 20
1.936673835643592
 30
0.0
 11
17.19331864188442
 21
1.936673835643592
 31
0.0
  0
LINE
  5
59F5
330
18
100
AcDbEntity
  8
BORDER
100
AcDbLine
 39
0.0108
 10
13.93243864188443
 20
1.620127627283171
 30
0.0
 11
17.19331864188442
 21
1.620127627283171
 31
0.0
  0
LINE
  5
59F6
330
18
100
AcDbEntity
  8
BORDER
100
AcDbLine
 39
0.0108
 10
13.93243864188443
 20
1.34062362728317
 30
0.0
 11
17.21349565830658
 21
1.34062362728317
 31
0.0
  0
LINE
  5
59F7
330
18
100
AcDbEntity
  8
BORDER
100
AcDbLine
 39
0.0108
 10
13.93243864188443
 20
1.06111962728317
 30
0.0
 11
17.21349565830658
 21
1.06111962728317
 31
0.0
  0
LINE
  5
59F8
330
18
100
AcDbEntity
  8
BORDER
100
AcDbLine
 39
0.0108
 10
13.93243864188443
 20
0.7816156272831709
 30
0.0
 11
17.20913868652081
 21
0.7816156272831709
 31
0.0
  0
LINE
  5
59F9
330
18
100
AcDbEntity
  8
BORDER
100
AcDbLine
 39
0.0108
 10
13.93243864188443
 20
1.778273835643592
 30
0.0
 11
17.19331864188442
 21
1.778273835643592
 31
0.0
  0
TRACE
  5
59FA
330
18
100
AcDbEntity
  8
BORDER
100
AcDbTrace
 10
17.19331864188442
 20
2.206861035643592
 30
0.0
 11
17.19331864188442
 21
2.225494635643592
 31
0.0
 12
13.93709704188443
 22
2.206861035643592
 32
0.0
 13
13.93709704188443
 23
2.225494635643592
 33
0.0
 39
0.0108
  0
TEXT
  5
59FB
330
18
100
AcDbEntity
  8
BORDER
100
AcDbText
 10
16.17667174762063
 20
0.9635309474587469
 30
0.0
 40
0.0576
  1
DRAWING SCALE
100
AcDbText
  0
TEXT
  5
59FC
330
18
100
AcDbEntity
  8
BORDER
100
AcDbText
 10
15.85612215094673
 20
1.52808119330731
 30
0.0
 40
0.0576
  1
APPROVED
100
AcDbText
  0
TEXT
  5
59FD
330
18
100
AcDbEntity
  8
D1
100
AcDbText
 10
15.59051515502297
 20
0.5431888808400345
 30
-0.1677024
 40
0.0864
  1
SP1
100
AcDbText
  0
TEXT
  5
59FE
330
18
100
AcDbEntity
  8
BORDER
100
AcDbText
 10
14.01628984188443
 20
1.815555435643592
 30
0.0
 40
0.0652176
  1
TOL: X.XXX=+/-0.005 X.XX=+/-0.010 ANGULAR +/-30'
100
AcDbText
  0
TRACE
  5
59FF
330
18
100
AcDbEntity
  8
BORDER
100
AcDbTrace
 10
17.19331864188442
 20
2.565557835643591
 30
0.0
 11
17.19331864188442
 21
2.612141835643591
 31
0.0
 12
13.95573064188443
 22
2.565557835643591
 32
0.0
 13
13.90914664188443
 23
2.612141835643591
 33
0.0
  0
TEXT
  5
5A00
330
18
100
AcDbEntity
  8
D1
100
AcDbText
 10
14.55482970401526
 20
2.016832689200454
 30
-0.1677024
 40
0.0864
  1
SPECTROMETER
100
AcDbText
  0
TEXT
  5
5A01
330
18
100
AcDbEntity
  8
D1
100
AcDbText
 10
14.5316413308064
 20
1.126515888656993
 30
-0.1677024
 40
0.0864
  1
ALUMINUM
100
AcDbText
  0
TEXT
  5
5A02
330
18
100
AcDbEntity
  8
BORDER
100
AcDbText
 10
14.0028724779958
 20
1.662780269116971
 30
-0.0074763815538067
 40
0.0623101182846307
  1
SURF. FINISH: 32 MICROINCHES UNLESS OTHERWISE NOTED
100
AcDbText
  0
POLYLINE
  5
5A03
330
18
100
AcDbEntity
  8
BORDER
100
AcDb2dPolyline
 66
     1
 10
0.0
 20
0.0
 30
-0.1677024
 39
0.0108
 40
0.0144
 41
0.0144
  0
VERTEX
  5
64B9
330
5A03
100
AcDbEntity
  8
BORDER
100
AcDbVertex
100
AcDb2dVertex
 10
14.9920749093331
 20
1.06111962728317
 30
-0.1677024
  0
VERTEX
  5
64BA
330
5A03
100
AcDbEntity
  8
BORDER
100
AcDbVertex
100
AcDb2dVertex
 10
14.9920749093331
 20
0.7816156272831709
 30
-0.1677024
  0
SEQEND
  5
64BB
330
5A03
100
AcDbEntity
  8
BORDER
  0
POLYLINE
  5
5A04
330
18
100
AcDbEntity
  8
BORDER
100
AcDb2dPolyline
 66
     1
 10
0.0
 20
0.0
 30
-0.1677024
 39
0.0108
 40
0.0144
 41
0.0144
  0
VERTEX
  5
64BC
330
5A04
100
AcDbEntity
  8
BORDER
100
AcDbVertex
100
AcDb2dVertex
 10
14.72044624632172
 20
1.06111962728317
 30
-0.1677024
  0
VERTEX
  5
64BD
330
5A04
100
AcDbEntity
  8
BORDER
100
AcDbVertex
100
AcDb2dVertex
 10
14.72044624632172
 20
0.7816156272831709
 30
-0.1677024
  0
SEQEND
  5
64BE
330
5A04
100
AcDbEntity
  8
BORDER
  0
POLYLINE
  5
5A05
330
18
100
AcDbEntity
  8
BORDER
100
AcDb2dPolyline
 66
     1
 10
0.0
 20
0.0
 30
-0.1677024
 39
0.0108
 40
0.0144
 41
0.0144
  0
VERTEX
  5
64BF
330
5A05
100
AcDbEntity
  8
BORDER
100
AcDbVertex
100
AcDb2dVertex
 10
14.95804624632172
 20
1.620127627283171
 30
-0.1677024
  0
VERTEX
  5
64C0
330
5A05
100
AcDbEntity
  8
BORDER
100
AcDbVertex
100
AcDb2dVertex
 10
14.95804624632172
 20
1.34062362728317
 30
-0.1677024
  0
SEQEND
  5
64C1
330
5A05
100
AcDbEntity
  8
BORDER
  0
POLYLINE
  5
5A06
330
18
100
AcDbEntity
  8
BORDER
100
AcDb2dPolyline
 66
     1
 10
0.0
 20
0.0
 30
-0.1677024
 39
0.0108
 40
0.0144
 41
0.0144
  0
VERTEX
  5
64C2
330
5A06
100
AcDbEntity
  8
BORDER
100
AcDbVertex
100
AcDb2dVertex
 10
15.76300624632172
 20
1.620127627283171
 30
-0.1677024
  0
VERTEX
  5
64C3
330
5A06
100
AcDbEntity
  8
BORDER
100
AcDbVertex
100
AcDb2dVertex
 10
15.76300624632172
 20
1.34062362728317
 30
-0.1677024
  0
SEQEND
  5
64C4
330
5A06
100
AcDbEntity
  8
BORDER
  0
LINE
  5
5A07
330
18
100
AcDbEntity
  8
BORDER
100
AcDbLine
 39
0.0108
 10
14.9920749093331
 20
1.06111962728317
 30
-0.1677024
 11
14.9920749093331
 21
0.7816156272831709
 31
-0.1677024
  0
LINE
  5
5A08
330
18
100
AcDbEntity
  8
BORDER
100
AcDbLine
 39
0.0108
 10
14.95804624632172
 20
1.34062362728317
 30
-0.1677024
 11
14.95804624632172
 21
1.620127627283171
 31
-0.1677024
  0
LINE
  5
5A09
330
18
100
AcDbEntity
  8
BORDER
100
AcDbLine
 39
0.0108
 10
15.76300624632172
 20
1.34062362728317
 30
-0.1677024
 11
15.76300624632172
 21
1.620127627283171
 31
-0.1677024
  0
LINE
  5
5A0A
330
18
100
AcDbEntity
  8
BORDER
100
AcDbLine
 10
14.72044624632172
 20
0.7816156272831709
 30
-0.1677024
 11
14.72044624632172
 21
1.06111962728317
 31
-0.1677024
  0
TEXT
  5
5A0B
330
18
100
AcDbEntity
  8
D1
100
AcDbText
 10
14.15216260790222
 20
0.5431888808400345
 30
-0.1677024
 40
0.0864
  1
3114-E01
100
AcDbText
  0
TEXT
  5
5A0C
330
18
100
AcDbEntity
  8
D1
100
AcDbText
 10
13.99931515502297
 20
0.8455888808400334
 30
-0.1677024
 40
0.0864
  1
06/15/03
100
AcDbText
  0
TEXT
  5
5A0D
330
18
100
AcDbEntity
  8
D1
100
AcDbText
 10
14.26020730202883
 20
1.382872846864173
 30
-0.1677024
 40
0.0864
  1
BMM
100
AcDbText
  0
TEXT
  5
5A0E
330
18
100
AcDbEntity
  8
D1
100
AcDbText
 10
14.8305004934966
 20
0.8455888808400334
 30
-0.1677024
 40
0.0864
  1
B
100
AcDbText
  0
TEXT
  5
5A0F
330
18
100
AcDbEntity
  8
BORDER
100
AcDbText
 10
15.04861222247164
 20
0.9649707167954256
 30
-0.1677024
 40
0.0576
  1
SIZE
 72
     1
 11
15.14461222247164
 21
0.9649707167954256
 31
-0.1677024
100
AcDbText
  0
TEXT
  5
5A10
330
18
100
AcDbEntity
  8
D1
100
AcDbText
 10
15.11638934857135
 20
0.8363813692232842
 30
-0.1677024
 40
0.0864
  1
B
 72
     1
 11
15.14518934857135
 21
0.8363813692232842
 31
-0.1677024
100
AcDbText
  0
TEXT
  5
5A11
330
18
100
AcDbEntity
  8
D1
100
AcDbText
 10
15.52810589062972
 20
0.8455888808400334
 30
-0.1677024
 40
0.0864
  1
1
100
AcDbText
  0
TEXT
  5
5A12
330
18
100
AcDbEntity
  8
D1
100
AcDbText
 10
15.31386259023235
 20
1.382872846864173
 30
-0.1677024
 40
0.0864
  1
SB
100
AcDbText
  0
TEXT
  5
5A13
330
18
100
AcDbEntity
  8
D1
100
AcDbText
 10
15.88090589062971
 20
0.8455888808400334
 30
-0.1677024
 40
0.0864
  1
1
100
AcDbText
  0
TRACE
  5
5A14
330
18
100
AcDbEntity
  8
BORDER
100
AcDbTrace
 10
13.95573064188443
 20
2.566061402659054
 30
0.0
 11
13.90914664188443
 21
2.612645402659055
 31
0.0
 12
13.95573064188443
 22
0.5021116272831714
 32
0.0
 13
13.90914664188443
 23
0.5021116272831714
 33
0.0
  0
LINE
  5
5A15
330
18
100
AcDbEntity
  8
BORDER
100
AcDbLine
 10
16.13808983146224
 20
1.06111962728317
 30
0.0
 11
16.13808983146224
 21
0.7816156272831709
 31
0.0
  0
LINE
  5
5A16
330
18
100
AcDbEntity
  8
BORDER
100
AcDbLine
 10
15.3078441832334
 20
0.4838757627084576
 30
0.0
 11
15.3078441832334
 21
1.06111962728317
 31
0.0
  0
TEXT
  5
5A17
330
18
100
AcDbEntity
  8
BORDER
100
AcDbText
 10
14.02094824188443
 20
0.6884476272831708
 30
0.0
 40
0.0652176
  1
DWG NO.
100
AcDbText
  0
TEXT
  5
5A18
330
18
100
AcDbEntity
  8
BORDER
100
AcDbText
 10
15.36735528000759
 20
0.6884476272831708
 30
0.0
 40
0.0652176
  1
PART NO.
100
AcDbText
  0
TEXT
  5
5A19
330
18
100
AcDbEntity
  8
BORDER
100
AcDbText
 10
14.9794930726573
 20
1.52808119330731
 30
0.0
 40
0.0576
  1
ENGINEER
100
AcDbText
  0
TEXT
  5
5A1A
330
18
100
AcDbEntity
  8
BORDER
100
AcDbText
 10
14.01628984188443
 20
1.238560686607382
 30
0.0
 40
0.0652176
  1
MATERIAL
100
AcDbText
  0
TEXT
  5
5A1B
330
18
100
AcDbEntity
  8
BORDER
100
AcDbText
 10
14.02094824188442
 20
0.9679516272831708
 30
0.0
 40
0.0576
  1
DATE
100
AcDbText
  0
TEXT
  5
5A1C
330
18
100
AcDbEntity
  8
BORDER
100
AcDbText
 10
14.01008523453413
 20
1.52808119330731
 30
0.0
 40
0.0576
  1
DRAWN
100
AcDbText
  0
TEXT
  5
5A1D
330
18
100
AcDbEntity
  8
BORDER
100
AcDbText
 10
14.7502000800076
 20
0.9632932272831705
 30
0.0
 40
0.0576
  1
REV
100
AcDbText
  0
TEXT
  5
5A1E
330
18
100
AcDbEntity
  8
BORDER
100
AcDbText
 10
14.01628984188443
 20
2.118351435643592
 30
0.0
 40
0.0652176
  1
TITLE
100
AcDbText
  0
TEXT
  5
5A1F
330
18
100
AcDbEntity
  8
BORDER
100
AcDbText
 10
15.34569504774953
 20
0.9635309474587469
 30
0.0
 40
0.0576
  1
SHEET
100
AcDbText
  0
TEXT
  5
5A20
330
18
100
AcDbEntity
  8
BORDER
100
AcDbText
 10
15.66511964715972
 20
0.8523412272831709
 30
0.0
 40
0.0652176
  1
OF
100
AcDbText
  0
TEXT
  5
5A21
330
18
100
AcDbEntity
  8
D1
100
AcDbText
 10
16.3747540353002
 20
0.8455888808400334
 30
-0.1677024
 40
0.0864
  1
1" = 1"
100
AcDbText
  0
TEXT
  5
5A22
330
18
100
AcDbEntity
  8
BORDER
100
AcDbText
 10
16.06432964945025
 20
2.423164986131337
 30
0.1677024
 40
0.104814
  1
PO BOX 366
100
AcDbText
  0
TEXT
  5
5A23
330
18
100
AcDbEntity
  8
BORDER
100
AcDbText
 10
16.06432964945025
 20
2.248474986131337
 30
0.1677024
 40
0.104814
  1
NEWTON NJ
100
AcDbText
  0
POLYLINE
  5
5A24
330
18
100
AcDbEntity
  8
BORDER
100
AcDb2dPolyline
 66
     1
 10
0.0
 20
0.0
 30
0.1677024
 40
0.00493045056
 41
0.00493045056
  0
VERTEX
  5
64C5
330
5A24
100
AcDbEntity
  8
BORDER
100
AcDbVertex
100
AcDb2dVertex
 10
15.91654691965104
 20
2.462067105502534
 30
0.1677024
 42
0.1521907920671271
  0
VERTEX
  5
64C6
330
5A24
100
AcDbEntity
  8
BORDER
100
AcDbVertex
100
AcDb2dVertex
 10
15.91225178861954
 20
2.496806460126451
 30
0.1677024
 42
0.1521907920671271
  0
SEQEND
  5
64C7
330
5A24
100
AcDbEntity
  8
BORDER
  0
SOLID
  5
5A25
330
18
100
AcDbEntity
  8
BORDER
100
AcDbTrace
 10
15.90234858433021
 20
2.470291697178187
 30
0.1677024
 11
15.91832203822379
 21
2.462310286192544
 31
0.1677024
 12
15.89585936868593
 22
2.491741739202103
 32
0.1677024
 13
15.91108406692825
 23
2.501967922027458
 33
0.1677024
  0
POLYLINE
  5
5A26
330
18
100
AcDbEntity
  8
BORDER
100
AcDb2dPolyline
 66
     1
 10
0.0
 20
0.0
 30
0.1677024
 40
0.00493045056
 41
0.00493045056
  0
VERTEX
  5
64C8
330
5A26
100
AcDbEntity
  8
BORDER
100
AcDbVertex
100
AcDb2dVertex
 10
15.79543783155204
 20
2.490673265252777
 30
0.1677024
 42
0.3986208060685013
  0
VERTEX
  5
64C9
330
5A26
100
AcDbEntity
  8
BORDER
100
AcDbVertex
100
AcDb2dVertex
 10
15.82837010359392
 20
2.420374273631635
 30
0.1677024
 42
0.3986208060685013
  0
SEQEND
  5
64CA
330
5A26
100
AcDbEntity
  8
BORDER
  0
SOLID
  5
5A27
330
18
100
AcDbEntity
  8
BORDER
100
AcDbTrace
 10
15.82291490085985
 20
2.499107795052449
 30
0.1677024
 11
15.81049029370266
 21
2.512652890338303
 31
0.1677024
 12
15.8075535683746
 22
2.482627929121326
 32
0.1677024
 13
15.79332174563091
 23
2.488497470411862
 33
0.1677024
  0
SOLID
  5
5A28
330
18
100
AcDbEntity
  8
BORDER
100
AcDbTrace
 10
15.8075535683746
 20
2.482627929121326
 30
0.1677024
 11
15.79332174563091
 21
2.488497470411862
 31
0.1677024
 12
15.81003848980603
 22
2.456440744902008
 32
0.1677024
 13
15.7951289612174
 23
2.450345452023373
 33
0.1677024
  0
ARC
  5
5A29
330
18
100
AcDbEntity
  8
BORDER
100
AcDbCircle
 10
15.48037296698338
 20
2.451406827523078
 30
0.1677024
 40
0.0589785580760116
100
AcDbArc
 50
358.6532608214001
 51
58.67020583628288
  0
SOLID
  5
5A2A
330
18
100
AcDbEntity
  8
BORDER
100
AcDbTrace
 10
14.76653889437084
 20
2.477550151191652
 30
0.1677024
 11
14.76653889437084
 21
2.511788449336835
 31
0.1677024
 12
14.83350507409793
 22
2.477550151191652
 32
0.1677024
 13
14.85764617023569
 23
2.517497586131336
 33
0.1677024
  0
POLYLINE
  5
5A2B
330
18
100
AcDbEntity
  8
BORDER
100
AcDb2dPolyline
 66
     1
 10
0.0
 20
0.0
 30
0.1677024
 40
0.0104814
 41
0.0104814
  0
VERTEX
  5
64CB
330
5A2B
100
AcDbEntity
  8
BORDER
100
AcDbVertex
100
AcDb2dVertex
 10
14.86549971251974
 20
2.385556000624649
 30
0.1677024
 42
0.9399343180161681
  0
VERTEX
  5
64CC
330
5A2B
100
AcDbEntity
  8
BORDER
100
AcDbVertex
100
AcDb2dVertex
 10
14.85764617023569
 20
2.512256886131337
 30
0.1677024
 42
0.9399343180161681
  0
SEQEND
  5
64CD
330
5A2B
100
AcDbEntity
  8
BORDER
  0
POLYLINE
  5
5A2C
330
18
100
AcDbEntity
  8
BORDER
100
AcDb2dPolyline
 66
     1
 10
0.0
 20
0.0
 30
0.1677024
 40
0.0104814
 41
0.0104814
  0
VERTEX
  5
64CE
330
5A2C
100
AcDbEntity
  8
BORDER
100
AcDbVertex
100
AcDb2dVertex
 10
14.83350507409793
 20
2.394445578919877
 30
0.1677024
 42
1.0
  0
VERTEX
  5
64CF
330
5A2C
100
AcDbEntity
  8
BORDER
100
AcDbVertex
100
AcDb2dVertex
 10
14.83350507409793
 20
2.482790851191652
 30
0.1677024
 42
1.0
  0
SEQEND
  5
64D0
330
5A2C
100
AcDbEntity
  8
BORDER
  0
SOLID
  5
5A2D
330
18
100
AcDbEntity
  8
BORDER
100
AcDbTrace
 10
14.87389709336464
 20
2.461444576793407
 30
0.1677024
 11
14.91458577012296
 21
2.482616780915384
 31
0.1677024
 12
14.85599407559098
 22
2.480445272800309
 32
0.1677024
 13
14.87443960905475
 23
2.510303509382583
 33
0.1677024
  0
SOLID
  5
5A2E
330
18
100
AcDbEntity
  8
BORDER
100
AcDbTrace
 10
14.85599407559098
 20
2.480445272800309
 30
0.1677024
 11
14.87443960905475
 21
2.510303509382583
 31
0.1677024
 12
14.83350507409793
 22
2.477550151191652
 32
0.1677024
 13
14.85764617023569
 23
2.517497586131336
 33
0.1677024
  0
POLYLINE
  5
5A2F
330
18
100
AcDbEntity
  8
BORDER
100
AcDb2dPolyline
 66
     1
 10
0.0
 20
0.0
 30
0.1677024
 40
0.00493045056
 41
0.00493045056
  0
VERTEX
  5
64D1
330
5A2F
100
AcDbEntity
  8
BORDER
100
AcDbVertex
100
AcDb2dVertex
 10
15.83111860223525
 20
2.501330070830354
 30
0.1677024
 42
0.3426274439635524
  0
VERTEX
  5
64D2
330
5A2F
100
AcDbEntity
  8
BORDER
100
AcDbVertex
100
AcDb2dVertex
 10
15.80734620408546
 20
2.476050825668901
 30
0.1677024
 42
0.2942809489964497
  0
VERTEX
  5
64D3
330
5A2F
100
AcDbEntity
  8
BORDER
100
AcDbVertex
100
AcDb2dVertex
 10
15.82428613456932
 20
2.443344666530432
 30
0.1677024
 42
0.2735375373643303
  0
VERTEX
  5
64D4
330
5A2F
100
AcDbEntity
  8
BORDER
100
AcDbVertex
100
AcDb2dVertex
 10
15.88593923054275
 20
2.444178151741401
 30
0.1677024
 42
0.208169861593478
  0
VERTEX
  5
64D5
330
5A2F
100
AcDbEntity
  8
BORDER
100
AcDbVertex
100
AcDb2dVertex
 10
15.90160919418534
 20
2.466465816932976
 30
0.1677024
 42
0.4189849082168211
  0
VERTEX
  5
64D6
330
5A2F
100
AcDbEntity
  8
BORDER
100
AcDbVertex
100
AcDb2dVertex
 10
15.87745005096923
 20
2.502453249544586
 30
0.1677024
 42
0.4189849082168211
  0
SEQEND
  5
64D7
330
5A2F
100
AcDbEntity
  8
BORDER
  0
LINE
  5
5A30
330
18
100
AcDbEntity
  8
BORDER
100
AcDbLine
 10
14.98148885264618
 20
2.300008536131336
 30
0.1677024
 11
14.98148885264618
 21
2.517497586131336
 31
0.1677024
  0
LINE
  5
5A31
330
18
100
AcDbEntity
  8
BORDER
100
AcDbLine
 10
14.92646150264618
 20
2.517497586131336
 30
0.1677024
 11
14.92646150264618
 21
2.255462586131337
 31
0.1677024
  0
POLYLINE
  5
5A32
330
18
100
AcDbEntity
  8
BORDER
100
AcDb2dPolyline
 66
     1
 10
0.0
 20
0.0
 30
0.1677024
  0
VERTEX
  5
64D8
330
5A32
100
AcDbEntity
  8
BORDER
100
AcDbVertex
100
AcDb2dVertex
 10
15.10997771489618
 20
2.300008536131336
 30
0.1677024
  0
VERTEX
  5
64D9
330
5A32
100
AcDbEntity
  8
BORDER
100
AcDbVertex
100
AcDb2dVertex
 10
15.18718632764619
 20
2.517497586131336
 30
0.1677024
  0
VERTEX
  5
64DA
330
5A32
100
AcDbEntity
  8
BORDER
100
AcDbVertex
100
AcDb2dVertex
 10
15.24614420264618
 20
2.517497586131336
 30
0.1677024
  0
VERTEX
  5
64DB
330
5A32
100
AcDbEntity
  8
BORDER
100
AcDbVertex
100
AcDb2dVertex
 10
15.33258757683973
 20
2.273995123614297
 30
0.1677024
  0
SEQEND
  5
64DC
330
5A32
100
AcDbEntity
  8
BORDER
  0
LINE
  5
5A33
330
18
100
AcDbEntity
  8
BORDER
100
AcDbLine
 10
15.33258757683973
 20
2.517497586131336
 30
0.1677024
 11
15.33258757683973
 21
2.273995123614299
 31
0.1677024
  0
POLYLINE
  5
5A34
330
18
100
AcDbEntity
  8
BORDER
100
AcDb2dPolyline
 66
     1
 10
0.0
 20
0.0
 30
0.1677024
  0
VERTEX
  5
64DD
330
5A34
100
AcDbEntity
  8
BORDER
100
AcDbVertex
100
AcDb2dVertex
 10
15.54666591459322
 20
2.334210671736443
 30
0.1677024
  0
VERTEX
  5
64DE
330
5A34
100
AcDbEntity
  8
BORDER
100
AcDbVertex
100
AcDb2dVertex
 10
15.58868177414534
 20
2.334210671736443
 30
0.1677024
 42
0.3020440864755188
  0
VERTEX
  5
64DF
330
5A34
100
AcDbEntity
  8
BORDER
100
AcDbVertex
100
AcDb2dVertex
 10
15.61555162392121
 20
2.294624202276565
 30
0.1677024
 42
0.2653699712401423
  0
VERTEX
  5
64E0
330
5A34
100
AcDbEntity
  8
BORDER
100
AcDbVertex
100
AcDb2dVertex
 10
15.68759371750457
 20
2.304114549770706
 30
0.1677024
 42
0.6356064402471244
  0
VERTEX
  5
64E1
330
5A34
100
AcDbEntity
  8
BORDER
100
AcDbVertex
100
AcDb2dVertex
 10
15.67596573271429
 20
2.358311684260055
 30
0.1677024
 42
-0.0009437836138568
  0
VERTEX
  5
64E2
330
5A34
100
AcDbEntity
  8
BORDER
100
AcDbVertex
100
AcDb2dVertex
 10
15.59007221237064
 20
2.37832868810786
 30
0.1677024
 42
-0.3442454331168749
  0
VERTEX
  5
64E3
330
5A34
100
AcDbEntity
  8
BORDER
100
AcDbVertex
100
AcDb2dVertex
 10
15.53938797198022
 20
2.4414078564764
 30
0.1677024
 42
-0.322222187521162
  0
VERTEX
  5
64E4
330
5A34
100
AcDbEntity
  8
BORDER
100
AcDbVertex
100
AcDb2dVertex
 10
15.59136875298689
 20
2.515837983645528
 30
0.1677024
 42
-0.1417364340760132
  0
VERTEX
  5
64E5
330
5A34
100
AcDbEntity
  8
BORDER
100
AcDbVertex
100
AcDb2dVertex
 10
15.68022029139325
 20
2.520829930332128
 30
0.1677024
 42
-0.3337744805077131
  0
VERTEX
  5
64E6
330
5A34
100
AcDbEntity
  8
BORDER
100
AcDbVertex
100
AcDb2dVertex
 10
15.74397398679628
 20
2.445296615677748
 30
0.1677024
  0
VERTEX
  5
64E7
330
5A34
100
AcDbEntity
  8
BORDER
100
AcDbVertex
100
AcDb2dVertex
 10
15.69215980936515
 20
2.445296615677748
 30
0.1677024
 42
0.3019792396306431
  0
VERTEX
  5
64E8
330
5A34
100
AcDbEntity
  8
BORDER
100
AcDbVertex
100
AcDb2dVertex
 10
15.66740696524277
 20
2.479695889795471
 30
0.1677024
 42
0.1972875622237244
  0
VERTEX
  5
64E9
330
5A34
100
AcDbEntity
  8
BORDER
100
AcDbVertex
100
AcDb2dVertex
 10
15.61245847369059
 20
2.47809853067431
 30
0.1677024
 42
0.728374493267646
  0
VERTEX
  5
64EA
330
5A34
100
AcDbEntity
  8
BORDER
100
AcDbVertex
100
AcDb2dVertex
 10
15.61870560631762
 20
2.419866265182064
 30
0.1677024
 42
0.0019568917075044
  0
SEQEND
  5
64EB
330
5A34
100
AcDbEntity
  8
BORDER
  0
SOLID
  5
5A35
330
18
100
AcDbEntity
  8
BORDER
100
AcDbTrace
 10
14.68785378002881
 20
2.471408161981998
 30
0.1677024
 11
14.64888506626278
 21
2.453014450379919
 31
0.1677024
 12
14.63565040875734
 22
2.512610075970656
 32
0.1677024
 13
14.62241575125191
 23
2.475086904302415
 33
0.1677024
  0
SOLID
  5
5A36
330
18
100
AcDbEntity
  8
BORDER
100
AcDbTrace
 10
14.63565040875734
 20
2.512610075970656
 30
0.1677024
 11
14.62241575125191
 21
2.475086904302415
 31
0.1677024
 12
14.58762865452397
 22
2.522814238305249
 32
0.1677024
 13
14.58652175589624
 23
2.485154618740033
 33
0.1677024
  0
SOLID
  5
5A37
330
18
100
AcDbEntity
  8
BORDER
100
AcDbTrace
 10
14.51789404097712
 20
2.498446249174815
 30
0.1677024
 11
14.53781821627622
 21
2.468540080696555
 31
0.1677024
 12
14.48247328488984
 22
2.458571357870467
 32
0.1677024
 13
14.52010783823258
 23
2.431988097000902
 33
0.1677024
  0
POLYLINE
  5
5A38
330
18
100
AcDbEntity
  8
BORDER
100
AcDb2dPolyline
 66
     1
 10
0.0
 20
0.0
 30
0.1677024
 40
0.0104814
 41
0.0104814
  0
VERTEX
  5
64EC
330
5A38
100
AcDbEntity
  8
BORDER
100
AcDbVertex
100
AcDb2dVertex
 10
14.70090750849396
 20
2.436925369059132
 30
0.1677024
 42
0.7414713431190223
  0
VERTEX
  5
64ED
330
5A38
100
AcDbEntity
  8
BORDER
100
AcDbVertex
100
AcDb2dVertex
 10
14.47546412469451
 20
2.435594318890266
 30
0.1677024
 42
0.7414713431190223
  0
SEQEND
  5
64EE
330
5A38
100
AcDbEntity
  8
BORDER
  0
SOLID
  5
5A39
330
18
100
AcDbEntity
  8
BORDER
100
AcDbTrace
 10
14.58762865452397
 20
2.522814238305249
 30
0.1677024
 11
14.58652175589624
 21
2.485154618740033
 31
0.1677024
 12
14.51789404097712
 22
2.498446249174815
 32
0.1677024
 13
14.53781821627622
 23
2.468540080696555
 33
0.1677024
  0
SOLID
  5
5A3A
330
18
100
AcDbEntity
  8
BORDER
100
AcDbTrace
 10
14.03030180264618
 20
2.517497586131336
 30
0.1677024
 11
14.25041120264618
 21
2.517497586131336
 31
0.1677024
 12
14.03030180264618
 22
2.474261811131337
 32
0.1677024
 13
14.25041120264618
 23
2.474261811131337
 33
0.1677024
  0
POLYLINE
  5
5A3B
330
18
100
AcDbEntity
  8
BORDER
100
AcDb2dPolyline
 66
     1
 10
0.0
 20
0.0
 30
0.1677024
 70
     1
 40
0.0104814
 41
0.0104814
  0
VERTEX
  5
64EF
330
5A3B
100
AcDbEntity
  8
BORDER
100
AcDbVertex
100
AcDb2dVertex
 10
14.52402024739717
 20
2.444996620445319
 30
0.1677024
 42
0.2285268323977459
  0
VERTEX
  5
64F0
330
5A3B
100
AcDbEntity
  8
BORDER
100
AcDbVertex
100
AcDb2dVertex
 10
14.5252443002824
 20
2.326021752009645
 30
0.1677024
 42
0.6230043105321781
  0
VERTEX
  5
64F1
330
5A3B
100
AcDbEntity
  8
BORDER
100
AcDbVertex
100
AcDb2dVertex
 10
14.65130319986161
 20
2.326419477316846
 30
0.1677024
 42
0.2290062495557326
  0
VERTEX
  5
64F2
330
5A3B
100
AcDbEntity
  8
BORDER
100
AcDbVertex
100
AcDb2dVertex
 10
14.65166843198482
 20
2.445515668241113
 30
0.1677024
 42
0.6323121992740218
  0
SEQEND
  5
64F3
330
5A3B
100
AcDbEntity
  8
BORDER
  0
SOLID
  5
5A3C
330
18
100
AcDbEntity
  8
BORDER
100
AcDbTrace
 10
14.25041120264618
 20
2.517497586131336
 30
0.1677024
 11
14.30281820264618
 21
2.517497586131336
 31
0.1677024
 12
14.25041120264618
 22
2.255462586131336
 32
0.1677024
 13
14.30281820264618
 23
2.255462586131336
 33
0.1677024
  0
SOLID
  5
5A3D
330
18
100
AcDbEntity
  8
BORDER
100
AcDbTrace
 10
14.41156272764618
 20
2.517497586131336
 30
0.1677024
 11
14.46396972764618
 21
2.517497586131336
 31
0.1677024
 12
14.41156272764618
 22
2.255462586131336
 32
0.1677024
 13
14.46396972764618
 23
2.255462586131336
 33
0.1677024
  0
SOLID
  5
5A3E
330
18
100
AcDbEntity
  8
BORDER
100
AcDbTrace
 10
14.71300909850256
 20
2.255462586131336
 30
0.1677024
 11
14.71300909850256
 21
2.517497586131336
 31
0.1677024
 12
14.76653889437084
 22
2.255462586131336
 32
0.1677024
 13
14.76653889437084
 23
2.511788449336835
 33
0.1677024
  0
LINE
  5
5A3F
330
18
100
AcDbEntity
  8
BORDER
100
AcDbLine
 10
14.92646150264618
 20
2.255462586131337
 30
0.1677024
 11
15.11250635264619
 21
2.255462586131337
 31
0.1677024
  0
LINE
  5
5A40
330
18
100
AcDbEntity
  8
BORDER
100
AcDbLine
 10
15.10997771489618
 20
2.300008536131336
 30
0.1677024
 11
14.98148885264618
 21
2.300008536131336
 31
0.1677024
  0
SOLID
  5
5A41
330
18
100
AcDbEntity
  8
BORDER
100
AcDbTrace
 10
14.11415300264619
 20
2.255462586131337
 30
0.1677024
 11
14.16656000264618
 21
2.255462586131337
 31
0.1677024
 12
14.11415300264619
 22
2.474261811131337
 32
0.1677024
 13
14.16656000264618
 23
2.474261811131337
 33
0.1677024
  0
SOLID
  5
5A42
330
18
100
AcDbEntity
  8
BORDER
100
AcDbTrace
 10
14.41156272764618
 20
2.415303936131336
 30
0.1677024
 11
14.30281820264618
 21
2.415303936131336
 31
0.1677024
 12
14.41156272764618
 22
2.370757986131337
 32
0.1677024
 13
14.30281820264618
 23
2.370757986131337
 33
0.1677024
  0
POLYLINE
  5
5A43
330
18
100
AcDbEntity
  8
BORDER
100
AcDb2dPolyline
 66
     1
 10
0.0
 20
0.0
 30
0.1677024
 40
0.0104814
 41
0.0104814
  0
VERTEX
  5
64F4
330
5A43
100
AcDbEntity
  8
BORDER
100
AcDbVertex
100
AcDb2dVertex
 10
14.70285880008668
 20
2.344482536601264
 30
0.1677024
 42
0.1406948172011772
  0
VERTEX
  5
64F5
330
5A43
100
AcDbEntity
  8
BORDER
100
AcDbVertex
100
AcDb2dVertex
 10
14.70090750849396
 20
2.436925369059132
 30
0.1677024
 42
0.1406948172011772
  0
SEQEND
  5
64F6
330
5A43
100
AcDbEntity
  8
BORDER
  0
SOLID
  5
5A44
330
18
100
AcDbEntity
  8
BORDER
100
AcDbTrace
 10
14.70991154253787
 20
2.397097567109597
 30
0.1677024
 11
14.66432550001913
 21
2.401512057894096
 31
0.1677024
 12
14.68785378002881
 22
2.471408161981998
 32
0.1677024
 13
14.64888506626278
 23
2.453014450379919
 33
0.1677024
  0
POLYLINE
  5
5A45
330
18
100
AcDbEntity
  8
BORDER
100
AcDb2dPolyline
 66
     1
 10
0.0
 20
0.0
 30
0.1677024
 40
0.0104814
 41
0.0104814
  0
VERTEX
  5
64F7
330
5A45
100
AcDbEntity
  8
BORDER
100
AcDbVertex
100
AcDb2dVertex
 10
14.47546412469451
 20
2.435594318890266
 30
0.1677024
 42
0.1430540650207981
  0
VERTEX
  5
64F8
330
5A45
100
AcDbEntity
  8
BORDER
100
AcDbVertex
100
AcDb2dVertex
 10
14.47502729388522
 20
2.342083503530088
 30
0.1677024
 42
0.1430540650207981
  0
SEQEND
  5
64F9
330
5A45
100
AcDbEntity
  8
BORDER
  0
SOLID
  5
5A46
330
18
100
AcDbEntity
  8
BORDER
100
AcDbTrace
 10
14.48247328488984
 20
2.458571357870467
 30
0.1677024
 11
14.52010783823258
 21
2.431988097000902
 31
0.1677024
 12
14.46727615493814
 22
2.38606134014835
 32
0.1677024
 13
14.50992116245567
 23
2.382382597827934
 33
0.1677024
  0
SOLID
  5
5A47
330
18
100
AcDbEntity
  8
BORDER
100
AcDbTrace
 10
14.588593848738
 20
2.254362365077462
 30
0.1677024
 11
14.588593848738
 21
2.287471045961204
 31
0.1677024
 12
14.65697291251611
 22
2.277906315928123
 32
0.1677024
 13
14.63859144375855
 23
2.302921763706951
 33
0.1677024
  0
SOLID
  5
5A48
330
18
100
AcDbEntity
  8
BORDER
100
AcDbTrace
 10
14.486392882446
 20
2.311014996811866
 30
0.1677024
 11
14.52389107871141
 21
2.324994217629446
 31
0.1677024
 12
14.54153728871866
 22
2.263191346646459
 32
0.1677024
 13
14.56065401622652
 23
2.290414039817536
 33
0.1677024
  0
SOLID
  5
5A49
330
18
100
AcDbEntity
  8
BORDER
100
AcDbTrace
 10
14.54153728871866
 20
2.263191346646459
 30
0.1677024
 11
14.56065401622652
 21
2.290414039817536
 31
0.1677024
 12
14.588593848738
 22
2.254362365077462
 32
0.1677024
 13
14.588593848738
 23
2.287471045961204
 33
0.1677024
  0
POLYLINE
  5
5A4A
330
18
100
AcDbEntity
  8
BORDER
100
AcDb2dPolyline
 66
     1
 10
0.0
 20
0.0
 30
0.1677024
 40
0.0104814
 41
0.0104814
  0
VERTEX
  5
64FA
330
5A4A
100
AcDbEntity
  8
BORDER
100
AcDbVertex
100
AcDb2dVertex
 10
14.47502729388522
 20
2.342083503530088
 30
0.1677024
 42
0.7616390336395551
  0
VERTEX
  5
64FB
330
5A4A
100
AcDbEntity
  8
BORDER
100
AcDbVertex
100
AcDb2dVertex
 10
14.70285880008668
 20
2.344482536601264
 30
0.1677024
 42
0.7616390336395551
  0
SEQEND
  5
64FC
330
5A4A
100
AcDbEntity
  8
BORDER
  0
SOLID
  5
5A4B
330
18
100
AcDbEntity
  8
BORDER
100
AcDbTrace
 10
14.46727615493814
 20
2.38606134014835
 30
0.1677024
 11
14.50992116245567
 21
2.382382597827934
 31
0.1677024
 12
14.486392882446
 22
2.311014996811866
 32
0.1677024
 13
14.52389107871141
 23
2.324994217629446
 33
0.1677024
  0
SOLID
  5
5A4C
330
18
100
AcDbEntity
  8
BORDER
100
AcDbTrace
 10
14.65697291251611
 20
2.277906315928123
 30
0.1677024
 11
14.63859144375855
 21
2.302921763706951
 31
0.1677024
 12
14.69373585003122
 22
2.319108229916781
 32
0.1677024
 13
14.66285498251853
 23
2.351481162336441
 33
0.1677024
  0
SOLID
  5
5A4D
330
18
100
AcDbEntity
  8
BORDER
100
AcDbTrace
 10
14.69373585003122
 20
2.319108229916781
 30
0.1677024
 11
14.66285498251853
 21
2.351481162336441
 31
0.1677024
 12
14.70991154253787
 22
2.397097567109597
 32
0.1677024
 13
14.66432550001913
 23
2.401512057894096
 33
0.1677024
  0
SOLID
  5
5A4E
330
18
100
AcDbEntity
  8
BORDER
100
AcDbTrace
 10
14.87932225026575
 20
2.439729495642663
 30
0.1677024
 11
14.92001092702407
 21
2.426700446952215
 31
0.1677024
 12
14.87389709336464
 22
2.461444576793407
 32
0.1677024
 13
14.91458577012296
 23
2.482616780915384
 33
0.1677024
  0
SOLID
  5
5A4F
330
18
100
AcDbEntity
  8
BORDER
100
AcDbTrace
 10
14.76653889437084
 20
2.399686278919876
 30
0.1677024
 11
14.76653889437084
 21
2.36018581116814
 31
0.1677024
 12
14.83350507409793
 22
2.399686278919876
 32
0.1677024
 13
14.81757654080889
 23
2.36018581116814
 33
0.1677024
  0
SOLID
  5
5A50
330
18
100
AcDbEntity
  8
BORDER
100
AcDbTrace
 10
14.84044033948886
 20
2.362151702374647
 30
0.1677024
 11
14.86614691446446
 21
2.380355417375364
 31
0.1677024
 12
14.81757654080889
 22
2.36018581116814
 32
0.1677024
 13
14.83350507409793
 23
2.399686278919876
 33
0.1677024
  0
SOLID
  5
5A51
330
18
100
AcDbEntity
  8
BORDER
100
AcDbTrace
 10
14.85465917894023
 20
2.348000403239088
 30
0.1677024
 11
14.88300006167914
 21
2.367852234524531
 31
0.1677024
 12
14.84044033948886
 22
2.362151702374647
 32
0.1677024
 13
14.86614691446446
 23
2.380355417375364
 33
0.1677024
  0
SOLID
  5
5A52
330
18
100
AcDbEntity
  8
BORDER
100
AcDbTrace
 10
14.86105881997068
 20
2.398760312599209
 30
0.1677024
 11
14.8810844778046
 21
2.389424156424391
 31
0.1677024
 12
14.87932225026575
 22
2.439729495642663
 32
0.1677024
 13
14.92001092702407
 23
2.426700446952215
 33
0.1677024
  0
SOLID
  5
5A53
330
18
100
AcDbEntity
  8
BORDER
100
AcDbTrace
 10
14.86105881997068
 20
2.398760312599209
 30
0.1677024
 11
14.8810844778046
 21
2.389424156424391
 31
0.1677024
 12
14.83350507409793
 22
2.399686278919876
 32
0.1677024
 13
14.86614691446446
 23
2.380355417375364
 33
0.1677024
  0
POLYLINE
  5
5A54
330
18
100
AcDbEntity
  8
BORDER
100
AcDb2dPolyline
 66
     1
 10
0.0
 20
0.0
 30
0.1677024
 40
0.0104814
 41
0.0104814
  0
VERTEX
  5
64FD
330
5A54
100
AcDbEntity
  8
BORDER
100
AcDbVertex
100
AcDb2dVertex
 10
14.91597124086369
 20
2.272311824583561
 30
0.1677024
 42
0.0950669764493849
  0
VERTEX
  5
64FE
330
5A54
100
AcDbEntity
  8
BORDER
100
AcDbVertex
100
AcDb2dVertex
 10
14.92015690490229
 20
2.258170794898105
 30
0.1677024
 42
0.1404915454274296
  0
SEQEND
  5
64FF
330
5A54
100
AcDbEntity
  8
BORDER
  0
SOLID
  5
5A55
330
18
100
AcDbEntity
  8
BORDER
100
AcDbTrace
 10
14.87404461873062
 20
2.255462586131336
 30
0.1677024
 11
14.92806883275265
 21
2.255462586131336
 31
0.1677024
 12
14.87156956928777
 22
2.26274883580767
 32
0.1677024
 13
14.92017509034986
 23
2.267857647445038
 33
0.1677024
  0
POLYLINE
  5
5A56
330
18
100
AcDbEntity
  8
BORDER
100
AcDb2dPolyline
 66
     1
 10
0.0
 20
0.0
 30
0.1677024
 40
0.0104814
 41
0.0104814
  0
VERTEX
  5
6500
330
5A56
100
AcDbEntity
  8
BORDER
100
AcDbVertex
100
AcDb2dVertex
 10
14.87491980210343
 20
2.269287899109138
 30
0.1677024
 42
0.1148360225250129
  0
VERTEX
  5
6501
330
5A56
100
AcDbEntity
  8
BORDER
100
AcDbVertex
100
AcDb2dVertex
 10
14.87853203930082
 20
2.258169612750358
 30
0.1677024
 42
0.1148360225250129
  0
SEQEND
  5
6502
330
5A56
100
AcDbEntity
  8
BORDER
  0
SOLID
  5
5A57
330
18
100
AcDbEntity
  8
BORDER
100
AcDbTrace
 10
14.86565356538485
 20
2.316051533604086
 30
0.1677024
 11
14.86969822948603
 21
2.268840555962012
 31
0.1677024
 12
14.91544284242362
 22
2.331120750135454
 32
0.1677024
 13
14.92118668553889
 23
2.272825705240911
 33
0.1677024
  0
SOLID
  5
5A58
330
18
100
AcDbEntity
  8
BORDER
100
AcDbTrace
 10
14.87156956928777
 20
2.26274883580767
 30
0.1677024
 11
14.92017509034986
 21
2.267857647445038
 31
0.1677024
 12
14.86969822948603
 22
2.268840555962012
 32
0.1677024
 13
14.92118668553889
 23
2.272825705240911
 33
0.1677024
  0
POLYLINE
  5
5A59
330
18
100
AcDbEntity
  8
BORDER
100
AcDb2dPolyline
 66
     1
 10
0.0
 20
0.0
 30
0.1677024
 40
0.0104814
 41
0.0104814
  0
VERTEX
  5
6503
330
5A59
100
AcDbEntity
  8
BORDER
100
AcDbVertex
100
AcDb2dVertex
 10
14.91022739774843
 20
2.330606869478105
 30
0.1677024
 42
0.3581345567762107
  0
VERTEX
  5
6504
330
5A59
100
AcDbEntity
  8
BORDER
100
AcDbVertex
100
AcDb2dVertex
 10
14.86563951953554
 20
2.375139337729105
 30
0.1677024
 42
0.3581345567762107
  0
SEQEND
  5
6505
330
5A59
100
AcDbEntity
  8
BORDER
  0
POLYLINE
  5
5A5A
330
18
100
AcDbEntity
  8
BORDER
100
AcDb2dPolyline
 66
     1
 10
0.0
 20
0.0
 30
0.1677024
 40
0.0104814
 41
0.0104814
  0
VERTEX
  5
6506
330
5A5A
100
AcDbEntity
  8
BORDER
100
AcDbVertex
100
AcDb2dVertex
 10
14.87087513800224
 20
2.316498876751212
 30
0.1677024
 42
0.3893977487990803
  0
VERTEX
  5
6507
330
5A5A
100
AcDbEntity
  8
BORDER
100
AcDbVertex
100
AcDb2dVertex
 10
14.81757654080889
 20
2.36542651116814
 30
0.1677024
 42
0.3893977487990803
  0
SEQEND
  5
6508
330
5A5A
100
AcDbEntity
  8
BORDER
  0
SOLID
  5
5A5B
330
18
100
AcDbEntity
  8
BORDER
100
AcDbTrace
 10
14.86565356538485
 20
2.316051533604086
 30
0.1677024
 11
14.91544284242362
 21
2.331120750135454
 31
0.1677024
 12
14.86670405410427
 22
2.331693541826044
 32
0.1677024
 13
14.90921537821265
 23
2.346582415290127
 33
0.1677024
  0
SOLID
  5
5A5C
330
18
100
AcDbEntity
  8
BORDER
100
AcDbTrace
 10
14.86670405410427
 20
2.331693541826044
 30
0.1677024
 11
14.90921537821265
 21
2.346582415290127
 31
0.1677024
 12
14.85465917894023
 22
2.348000403239088
 32
0.1677024
 13
14.88300006167914
 23
2.367852234524531
 33
0.1677024
  0
POLYLINE
  5
5A5D
330
18
100
AcDbEntity
  8
BORDER
100
AcDb2dPolyline
 66
     1
 10
0.0
 20
0.0
 30
0.1677024
  0
VERTEX
  5
6509
330
5A5D
100
AcDbEntity
  8
BORDER
100
AcDbVertex
100
AcDb2dVertex
 10
15.61870560631762
 20
2.419866265182064
 30
0.1677024
 42
0.0019568917075044
  0
VERTEX
  5
650A
330
5A5D
100
AcDbEntity
  8
BORDER
100
AcDbVertex
100
AcDb2dVertex
 10
15.69374351293166
 20
2.404578858603103
 30
0.1677024
 42
-0.2136964031287707
  0
VERTEX
  5
650B
330
5A5D
100
AcDbEntity
  8
BORDER
100
AcDbVertex
100
AcDb2dVertex
 10
15.74477850139025
 20
2.368908269974074
 30
0.1677024
 42
-0.2075585583027768
  0
VERTEX
  5
650C
330
5A5D
100
AcDbEntity
  8
BORDER
100
AcDbVertex
100
AcDb2dVertex
 10
15.75183595513862
 20
2.315099842159789
 30
0.1677024
 42
-0.2311984101377718
  0
VERTEX
  5
650D
330
5A5D
100
AcDbEntity
  8
BORDER
100
AcDbVertex
100
AcDb2dVertex
 10
15.70219527232426
 20
2.259997681822924
 30
0.1677024
 42
-0.176335766587305
  0
VERTEX
  5
650E
330
5A5D
100
AcDbEntity
  8
BORDER
100
AcDbVertex
100
AcDb2dVertex
 10
15.59857960989478
 20
2.256473672392217
 30
0.1677024
 42
-0.2115906095274752
  0
VERTEX
  5
650F
330
5A5D
100
AcDbEntity
  8
BORDER
100
AcDbVertex
100
AcDb2dVertex
 10
15.54348309252508
 20
2.305990850964811
 30
0.1677024
  0
SEQEND
  5
6510
330
5A5D
100
AcDbEntity
  8
BORDER
  0
POLYLINE
  5
5A5E
330
18
100
AcDbEntity
  8
BORDER
100
AcDb2dPolyline
 66
     1
 10
0.0
 20
0.0
 30
0.1677024
  0
VERTEX
  5
6511
330
5A5E
100
AcDbEntity
  8
BORDER
100
AcDbVertex
100
AcDb2dVertex
 10
15.33916662764618
 20
2.255462586131336
 30
0.1677024
  0
VERTEX
  5
6512
330
5A5E
100
AcDbEntity
  8
BORDER
100
AcDbVertex
100
AcDb2dVertex
 10
15.28413927764619
 20
2.255462586131336
 30
0.1677024
  0
VERTEX
  5
6513
330
5A5E
100
AcDbEntity
  8
BORDER
100
AcDbVertex
100
AcDb2dVertex
 10
15.26678376285634
 20
2.311800111131336
 30
0.1677024
  0
SEQEND
  5
6514
330
5A5E
100
AcDbEntity
  8
BORDER
  0
LINE
  5
5A5F
330
18
100
AcDbEntity
  8
BORDER
100
AcDbLine
 10
15.25467526416575
 20
2.351105361131335
 30
0.1677024
 11
15.21666526514619
 21
2.474489155616477
 31
0.1677024
  0
LINE
  5
5A60
330
18
100
AcDbEntity
  8
BORDER
100
AcDbLine
 10
15.17865526612663
 20
2.351105361131335
 30
0.1677024
 11
15.25467526416575
 21
2.351105361131335
 31
0.1677024
  0
LINE
  5
5A61
330
18
100
AcDbEntity
  8
BORDER
100
AcDbLine
 10
15.21666526514619
 20
2.474489155616477
 30
0.1677024
 11
15.17865526612663
 21
2.351105361131335
 31
0.1677024
  0
POLYLINE
  5
5A62
330
18
100
AcDbEntity
  8
BORDER
100
AcDb2dPolyline
 66
     1
 10
0.0
 20
0.0
 30
0.1677024
  0
VERTEX
  5
6515
330
5A62
100
AcDbEntity
  8
BORDER
100
AcDbVertex
100
AcDb2dVertex
 10
15.26678376285634
 20
2.311800111131336
 30
0.1677024
  0
VERTEX
  5
6516
330
5A62
100
AcDbEntity
  8
BORDER
100
AcDbVertex
100
AcDb2dVertex
 10
15.16654676743603
 20
2.311800111131336
 30
0.1677024
  0
VERTEX
  5
6517
330
5A62
100
AcDbEntity
  8
BORDER
100
AcDbVertex
100
AcDb2dVertex
 10
15.14919125264619
 20
2.255462586131336
 30
0.1677024
  0
VERTEX
  5
6518
330
5A62
100
AcDbEntity
  8
BORDER
100
AcDbVertex
100
AcDb2dVertex
 10
15.09416390264618
 20
2.255462586131336
 30
0.1677024
  0
SEQEND
  5
6519
330
5A62
100
AcDbEntity
  8
BORDER
  0
ARC
  5
5A63
330
18
100
AcDbEntity
  8
BORDER
100
AcDbCircle
 10
15.45983494093842
 20
2.309403825740498
 30
0.1677024
 40
0.0940653841802545
100
AcDbArc
 50
41.8214311105379
 51
67.21116987831337
  0
ARC
  5
5A64
330
18
100
AcDbEntity
  8
BORDER
100
AcDbCircle
 10
15.45050332683973
 20
2.492604261131342
 30
0.1677024
 40
0.1067827813404871
100
AcDbArc
 50
295.3783953421117
 51
313.157562911559
  0
ARC
  5
5A65
330
18
100
AcDbEntity
  8
BORDER
100
AcDbCircle
 10
15.48933036743682
 20
2.451196244748515
 30
0.1677024
 40
0.050018682631104
100
AcDbArc
 50
313.1575629115595
 51
358.653260821401
  0
ARC
  5
5A66
330
18
100
AcDbEntity
  8
BORDER
100
AcDbCircle
 10
15.47999330792207
 20
2.327441058348393
 30
0.1677024
 40
0.0670154023022719
100
AcDbArc
 50
5.797666812800194
 51
41.82143111053831
  0
LINE
  5
5A67
330
18
100
AcDbEntity
  8
BORDER
100
AcDbLine
 10
15.38499457683974
 20
2.478192336131336
 30
0.1677024
 11
15.38499457683974
 21
2.412683586131335
 31
0.1677024
  0
LINE
  5
5A68
330
18
100
AcDbEntity
  8
BORDER
100
AcDbLine
 10
15.45463958881493
 20
2.372068161131337
 30
0.1677024
 11
15.38499457683974
 21
2.372068161131337
 31
0.1677024
  0
ARC
  5
5A69
330
18
100
AcDbEntity
  8
BORDER
100
AcDbCircle
 10
15.45125395215111
 20
2.445437961131336
 30
0.1677024
 40
0.032754375
100
AcDbArc
 50
270.0
 51
90.00000482967505
  0
LINE
  5
5A6A
330
18
100
AcDbEntity
  8
BORDER
100
AcDbLine
 10
15.38499457683974
 20
2.412683586131335
 30
0.1677024
 11
15.45125395215111
 21
2.412683586131335
 31
0.1677024
  0
LINE
  5
5A6B
330
18
100
AcDbEntity
  8
BORDER
100
AcDbLine
 10
15.45125394939012
 20
2.478192336131336
 30
0.1677024
 11
15.38499457683974
 21
2.478192336131336
 31
0.1677024
  0
ARC
  5
5A6C
330
18
100
AcDbEntity
  8
BORDER
100
AcDbCircle
 10
15.44788297683973
 20
2.342599732319962
 30
0.1677024
 40
0.0465217211886261
100
AcDbArc
 50
270.0
 51
313.2275081247473
  0
ARC
  5
5A6D
330
18
100
AcDbEntity
  8
BORDER
100
AcDbCircle
 10
15.45967455183974
 20
2.366551910343223
 30
0.1677024
 40
0.1110893242118861
100
AcDbArc
 50
269.9999999999952
 51
297.4526478761186
  0
ARC
  5
5A6E
330
18
100
AcDbEntity
  8
BORDER
100
AcDbCircle
 10
15.47999330792207
 20
2.327441058348393
 30
0.1677024
 40
0.0670154023022719
100
AcDbArc
 50
297.4526478761237
 51
341.3323115150402
  0
LINE
  5
5A6F
330
18
100
AcDbEntity
  8
BORDER
100
AcDbLine
 10
15.38499457683974
 20
2.296078011131337
 30
0.1677024
 11
15.44788297683973
 21
2.296078011131337
 31
0.1677024
  0
LINE
  5
5A70
330
18
100
AcDbEntity
  8
BORDER
100
AcDbLine
 10
15.33258757683973
 20
2.255462586131337
 30
0.1677024
 11
15.45967455183973
 21
2.255462586131337
 31
0.1677024
  0
ARC
  5
5A71
330
18
100
AcDbEntity
  8
BORDER
100
AcDbCircle
 10
15.45463958881493
 20
2.335411590285651
 30
0.1677024
 40
0.0366565708456863
100
AcDbArc
 50
313.2275081247476
 51
90.0
  0
LINE
  5
5A72
330
18
100
AcDbEntity
  8
BORDER
100
AcDbLine
 10
15.38499457683974
 20
2.372068161131337
 30
0.1677024
 11
15.38499457683974
 21
2.296078011131337
 31
0.1677024
  0
SOLID
  5
5A73
330
18
100
AcDbEntity
  8
BORDER
100
AcDbTrace
 10
15.79353454971941
 20
2.401034400922116
 30
0.1677024
 11
15.91679581371941
 21
2.401034400922116
 31
0.1677024
 12
15.79353454971941
 22
2.375149535482116
 32
0.1677024
 13
15.91679581371941
 23
2.375149535482116
 33
0.1677024
  0
POLYLINE
  5
5A74
330
18
100
AcDbEntity
  8
BORDER
100
AcDb2dPolyline
 66
     1
 10
0.0
 20
0.0
 30
0.1677024
 40
0.00493045056
 41
0.00493045056
  0
VERTEX
  5
651A
330
5A74
100
AcDbEntity
  8
BORDER
100
AcDbVertex
100
AcDb2dVertex
 10
15.82837010359392
 20
2.420374273631635
 30
0.1677024
 42
0.2706611322925477
  0
VERTEX
  5
651B
330
5A74
100
AcDbEntity
  8
BORDER
100
AcDbVertex
100
AcDb2dVertex
 10
15.89837348150257
 20
2.431283286226639
 30
0.1677024
 42
0.2706611322925477
  0
SEQEND
  5
651C
330
5A74
100
AcDbEntity
  8
BORDER
  0
SOLID
  5
5A75
330
18
100
AcDbEntity
  8
BORDER
100
AcDbTrace
 10
15.85883331064154
 20
2.435671598797031
 30
0.1677024
 11
15.86018872233142
 21
2.414676701103957
 31
0.1677024
 12
15.89161641999545
 22
2.446098045127957
 32
0.1677024
 13
15.90085107302768
 23
2.430883480436575
 33
0.1677024
  0
SOLID
  5
5A76
330
18
100
AcDbEntity
  8
BORDER
100
AcDbTrace
 10
15.79353455745089
 20
2.248806741057628
 30
0.1677024
 11
15.79353455745089
 21
2.274691606497628
 31
0.1677024
 12
15.91679582145089
 22
2.248806741057628
 32
0.1677024
 13
15.91679582145089
 23
2.274691606497628
 33
0.1677024
  0
SOLID
  5
5A77
330
18
100
AcDbEntity
  8
BORDER
100
AcDbTrace
 10
15.91679581371941
 20
2.296262326522116
 30
0.1677024
 11
15.79353454971941
 21
2.296262326522116
 31
0.1677024
 12
15.91679581371941
 22
2.322147191962116
 32
0.1677024
 13
15.79353454971941
 23
2.322147191962116
 33
0.1677024
  0
SOLID
  5
5A78
330
18
100
AcDbEntity
  8
BORDER
100
AcDbTrace
 10
15.79353454971941
 20
2.322763498282116
 30
0.1677024
 11
15.91679312807597
 21
2.400370751321433
 31
0.1677024
 12
15.79354373506936
 22
2.298062498281336
 32
0.1677024
 13
15.91679581371941
 23
2.374533229162116
 33
0.1677024
  0
SOLID
  5
5A79
330
18
100
AcDbEntity
  8
BORDER
100
AcDbTrace
 10
15.81003848980603
 20
2.456440744902008
 30
0.1677024
 11
15.7951289612174
 21
2.450345452023373
 31
0.1677024
 12
15.83353229243054
 22
2.43770336308991
 32
0.1677024
 13
15.82088178332503
 23
2.422578006687372
 33
0.1677024
  0
SOLID
  5
5A7A
330
18
100
AcDbEntity
  8
BORDER
100
AcDbTrace
 10
15.83353229243054
 20
2.43770336308991
 30
0.1677024
 11
15.82088178332503
 21
2.422578006687372
 31
0.1677024
 12
15.85883331064154
 22
2.435671598797031
 32
0.1677024
 13
15.86018872233142
 23
2.414676701103957
 33
0.1677024
  0
POLYLINE
  5
5A7B
330
18
100
AcDbEntity
  8
BORDER
100
AcDb2dPolyline
 66
     1
 10
0.0
 20
0.0
 30
0.1677024
 40
0.00493045056
 41
0.00493045056
  0
VERTEX
  5
651D
330
5A7B
100
AcDbEntity
  8
BORDER
100
AcDbVertex
100
AcDb2dVertex
 10
15.89837348150257
 20
2.431283286226639
 30
0.1677024
 42
0.1790006504245718
  0
VERTEX
  5
651E
330
5A7B
100
AcDbEntity
  8
BORDER
100
AcDbVertex
100
AcDb2dVertex
 10
15.91654691965104
 20
2.462067105502534
 30
0.1677024
 42
0.1790006504245718
  0
SEQEND
  5
651F
330
5A7B
100
AcDbEntity
  8
BORDER
  0
SOLID
  5
5A7C
330
18
100
AcDbEntity
  8
BORDER
100
AcDbTrace
 10
15.89161641999545
 20
2.446098045127957
 30
0.1677024
 11
15.90085107302768
 21
2.430883480436575
 31
0.1677024
 12
15.90234858433021
 22
2.470291697178187
 32
0.1677024
 13
15.91832203822379
 23
2.462310286192544
 33
0.1677024
  0
POLYLINE
  5
5A7D
330
18
100
AcDbEntity
  8
BORDER
100
AcDb2dPolyline
 66
     1
 10
0.0
 20
0.0
 30
0.1677024
 40
0.0104814
 41
0.0104814
  0
VERTEX
  5
6520
330
5A7D
100
AcDbEntity
  8
BORDER
100
AcDbVertex
100
AcDb2dVertex
 10
14.85764617023569
 20
2.512256886131337
 30
0.1677024
  0
VERTEX
  5
6521
330
5A7D
100
AcDbEntity
  8
BORDER
100
AcDbVertex
100
AcDb2dVertex
 10
14.71300909850256
 20
2.512256886131337
 30
0.1677024
  0
SEQEND
  5
6522
330
5A7D
100
AcDbEntity
  8
BORDER
  0
LINE
  5
5A7E
330
18
100
AcDbEntity
  8
BORDER
100
AcDbLine
 10
14.98148885264618
 20
2.517497586131336
 30
0.1677024
 11
14.92646150264618
 21
2.517497586131336
 31
0.1677024
  0
ARC
  5
5A7F
330
18
100
AcDbEntity
  8
BORDER
100
AcDbCircle
 10
15.45501087082988
 20
2.409742329861524
 30
0.1677024
 40
0.1077552562698128
100
AcDbArc
 50
58.67020583628413
 51
90.00000000000101
  0
LINE
  5
5A80
330
18
100
AcDbEntity
  8
BORDER
100
AcDbLine
 10
15.45501087082988
 20
2.517497586131336
 30
0.1677024
 11
15.33258757683973
 21
2.517497586131336
 31
0.1677024
  0
SOLID
  5
5A81
330
18
100
AcDbEntity
  8
BORDER
100
AcDbTrace
 10
15.89585936868593
 20
2.491741739202103
 30
0.1677024
 11
15.91108406692825
 21
2.501967922027458
 31
0.1677024
 12
15.8803806759669
 22
2.500859243207885
 32
0.1677024
 13
15.88300191480824
 23
2.523495035158064
 33
0.1677024
  0
POLYLINE
  5
5A82
330
18
100
AcDbEntity
  8
BORDER
100
AcDb2dPolyline
 66
     1
 10
0.0
 20
0.0
 30
0.1677024
 40
0.00493045056
 41
0.00493045056
  0
VERTEX
  5
6523
330
5A82
100
AcDbEntity
  8
BORDER
100
AcDbVertex
100
AcDb2dVertex
 10
15.91225178861954
 20
2.496806460126451
 30
0.1677024
 42
0.2619660936757589
  0
VERTEX
  5
6524
330
5A82
100
AcDbEntity
  8
BORDER
100
AcDbVertex
100
AcDb2dVertex
 10
15.8773345572074
 20
2.522442069484772
 30
0.1677024
 42
0.2656465770789468
  0
SEQEND
  5
6525
330
5A82
100
AcDbEntity
  8
BORDER
  0
SOLID
  5
5A83
330
18
100
AcDbEntity
  8
BORDER
100
AcDbTrace
 10
15.8803806759669
 20
2.500859243207885
 30
0.1677024
 11
15.88300191480824
 21
2.523495035158064
 31
0.1677024
 12
15.8769940412474
 22
2.500030566978762
 32
0.1677024
 13
15.8769940412474
 23
2.524962330760263
 33
0.1677024
  0
POLYLINE
  5
5A84
330
18
100
AcDbEntity
  8
BORDER
100
AcDb2dPolyline
 66
     1
 10
0.0
 20
0.0
 30
0.1677024
 40
0.00493045056
 41
0.00493045056
  0
VERTEX
  5
6526
330
5A84
100
AcDbEntity
  8
BORDER
100
AcDbVertex
100
AcDb2dVertex
 10
15.83104605364547
 20
2.520459868369472
 30
0.1677024
 42
0.2841209316902218
  0
VERTEX
  5
6527
330
5A84
100
AcDbEntity
  8
BORDER
100
AcDbVertex
100
AcDb2dVertex
 10
15.79543783155204
 20
2.490673265252777
 30
0.1677024
 42
0.2888447634665965
  0
SEQEND
  5
6528
330
5A84
100
AcDbEntity
  8
BORDER
  0
SOLID
  5
5A85
330
18
100
AcDbEntity
  8
BORDER
100
AcDbTrace
 10
15.82291490085985
 20
2.499107795052449
 30
0.1677024
 11
15.81049029370266
 21
2.512652890338303
 31
0.1677024
 12
15.82811793283066
 22
2.500440457653153
 32
0.1677024
 13
15.8265147577136
 23
2.52177762388302
 33
0.1677024
  0
SOLID
  5
5A86
330
18
100
AcDbEntity
  8
BORDER
100
AcDbTrace
 10
15.82811793283066
 20
2.500440457653153
 30
0.1677024
 11
15.8265147577136
 21
2.52177762388302
 31
0.1677024
 12
15.83150143558184
 22
2.498894752717687
 32
0.1677024
 13
15.83150143558184
 23
2.523008868646434
 33
0.1677024
  0
LINE
  5
611D
330
18
100
AcDbEntity
  8
S1
 62
    41
100
AcDbLine
 10
5.293984802416391
 20
5.141321701287594
 30
-0.0001001619513813
 11
5.916955392050413
 21
4.098594321987249
 31
0.0008901906311005
  0
LINE
  5
611E
330
18
100
AcDbEntity
  8
S1
 62
    41
100
AcDbLine
 10
5.293984802416391
 20
5.141321701287594
 30
-0.0001001619513813
 11
5.916955392050413
 21
4.098594321987249
 31
0.0008901906311005
  0
LINE
  5
611F
330
18
100
AcDbEntity
  8
S1
 62
    41
100
AcDbLine
 10
5.293984802416391
 20
5.141321701287594
 30
-0.0001001619513948
 11
5.916955392050413
 21
4.098594321987249
 31
0.0008901906310977
  0
LINE
  5
6120
330
18
100
AcDbEntity
  8
S1
 62
    41
100
AcDbLine
 10
5.293984802416391
 20
5.141321701287594
 30
-0.0001001619513948
 11
5.916955392050413
 21
4.098594321987249
 31
0.0008901906310977
  0
LINE
  5
6121
330
18
100
AcDbEntity
  8
S1
 62
    41
100
AcDbLine
 10
5.293984802416391
 20
5.141321701287594
 30
-0.0001001619513813
 11
5.916955392050413
 21
4.098594321987249
 31
0.0008901906311005
  0
LINE
  5
6122
330
18
100
AcDbEntity
  8
S1
 62
    41
100
AcDbLine
 10
5.293984802416391
 20
5.141321701287594
 30
-0.0001001619513813
 11
5.916955392050413
 21
4.098594321987249
 31
0.0008901906311005
  0
LINE
  5
6123
330
18
100
AcDbEntity
  8
S1
 62
    41
100
AcDbLine
 10
5.293984802416391
 20
5.141321701287594
 30
-0.0001001619513948
 11
5.916955392050413
 21
4.098594321987249
 31
0.0008901906310977
  0
LINE
  5
6124
330
18
100
AcDbEntity
  8
S1
 62
    41
100
AcDbLine
 10
5.293984802416391
 20
5.141321701287594
 30
-0.0001001619513948
 11
5.916955392050413
 21
4.098594321987249
 31
0.0008901906310977
  0
LINE
  5
6125
330
18
100
AcDbEntity
  8
S1
 62
    41
100
AcDbLine
 10
5.293984802416391
 20
5.141321701287594
 30
-0.0001001619513813
 11
5.916955392050413
 21
4.098594321987249
 31
0.0008901906311005
  0
LINE
  5
6126
330
18
100
AcDbEntity
  8
S1
 62
    41
100
AcDbLine
 10
5.293984802416391
 20
5.141321701287594
 30
-0.0001001619513813
 11
5.916955392050413
 21
4.098594321987249
 31
0.0008901906311005
  0
LINE
  5
6127
330
18
100
AcDbEntity
  8
S1
 62
    41
100
AcDbLine
 10
5.293984802416391
 20
5.141321701287594
 30
-0.0001001619513948
 11
5.916955392050413
 21
4.098594321987249
 31
0.0008901906310977
  0
LINE
  5
6128
330
18
100
AcDbEntity
  8
S1
 62
    41
100
AcDbLine
 10
5.293984802416391
 20
5.141321701287594
 30
-0.0001001619513948
 11
5.916955392050413
 21
4.098594321987249
 31
0.0008901906310977
  0
LINE
  5
6129
330
18
100
AcDbEntity
  8
S1
 62
    41
100
AcDbLine
 10
5.293984802416391
 20
5.141321701287594
 30
-0.0001001619513813
 11
5.916955392050413
 21
4.098594321987249
 31
0.0008901906311005
  0
LINE
  5
612A
330
18
100
AcDbEntity
  8
S1
 62
    41
100
AcDbLine
 10
5.293984802416391
 20
5.141321701287594
 30
-0.0001001619513813
 11
5.916955392050413
 21
4.098594321987249
 31
0.0008901906311005
  0
LINE
  5
612B
330
18
100
AcDbEntity
  8
S1
 62
    41
100
AcDbLine
 10
5.293984802416391
 20
5.141321701287594
 30
-0.0001001619513948
 11
5.916955392050413
 21
4.098594321987249
 31
0.0008901906310977
  0
LINE
  5
612C
330
18
100
AcDbEntity
  8
S1
 62
    41
100
AcDbLine
 10
5.293984802416391
 20
5.141321701287594
 30
-0.0001001619513948
 11
5.916955392050413
 21
4.098594321987249
 31
0.0008901906310977
  0
LINE
  5
612D
330
18
100
AcDbEntity
  8
S1
 62
    41
100
AcDbLine
 10
5.293984802416391
 20
5.141321701287594
 30
-0.0001001619513813
 11
5.916955392050413
 21
4.098594321987249
 31
0.0008901906311005
  0
LINE
  5
612E
330
18
100
AcDbEntity
  8
S1
 62
    41
100
AcDbLine
 10
5.293984802416391
 20
5.141321701287594
 30
-0.0001001619513813
 11
5.916955392050413
 21
4.098594321987249
 31
0.0008901906311005
  0
LINE
  5
612F
330
18
100
AcDbEntity
  8
S1
 62
    41
100
AcDbLine
 10
5.293984802416391
 20
5.141321701287594
 30
-0.0001001619513948
 11
5.916955392050413
 21
4.098594321987249
 31
0.0008901906310977
  0
LINE
  5
6130
330
18
100
AcDbEntity
  8
S1
 62
    41
100
AcDbLine
 10
5.293984802416391
 20
5.141321701287594
 30
-0.0001001619513948
 11
5.916955392050413
 21
4.098594321987249
 31
0.0008901906310977
  0
LINE
  5
6131
330
18
100
AcDbEntity
  8
S1
 62
    41
100
AcDbLine
 10
5.293984802416391
 20
5.141321701287594
 30
-0.0001001619513813
 11
5.916955392050413
 21
4.098594321987249
 31
0.0008901906311005
  0
LINE
  5
6132
330
18
100
AcDbEntity
  8
S1
 62
    41
100
AcDbLine
 10
5.293984802416391
 20
5.141321701287594
 30
-0.0001001619513813
 11
5.916955392050413
 21
4.098594321987249
 31
0.0008901906311005
  0
LINE
  5
6133
330
18
100
AcDbEntity
  8
S1
 62
    41
100
AcDbLine
 10
5.293984802416391
 20
5.141321701287594
 30
-0.0001001619513948
 11
5.916955392050413
 21
4.098594321987249
 31
0.0008901906310977
  0
LINE
  5
6134
330
18
100
AcDbEntity
  8
S1
 62
    41
100
AcDbLine
 10
5.293984802416391
 20
5.141321701287594
 30
-0.0001001619513948
 11
5.916955392050413
 21
4.098594321987249
 31
0.0008901906310977
  0
INSERT
  5
6135
330
18
100
AcDbEntity
  8
SFBODY
100
AcDbBlockReference
  2
BODY-3
 10
4.737066816532365
 20
-0.0275914967074761
 30
4.884286143141022
 41
0.0500096546767819
 42
0.0500096546767832
 43
0.0500096546767801
 50
0.0
210
0.9993908270190956
220
-0.0348994967025015
230
0.0
  0
INSERT
  5
6136
330
18
100
AcDbEntity
  8
RAY_REFLECTIVE
100
AcDbBlockReference
 66
     1
  2
SURF-4
 10
4.737066816532365
 20
-0.0275914967074761
 30
4.884286143141022
 41
0.0500096546767819
 42
0.0500096546767832
 43
0.0500096546767801
 50
0.0
210
0.9993908270190956
220
-0.0348994967025015
230
0.0
  0
ATTRIB
  5
6137
330
6136
100
AcDbEntity
  8
RAY_ATTBYTES
100
AcDbText
 10
5.046632015734681
 20
4.563721995272306
 30
-0.0275914967074755
 40
0.0317561307197573
  1
index^J-1.0
 50
357.9999999999996
 51
0.0000000000000057
100
AcDbAttribute
  2
MATERIAL
 70
     0
  0
ATTRIB
  5
6138
330
6136
100
AcDbEntity
  8
RAY_ATTBYTES
100
AcDbText
 10
5.046632015734681
 20
4.563721995272306
 30
-0.0275914967074755
 40
0.0317561307197573
  1
shape^JSphere^Jradius^J-120.000000000000
 50
357.9999999999996
 51
0.0000000000000057
100
AcDbAttribute
  2
SHAPE
 70
     0
  0
ATTRIB
  5
6139
330
6136
100
AcDbEntity
  8
RAY_ATTBYTES
100
AcDbText
 10
5.046632015734681
 20
4.563721995272306
 30
-0.0275914967074755
 40
0.0317561307197573
  1
thick^J-3.0000
 50
357.9999999999996
 51
0.0000000000000057
100
AcDbAttribute
  2
THICK
 70
     0
  0
ATTRIB
  5
613A
330
6136
100
AcDbEntity
  8
RAY_ATTBYTES
100
AcDbText
 10
5.046632015734681
 20
4.563721995272306
 30
-0.0275914967074755
 40
0.0317561307197573
  1
height^J0.000000000^Jwidth^J20.000000000^Jhole^J0.000000000
 50
357.9999999999996
 51
0.0000000000000057
100
AcDbAttribute
  2
SIZE
 70
     0
  0
ATTRIB
  5
613B
330
6136
100
AcDbEntity
  8
RAY_ATTBYTES
100
AcDbText
 10
5.046632015734681
 20
4.563721995272306
 30
-0.0275914967074755
 40
0.0317561307197573
  1
Type^JMirror
 50
357.9999999999996
 51
0.0000000000000057
100
AcDbAttribute
  2
TYPE
 70
     0
  0
ATTRIB
  5
613C
330
6136
100
AcDbEntity
  8
RAY_ATTBYTES
100
AcDbText
 10
5.046632015734681
 20
4.563721995272306
 30
-0.0275914967074755
 40
0.0317561307197573
  1
None
 50
357.9999999999996
 51
0.0000000000000057
100
AcDbAttribute
  2
MODIFIER
 70
     0
  0
ATTRIB
  5
613D
330
6136
100
AcDbEntity
  8
RAY_ATTBYTES
100
AcDbText
 10
5.046632015734681
 20
4.563721995272306
 30
-0.0275914967074755
 40
0.0317561307197573
  1
None
 50
357.9999999999996
 51
0.0000000000000057
100
AcDbAttribute
  2
OTHER
 70
     0
  0
SEQEND
  5
613E
330
6136
100
AcDbEntity
  8
RAY_REFLECTIVE
  0
INSERT
  5
613F
330
18
100
AcDbEntity
  8
SFBODY
100
AcDbBlockReference
  2
BODY-2
 10
-7.334732962182459
 20
0.0011500794155283
 30
-0.6636402081203605
 41
0.0500096546767854
 42
0.0500096546767831
 43
0.0500096546767826
210
-0.6427876096865396
220
0.7660444431189779
230
0.0
  0
LINE
  5
6140
330
18
100
AcDbEntity
  8
S1
 62
    41
100
AcDbLine
 10
5.470829174623881
 20
3.70103987011398
 30
0.0024003207824346
 11
5.482524710389876
 21
3.800313650702683
 31
-0.001033798367569
210
0.2817325568414297
220
0.0
230
0.9594929736144976
  0
LINE
  5
6141
330
18
100
AcDbEntity
  8
S1
 62
    41
100
AcDbLine
 10
5.47082917462391
 20
3.70103987011398
 30
0.0024003207824479
 11
5.482524710389897
 21
3.800313650702683
 31
-0.0010337983675557
210
-0.2817325568414296
220
0.0
230
-0.9594929736144976
  0
LINE
  5
6142
330
18
100
AcDbEntity
  8
S1
 62
    41
100
AcDbLine
 10
5.470829174623924
 20
3.701039870113426
 30
-0.0001001619513813
 11
5.482524710389919
 21
3.800313650702129
 31
0.0033339571986223
210
-0.2817325568414302
220
0.0
230
0.9594929736144973
  0
LINE
  5
6143
330
18
100
AcDbEntity
  8
S1
 62
    41
100
AcDbLine
 10
5.470829174623903
 20
3.701039870113426
 30
-0.0001001619513946
 11
5.48252471038989
 21
3.800313650702129
 31
0.003333957198609
210
0.2817325568414301
220
0.0
230
-0.9594929736144973
  0
LINE
  5
6144
330
18
100
AcDbEntity
  8
S1
 62
    41
100
AcDbLine
 10
5.472079415990842
 20
3.701039870113426
 30
0.0011500794155383
 11
5.482333697212341
 21
3.800313650702129
 31
-0.0054399469744284
210
-0.5406408174555974
220
0.0
230
-0.8412535328311813
  0
LINE
  5
6145
330
18
100
AcDbEntity
  8
S1
 62
    41
100
AcDbLine
 10
5.469578933257006
 20
3.701039870113426
 30
0.0011500794155383
 11
5.457883397491011
 21
3.800313650702129
 31
-0.0022840397344653
210
-0.2817325568414302
220
0.0
230
0.9594929736144973
  0
LINE
  5
6146
330
18
100
AcDbEntity
  8
S1
 62
    41
100
AcDbLine
 10
5.472079415990821
 20
3.701039870113426
 30
0.001150079415525
 11
5.48233369721232
 21
3.800313650702129
 31
-0.0054399469744418
210
0.5406408174555976
220
0.0
230
0.8412535328311811
  0
LINE
  5
6147
330
18
100
AcDbEntity
  8
S1
 62
    41
100
AcDbLine
 10
5.469578933256977
 20
3.701039870113426
 30
0.001150079415525
 11
5.45788339749099
 21
3.800313650702129
 31
-0.0022840397344786
210
0.2817325568414301
220
0.0
230
-0.9594929736144973
  0
LINE
  5
6148
330
18
100
AcDbEntity
  8
S1
 62
    41
100
AcDbLine
 10
5.47082917462391
 20
3.70103987011398
 30
0.0011500794155283
 11
5.482524710389897
 21
3.800313650702683
 31
-0.0022840397344753
210
0.2817325568414297
220
0.0
230
0.9594929736144976
  0
INSERT
  5
6149
330
18
100
AcDbEntity
  8
SFBODY
100
AcDbBlockReference
  2
BODY-1
 10
6.649814808655786
 20
0.0011500794155283
 30
-3.603000040803411
 41
0.0500096546767854
 42
0.0500096546767831
 43
0.0500096546767841
 50
0.0
210
0.2588190451025207
220
-0.9659258262890682
230
0.0
  0
LINE
  5
614A
330
18
100
AcDbEntity
  8
S1
 62
    50
100
AcDbLine
 10
5.043834453371781
 20
4.257091562286319
 30
0.001613715792564
 11
7.600870702963357
 21
4.807385763626189
 31
-0.0212260078918992
  0
LINE
  5
614B
330
18
100
AcDbEntity
  8
S1
 62
   170
100
AcDbLine
 10
5.066131986890704
 20
4.880174272737917
 30
0.0011500794155239
 11
7.443427294846438
 21
5.559612471270945
 31
-0.0209640967018903
  0
LINE
  5
614C
330
18
100
AcDbEntity
  8
S1
 62
   170
100
AcDbLine
 10
5.066131986890704
 20
4.880174272737917
 30
0.0011500794155238
 11
7.443427294846438
 21
5.559612471270945
 31
-0.0209640967018904
  0
LINE
  5
614D
330
18
100
AcDbEntity
  8
S1
 62
   170
100
AcDbLine
 10
5.066131986890704
 20
4.880174272737917
 30
0.0011500794155298
 11
7.443427294846438
 21
5.559612471270945
 31
-0.0209640967018682
  0
LINE
  5
614E
330
18
100
AcDbEntity
  8
S1
 62
   170
100
AcDbLine
 10
5.066131986890704
 20
4.880174272737917
 30
0.00115007941553
 11
7.443427294846438
 21
5.559612471270945
 31
-0.0209640967018682
  0
LINE
  5
614F
330
18
100
AcDbEntity
  8
S1
 62
   130
100
AcDbLine
 10
5.045599727130872
 20
4.529280807608074
 30
0.0016826878842792
 11
7.446206485466833
 21
5.54633416743275
 31
-0.0193136778384745
  0
LINE
  5
6150
330
18
100
AcDbEntity
  8
S1
 62
   130
100
AcDbLine
 10
5.045599727130872
 20
4.529280807608074
 30
0.0016826878842792
 11
7.446206485466833
 21
5.54633416743275
 31
-0.0193136778384745
  0
LINE
  5
6151
330
18
100
AcDbEntity
  8
S1
 62
   130
100
AcDbLine
 10
5.045599727130872
 20
4.529280807608074
 30
0.0016826878842849
 11
7.446206485466833
 21
5.54633416743275
 31
-0.0193136778384503
  0
LINE
  5
6152
330
18
100
AcDbEntity
  8
S1
 62
   130
100
AcDbLine
 10
5.045599727130872
 20
4.529280807608074
 30
0.0016826878842849
 11
7.446206485466833
 21
5.54633416743275
 31
-0.0193136778384503
  0
LINE
  5
6153
330
18
100
AcDbEntity
  8
S1
 62
   130
100
AcDbLine
 10
5.045597186637218
 20
4.529282011053005
 30
0.0011500794155282
 11
7.446204815789046
 21
5.546342144751321
 31
-0.0215514764170215
  0
LINE
  5
6154
330
18
100
AcDbEntity
  8
S1
 62
   130
100
AcDbLine
 10
5.045597186637218
 20
4.529282011053005
 30
0.0011500794155283
 11
7.446204815789046
 21
5.546342144751321
 31
-0.0215514764170215
  0
LINE
  5
6155
330
18
100
AcDbEntity
  8
S1
 62
    80
100
AcDbLine
 10
5.053478967489832
 20
4.699192449440989
 30
0.0559844398115048
 11
7.517128931870198
 21
5.207483789419534
 31
-0.0099074172680168
  0
LINE
  5
6156
330
18
100
AcDbEntity
  8
S1
 62
    80
100
AcDbLine
 10
5.043185833880025
 20
4.395034514374433
 30
0.0016424940542277
 11
7.519165218795786
 21
5.197754900619568
 31
-0.0203052435495074
  0
LINE
  5
6157
330
18
100
AcDbEntity
  8
S1
 62
    10
100
AcDbLine
 10
5.046012144857401
 20
4.525887597435765
 30
0.055959064563824
 11
7.597200933854169
 21
4.824919037123258
 31
-0.0129718961584306
  0
LINE
  5
6159
330
18
100
AcDbEntity
  8
OUTER_HOUSING
100
AcDbLine
 10
4.707811530259599
 20
3.244445728142945
 30
0.0
 11
9.007811530259601
 21
3.244445728142943
 31
0.0
  0
LINE
  5
615A
330
18
100
AcDbEntity
  8
OUTER_HOUSING
100
AcDbLine
 10
9.0078115302596
 20
6.194445728142941
 30
0.0
 11
4.707811530259599
 21
6.194445728142941
 31
0.0
  0
LINE
  5
615B
330
18
100
AcDbEntity
  8
OUTER_HOUSING
100
AcDbLine
 10
4.707811530259599
 20
6.194445728142941
 30
0.0
 11
4.707811530259599
 21
3.244445728142945
 31
0.0
  0
LINE
  5
615E
330
18
100
AcDbEntity
  8
0
100
AcDbLine
 10
5.412811530259602
 20
6.406945728142941
 30
0.0
 11
5.412811530259601
 21
6.256945728142941
 31
0.0
  0
LINE
  5
615F
330
18
100
AcDbEntity
  8
0
100
AcDbLine
 10
5.612811530259602
 20
6.406945728142941
 30
0.0
 11
5.612811530259602
 21
6.256945728142941
 31
0.0
  0
LINE
  5
6160
330
18
100
AcDbEntity
  8
0
100
AcDbLine
 10
5.442811530259604
 20
6.306945728142943
 30
0.0
 11
5.582811530259601
 21
6.306945728142943
 31
0.0
  0
LINE
  5
6161
330
18
100
AcDbEntity
  8
0
100
AcDbLine
 10
5.442811530259604
 20
6.346945728142943
 30
0.0
 11
5.582811530259601
 21
6.346945728142943
 31
0.0
  0
LINE
  5
6162
330
18
100
AcDbEntity
  8
0
100
AcDbLine
 10
5.412811530259602
 20
6.326945728142941
 30
0.0
 11
5.612811530259602
 21
6.326945728142941
 31
0.0
  0
LINE
  5
6163
330
18
100
AcDbEntity
  8
0
100
AcDbLine
 10
5.412811530259604
 20
6.36694572814294
 30
0.0
 11
5.612811530259602
 21
6.36694572814294
 31
0.0
  0
LINE
  5
6164
330
18
100
AcDbEntity
  8
0
100
AcDbLine
 10
5.442811530259604
 20
6.386945728142942
 30
0.0
 11
5.582811530259601
 21
6.386945728142942
 31
0.0
  0
LINE
  5
6165
330
18
100
AcDbEntity
  8
0
100
AcDbLine
 10
5.412811530259602
 20
6.406945728142941
 30
0.0
 11
5.612811530259602
 21
6.406945728142941
 31
0.0
  0
LINE
  5
6166
330
18
100
AcDbEntity
  8
0
100
AcDbLine
 10
9.357811530259603
 20
7.725495163182749
 30
0.0
 11
9.357811530259604
 21
8.175495163182755
 31
0.0
  0
LINE
  5
6167
330
18
100
AcDbEntity
  8
0
100
AcDbLine
 10
9.257811530259598
 20
7.852169201945731
 30
0.0
 11
9.2578115302596
 21
8.048821124419777
 31
0.0
  0
LINE
  5
6168
330
18
100
AcDbEntity
  8
0
100
AcDbLine
 10
9.257811530259601
 20
7.908736007043003
 30
0.0
 11
9.007811530259601
 21
7.908736007043003
 31
0.0
  0
LINE
  5
6169
330
18
100
AcDbEntity
  8
0
100
AcDbLine
 10
9.257811530259601
 20
8.007061968280028
 30
0.0
 11
9.007811530259601
 21
8.007061968280028
 31
0.0
  0
LINE
  5
616A
330
18
100
AcDbEntity
  8
0
100
AcDbLine
 10
9.2578115302596
 20
8.048821124419777
 30
0.0
 11
9.007811530259601
 21
8.048821124419777
 31
0.0
  0
LINE
  5
616B
330
18
100
AcDbEntity
  8
0
100
AcDbLine
 10
9.357811530259603
 20
8.175495163182755
 30
0.0
 11
9.007811530259601
 21
8.175495163182755
 31
0.0
  0
LINE
  5
616C
330
18
100
AcDbEntity
  8
0
100
AcDbLine
 10
9.2578115302596
 20
7.852169201945731
 30
0.0
 11
9.007811530259601
 21
7.852169201945731
 31
0.0
  0
LINE
  5
616D
330
18
100
AcDbEntity
  8
0
100
AcDbLine
 10
9.357811530259604
 20
7.725495163182749
 30
0.0
 11
9.007811530259603
 21
7.725495163182749
 31
0.0
  0
MTEXT
  5
616E
330
18
100
AcDbEntity
  8
S3
  6
CONTINUOUS
100
AcDbMText
 10
6.121592944793762
 20
3.658207232938437
 30
0.0
 40
0.2537025370455495
 41
12.93952197
 71
     1
 72
     1
  1
{\FVERDANA.TTF;SPECTROMETER}
1001
ACAD
1000
MTEXTBEGIN
1070
    73
1070
     1
1070
    44
1040
1.0
1070
    74
1070
     0
1000
MTEXTEND
  0
LINE
  5
616F
330
18
100
AcDbEntity
  8
S1
 62
    41
100
AcDbLine
 10
5.458639887066405
 20
3.80031365070209
 30
-0.0001001619513813
 11
5.293984802416391
 21
5.141321701287594
 31
-0.0001001619513813
  0
LINE
  5
6170
330
18
100
AcDbEntity
  8
S1
 62
    41
100
AcDbLine
 10
5.458639887066405
 20
3.80031365070209
 30
-0.0001001619513813
 11
5.293984802416391
 21
5.141321701287594
 31
-0.0001001619513813
  0
LINE
  5
6171
330
18
100
AcDbEntity
  8
S1
 62
    41
100
AcDbLine
 10
5.458639887066405
 20
3.80031365070209
 30
-0.0001001619513948
 11
5.293984802416391
 21
5.141321701287594
 31
-0.0001001619513948
  0
LINE
  5
6172
330
18
100
AcDbEntity
  8
S1
 62
    41
100
AcDbLine
 10
5.458639887066405
 20
3.80031365070209
 30
-0.0001001619513948
 11
5.293984802416391
 21
5.141321701287594
 31
-0.0001001619513948
  0
LINE
  5
6173
330
18
100
AcDbEntity
  8
S1
 62
    41
100
AcDbLine
 10
5.458639887066405
 20
3.80031365070209
 30
-0.0001001619513813
 11
5.293984802416391
 21
5.141321701287594
 31
-0.0001001619513813
  0
LINE
  5
6174
330
18
100
AcDbEntity
  8
S1
 62
    41
100
AcDbLine
 10
5.458639887066405
 20
3.80031365070209
 30
-0.0001001619513813
 11
5.293984802416391
 21
5.141321701287594
 31
-0.0001001619513813
  0
LINE
  5
6175
330
18
100
AcDbEntity
  8
S1
 62
    41
100
AcDbLine
 10
5.458639887066405
 20
3.80031365070209
 30
-0.0001001619513948
 11
5.293984802416391
 21
5.141321701287594
 31
-0.0001001619513948
  0
LINE
  5
6176
330
18
100
AcDbEntity
  8
S1
 62
    41
100
AcDbLine
 10
5.458639887066405
 20
3.80031365070209
 30
-0.0001001619513948
 11
5.293984802416391
 21
5.141321701287594
 31
-0.0001001619513948
  0
LINE
  5
6177
330
18
100
AcDbEntity
  8
S1
 62
    41
100
AcDbLine
 10
5.458639887066405
 20
3.80031365070209
 30
-0.0001001619513813
 11
5.293984802416391
 21
5.141321701287594
 31
-0.0001001619513813
  0
LINE
  5
6178
330
18
100
AcDbEntity
  8
S1
 62
    41
100
AcDbLine
 10
5.458639887066405
 20
3.80031365070209
 30
-0.0001001619513813
 11
5.293984802416391
 21
5.141321701287594
 31
-0.0001001619513813
  0
LINE
  5
6179
330
18
100
AcDbEntity
  8
S1
 62
    41
100
AcDbLine
 10
5.458639887066405
 20
3.80031365070209
 30
-0.0001001619513948
 11
5.293984802416391
 21
5.141321701287594
 31
-0.0001001619513948
  0
LINE
  5
617A
330
18
100
AcDbEntity
  8
S1
 62
    41
100
AcDbLine
 10
5.458639887066405
 20
3.80031365070209
 30
-0.0001001619513948
 11
5.293984802416391
 21
5.141321701287594
 31
-0.0001001619513948
  0
LINE
  5
617B
330
18
100
AcDbEntity
  8
S1
 62
    41
100
AcDbLine
 10
5.458639887066405
 20
3.80031365070209
 30
-0.0001001619513813
 11
5.293984802416391
 21
5.141321701287594
 31
-0.0001001619513813
  0
LINE
  5
617C
330
18
100
AcDbEntity
  8
S1
 62
    41
100
AcDbLine
 10
5.458639887066405
 20
3.80031365070209
 30
-0.0001001619513813
 11
5.293984802416391
 21
5.141321701287594
 31
-0.0001001619513813
  0
LINE
  5
617D
330
18
100
AcDbEntity
  8
S1
 62
    41
100
AcDbLine
 10
5.458639887066405
 20
3.80031365070209
 30
-0.0001001619513948
 11
5.293984802416391
 21
5.141321701287594
 31
-0.0001001619513948
  0
LINE
  5
617E
330
18
100
AcDbEntity
  8
S1
 62
    41
100
AcDbLine
 10
5.458639887066405
 20
3.80031365070209
 30
-0.0001001619513948
 11
5.293984802416391
 21
5.141321701287594
 31
-0.0001001619513948
  0
LINE
  5
617F
330
18
100
AcDbEntity
  8
S1
 62
    41
100
AcDbLine
 10
5.458639887066405
 20
3.80031365070209
 30
-0.0001001619513813
 11
5.293984802416391
 21
5.141321701287594
 31
-0.0001001619513813
  0
LINE
  5
6180
330
18
100
AcDbEntity
  8
S1
 62
    41
100
AcDbLine
 10
5.458639887066405
 20
3.80031365070209
 30
-0.0001001619513813
 11
5.293984802416391
 21
5.141321701287594
 31
-0.0001001619513813
  0
LINE
  5
6181
330
18
100
AcDbEntity
  8
S1
 62
    41
100
AcDbLine
 10
5.458639887066405
 20
3.80031365070209
 30
-0.0001001619513948
 11
5.293984802416391
 21
5.141321701287594
 31
-0.0001001619513948
  0
LINE
  5
6182
330
18
100
AcDbEntity
  8
S1
 62
    41
100
AcDbLine
 10
5.458639887066405
 20
3.80031365070209
 30
-0.0001001619513948
 11
5.293984802416391
 21
5.141321701287594
 31
-0.0001001619513948
  0
LINE
  5
6183
330
18
100
AcDbEntity
  8
S1
 62
    41
100
AcDbLine
 10
5.458639887066405
 20
3.80031365070209
 30
-0.0001001619513813
 11
5.293984802416391
 21
5.141321701287594
 31
-0.0001001619513813
  0
LINE
  5
6184
330
18
100
AcDbEntity
  8
S1
 62
    41
100
AcDbLine
 10
5.458639887066405
 20
3.80031365070209
 30
-0.0001001619513813
 11
5.293984802416391
 21
5.141321701287594
 31
-0.0001001619513813
  0
LINE
  5
6185
330
18
100
AcDbEntity
  8
S1
 62
    41
100
AcDbLine
 10
5.458639887066405
 20
3.80031365070209
 30
-0.0001001619513948
 11
5.293984802416391
 21
5.141321701287594
 31
-0.0001001619513948
  0
LINE
  5
6186
330
18
100
AcDbEntity
  8
S1
 62
    41
100
AcDbLine
 10
5.458639887066405
 20
3.80031365070209
 30
-0.0001001619513948
 11
5.293984802416391
 21
5.141321701287594
 31
-0.0001001619513948
  0
LINE
  5
6187
330
18
100
AcDbEntity
  8
S1
 62
    41
100
AcDbLine
 10
5.482524710391013
 20
3.80031365070209
 30
-0.0010337983675689
 11
5.652059869407063
 21
5.239358130115967
 31
-0.0508138125376026
  0
LINE
  5
6188
330
18
100
AcDbEntity
  8
S1
 62
    41
100
AcDbLine
 10
5.482524710391013
 20
3.80031365070209
 30
-0.0010337983675559
 11
5.652059869407063
 21
5.239358130115967
 31
-0.0508138125375966
  0
LINE
  5
6189
330
18
100
AcDbEntity
  8
S1
 62
    41
100
AcDbLine
 10
5.482524710391013
 20
3.80031365070209
 30
-0.003534281101385
 11
5.652054399257773
 21
5.239311698519106
 31
-0.0533126890906701
  0
LINE
  5
618A
330
18
100
AcDbEntity
  8
S1
 62
    41
100
AcDbLine
 10
5.482524710391013
 20
3.80031365070209
 30
-0.003534281101398
 11
5.652054399257773
 21
5.239311698519106
 31
-0.053312689090676
  0
LINE
  5
618B
330
18
100
AcDbEntity
  8
S1
 62
    41
100
AcDbLine
 10
5.482524710391013
 20
3.80031365070209
 30
-0.0022840397344754
 11
5.652057166432543
 21
5.239335186788963
 31
-0.0520632602395802
  0
LINE
  5
618C
330
18
100
AcDbEntity
  8
S1
 62
    41
100
AcDbLine
 10
5.482524710391013
 20
3.80031365070209
 30
-0.0010337983675689
 11
5.652059869407063
 21
5.239358130115967
 31
-0.0508138125376026
  0
LINE
  5
618D
330
18
100
AcDbEntity
  8
S1
 62
    41
100
AcDbLine
 10
5.482524710391013
 20
3.80031365070209
 30
-0.0010337983675559
 11
5.652059869407063
 21
5.239358130115967
 31
-0.0508138125375966
  0
LINE
  5
618E
330
18
100
AcDbEntity
  8
S1
 62
    41
100
AcDbLine
 10
5.482524710391013
 20
3.80031365070209
 30
-0.003534281101385
 11
5.652054399257773
 21
5.239311698519106
 31
-0.0533126890906701
  0
LINE
  5
618F
330
18
100
AcDbEntity
  8
S1
 62
    41
100
AcDbLine
 10
5.482524710391013
 20
3.80031365070209
 30
-0.003534281101398
 11
5.652054399257773
 21
5.239311698519106
 31
-0.053312689090676
  0
LINE
  5
6190
330
18
100
AcDbEntity
  8
S1
 62
    41
100
AcDbLine
 10
5.482524710391013
 20
3.80031365070209
 30
-0.0022840397344754
 11
5.652057166432543
 21
5.239335186788963
 31
-0.0520632602395802
  0
LINE
  5
6191
330
18
100
AcDbEntity
  8
S1
 62
    41
100
AcDbLine
 10
5.482524710391013
 20
3.80031365070209
 30
-0.0010337983675689
 11
5.652059869407063
 21
5.239358130115967
 31
-0.0508138125376026
  0
LINE
  5
6192
330
18
100
AcDbEntity
  8
S1
 62
    41
100
AcDbLine
 10
5.482524710391013
 20
3.80031365070209
 30
-0.0010337983675559
 11
5.652059869407063
 21
5.239358130115967
 31
-0.0508138125375966
  0
LINE
  5
6193
330
18
100
AcDbEntity
  8
S1
 62
    41
100
AcDbLine
 10
5.482524710391013
 20
3.80031365070209
 30
-0.003534281101385
 11
5.652054399257773
 21
5.239311698519106
 31
-0.0533126890906701
  0
LINE
  5
6194
330
18
100
AcDbEntity
  8
S1
 62
    41
100
AcDbLine
 10
5.482524710391013
 20
3.80031365070209
 30
-0.003534281101398
 11
5.652054399257773
 21
5.239311698519106
 31
-0.053312689090676
  0
LINE
  5
6195
330
18
100
AcDbEntity
  8
S1
 62
    41
100
AcDbLine
 10
5.482524710391013
 20
3.80031365070209
 30
-0.0022840397344754
 11
5.652057166432543
 21
5.239335186788963
 31
-0.0520632602395802
  0
LINE
  5
6196
330
18
100
AcDbEntity
  8
S1
 62
    41
100
AcDbLine
 10
5.482524710391013
 20
3.80031365070209
 30
-0.0010337983675689
 11
5.652059869407063
 21
5.239358130115967
 31
-0.0508138125376026
  0
LINE
  5
6197
330
18
100
AcDbEntity
  8
S1
 62
    41
100
AcDbLine
 10
5.482524710391013
 20
3.80031365070209
 30
-0.0010337983675559
 11
5.652059869407063
 21
5.239358130115967
 31
-0.0508138125375966
  0
LINE
  5
6198
330
18
100
AcDbEntity
  8
S1
 62
    41
100
AcDbLine
 10
5.482524710391013
 20
3.80031365070209
 30
-0.003534281101385
 11
5.652054399257773
 21
5.239311698519106
 31
-0.0533126890906701
  0
LINE
  5
6199
330
18
100
AcDbEntity
  8
S1
 62
    41
100
AcDbLine
 10
5.482524710391013
 20
3.80031365070209
 30
-0.003534281101398
 11
5.652054399257773
 21
5.239311698519106
 31
-0.053312689090676
  0
LINE
  5
619A
330
18
100
AcDbEntity
  8
S1
 62
    41
100
AcDbLine
 10
5.482524710391013
 20
3.80031365070209
 30
-0.0022840397344754
 11
5.652057166432543
 21
5.239335186788963
 31
-0.0520632602395802
  0
LINE
  5
619B
330
18
100
AcDbEntity
  8
S1
 62
    41
100
AcDbLine
 10
5.482524710391013
 20
3.80031365070209
 30
-0.0010337983675689
 11
5.652059869407063
 21
5.239358130115967
 31
-0.0508138125376026
  0
LINE
  5
619C
330
18
100
AcDbEntity
  8
S1
 62
    41
100
AcDbLine
 10
5.482524710391013
 20
3.80031365070209
 30
-0.0010337983675559
 11
5.652059869407063
 21
5.239358130115967
 31
-0.0508138125375966
  0
LINE
  5
619D
330
18
100
AcDbEntity
  8
S1
 62
    41
100
AcDbLine
 10
5.482524710391013
 20
3.80031365070209
 30
-0.003534281101385
 11
5.652054399257773
 21
5.239311698519106
 31
-0.0533126890906701
  0
LINE
  5
619E
330
18
100
AcDbEntity
  8
S1
 62
    41
100
AcDbLine
 10
5.482524710391013
 20
3.80031365070209
 30
-0.003534281101398
 11
5.652054399257773
 21
5.239311698519106
 31
-0.053312689090676
  0
LINE
  5
619F
330
18
100
AcDbEntity
  8
S1
 62
    41
100
AcDbLine
 10
5.482524710391013
 20
3.80031365070209
 30
-0.0022840397344754
 11
5.652057166432543
 21
5.239335186788963
 31
-0.0520632602395802
  0
LINE
  5
61A0
330
18
100
AcDbEntity
  8
S1
 62
    41
100
AcDbLine
 10
5.482524710391013
 20
3.80031365070209
 30
-0.0010337983675689
 11
5.652059869407063
 21
5.239358130115967
 31
-0.0508138125376026
  0
LINE
  5
61A1
330
18
100
AcDbEntity
  8
S1
 62
    41
100
AcDbLine
 10
5.482524710391013
 20
3.80031365070209
 30
-0.0010337983675559
 11
5.652059869407063
 21
5.239358130115967
 31
-0.0508138125375966
  0
LINE
  5
61A2
330
18
100
AcDbEntity
  8
S1
 62
    41
100
AcDbLine
 10
5.482524710391013
 20
3.80031365070209
 30
-0.003534281101385
 11
5.652054399257773
 21
5.239311698519106
 31
-0.0533126890906701
  0
LINE
  5
61A3
330
18
100
AcDbEntity
  8
S1
 62
    41
100
AcDbLine
 10
5.482524710391013
 20
3.80031365070209
 30
-0.003534281101398
 11
5.652054399257773
 21
5.239311698519106
 31
-0.053312689090676
  0
LINE
  5
61A4
330
18
100
AcDbEntity
  8
S1
 62
    41
100
AcDbLine
 10
5.482524710391013
 20
3.80031365070209
 30
-0.0022840397344754
 11
5.652057166432543
 21
5.239335186788963
 31
-0.0520632602395802
  0
LINE
  5
61A5
330
18
100
AcDbEntity
  8
S1
 62
    41
100
AcDbLine
 10
5.652059869407063
 20
5.239358130115967
 30
-0.0508138125376026
 11
6.187586292027939
 21
4.32568061034356
 31
-0.0524049063008603
  0
LINE
  5
61A6
330
18
100
AcDbEntity
  8
S1
 62
    41
100
AcDbLine
 10
5.652059869407063
 20
5.239358130115967
 30
-0.0508138125375966
 11
6.187586292027939
 21
4.32568061034356
 31
-0.0524049063008638
  0
LINE
  5
61A7
330
18
100
AcDbEntity
  8
S1
 62
    41
100
AcDbLine
 10
5.652054399257773
 20
5.239311698519106
 30
-0.0533126890906701
 11
6.187572229362304
 21
4.325668810366
 31
-0.0532311876586746
  0
LINE
  5
61A8
330
18
100
AcDbEntity
  8
S1
 62
    41
100
AcDbLine
 10
5.652054399257773
 20
5.239311698519106
 30
-0.053312689090676
 11
6.187572229362304
 21
4.325668810366
 31
-0.0532311876586711
  0
LINE
  5
61A9
330
18
100
AcDbEntity
  8
S1
 62
    41
100
AcDbLine
 10
5.652057166432543
 20
5.239335186788963
 30
-0.0520632602395802
 11
6.187579255379271
 21
4.325674705894272
 31
-0.0528180383427087
  0
LINE
  5
61AA
330
18
100
AcDbEntity
  8
S1
 62
    41
100
AcDbLine
 10
5.652059869407063
 20
5.239358130115967
 30
-0.0508138125376026
 11
6.187586292027939
 21
4.32568061034356
 31
-0.0524049063008603
  0
LINE
  5
61AB
330
18
100
AcDbEntity
  8
S1
 62
    41
100
AcDbLine
 10
5.652059869407063
 20
5.239358130115967
 30
-0.0508138125375966
 11
6.187586292027939
 21
4.32568061034356
 31
-0.0524049063008638
  0
LINE
  5
61AC
330
18
100
AcDbEntity
  8
S1
 62
    41
100
AcDbLine
 10
5.652054399257773
 20
5.239311698519106
 30
-0.0533126890906701
 11
6.187572229362304
 21
4.325668810366
 31
-0.0532311876586746
  0
LINE
  5
61AD
330
18
100
AcDbEntity
  8
S1
 62
    41
100
AcDbLine
 10
5.652054399257773
 20
5.239311698519106
 30
-0.053312689090676
 11
6.187572229362304
 21
4.325668810366
 31
-0.0532311876586711
  0
LINE
  5
61AE
330
18
100
AcDbEntity
  8
S1
 62
    41
100
AcDbLine
 10
5.652057166432543
 20
5.239335186788963
 30
-0.0520632602395802
 11
6.187579255379271
 21
4.325674705894272
 31
-0.0528180383427087
  0
LINE
  5
61AF
330
18
100
AcDbEntity
  8
S1
 62
    41
100
AcDbLine
 10
5.652059869407063
 20
5.239358130115967
 30
-0.0508138125376026
 11
6.187586292027939
 21
4.32568061034356
 31
-0.0524049063008603
  0
LINE
  5
61B0
330
18
100
AcDbEntity
  8
S1
 62
    41
100
AcDbLine
 10
5.652059869407063
 20
5.239358130115967
 30
-0.0508138125375966
 11
6.187586292027939
 21
4.32568061034356
 31
-0.0524049063008638
  0
LINE
  5
61B1
330
18
100
AcDbEntity
  8
S1
 62
    41
100
AcDbLine
 10
5.652054399257773
 20
5.239311698519106
 30
-0.0533126890906701
 11
6.187572229362304
 21
4.325668810366
 31
-0.0532311876586746
  0
LINE
  5
61B2
330
18
100
AcDbEntity
  8
S1
 62
    41
100
AcDbLine
 10
5.652054399257773
 20
5.239311698519106
 30
-0.053312689090676
 11
6.187572229362304
 21
4.325668810366
 31
-0.0532311876586711
  0
LINE
  5
61B3
330
18
100
AcDbEntity
  8
S1
 62
    41
100
AcDbLine
 10
5.652057166432543
 20
5.239335186788963
 30
-0.0520632602395802
 11
6.187579255379271
 21
4.325674705894272
 31
-0.0528180383427087
  0
LINE
  5
61B4
330
18
100
AcDbEntity
  8
S1
 62
    41
100
AcDbLine
 10
5.652059869407063
 20
5.239358130115967
 30
-0.0508138125376026
 11
6.187586292027939
 21
4.32568061034356
 31
-0.0524049063008603
  0
LINE
  5
61B5
330
18
100
AcDbEntity
  8
S1
 62
    41
100
AcDbLine
 10
5.652059869407063
 20
5.239358130115967
 30
-0.0508138125375966
 11
6.187586292027939
 21
4.32568061034356
 31
-0.0524049063008638
  0
LINE
  5
61B6
330
18
100
AcDbEntity
  8
S1
 62
    41
100
AcDbLine
 10
5.652054399257773
 20
5.239311698519106
 30
-0.0533126890906701
 11
6.187572229362304
 21
4.325668810366
 31
-0.0532311876586746
  0
LINE
  5
61B7
330
18
100
AcDbEntity
  8
S1
 62
    41
100
AcDbLine
 10
5.652054399257773
 20
5.239311698519106
 30
-0.053312689090676
 11
6.187572229362304
 21
4.325668810366
 31
-0.0532311876586711
  0
LINE
  5
61B8
330
18
100
AcDbEntity
  8
S1
 62
    41
100
AcDbLine
 10
5.652057166432543
 20
5.239335186788963
 30
-0.0520632602395802
 11
6.187579255379271
 21
4.325674705894272
 31
-0.0528180383427087
  0
LINE
  5
61B9
330
18
100
AcDbEntity
  8
S1
 62
    41
100
AcDbLine
 10
5.652059869407063
 20
5.239358130115967
 30
-0.0508138125376026
 11
6.187586292027939
 21
4.32568061034356
 31
-0.0524049063008603
  0
LINE
  5
61BA
330
18
100
AcDbEntity
  8
S1
 62
    41
100
AcDbLine
 10
5.652059869407063
 20
5.239358130115967
 30
-0.0508138125375966
 11
6.187586292027939
 21
4.32568061034356
 31
-0.0524049063008638
  0
LINE
  5
61BB
330
18
100
AcDbEntity
  8
S1
 62
    41
100
AcDbLine
 10
5.652054399257773
 20
5.239311698519106
 30
-0.0533126890906701
 11
6.187572229362304
 21
4.325668810366
 31
-0.0532311876586746
  0
LINE
  5
61BC
330
18
100
AcDbEntity
  8
S1
 62
    41
100
AcDbLine
 10
5.652054399257773
 20
5.239311698519106
 30
-0.053312689090676
 11
6.187572229362304
 21
4.325668810366
 31
-0.0532311876586711
  0
LINE
  5
61BD
330
18
100
AcDbEntity
  8
S1
 62
    41
100
AcDbLine
 10
5.652057166432543
 20
5.239335186788963
 30
-0.0520632602395802
 11
6.187579255379271
 21
4.325674705894272
 31
-0.0528180383427087
  0
LINE
  5
61BE
330
18
100
AcDbEntity
  8
S1
 62
    41
100
AcDbLine
 10
5.652059869407063
 20
5.239358130115967
 30
-0.0508138125376026
 11
6.187586292027939
 21
4.32568061034356
 31
-0.0524049063008603
  0
LINE
  5
61BF
330
18
100
AcDbEntity
  8
S1
 62
    41
100
AcDbLine
 10
5.652059869407063
 20
5.239358130115967
 30
-0.0508138125375966
 11
6.187586292027939
 21
4.32568061034356
 31
-0.0524049063008638
  0
LINE
  5
61C0
330
18
100
AcDbEntity
  8
S1
 62
    41
100
AcDbLine
 10
5.652054399257773
 20
5.239311698519106
 30
-0.0533126890906701
 11
6.187572229362304
 21
4.325668810366
 31
-0.0532311876586746
  0
LINE
  5
61C1
330
18
100
AcDbEntity
  8
S1
 62
    41
100
AcDbLine
 10
5.652054399257773
 20
5.239311698519106
 30
-0.053312689090676
 11
6.187572229362304
 21
4.325668810366
 31
-0.0532311876586711
  0
LINE
  5
61C2
330
18
100
AcDbEntity
  8
S1
 62
    41
100
AcDbLine
 10
5.652057166432543
 20
5.239335186788963
 30
-0.0520632602395802
 11
6.187579255379271
 21
4.325674705894272
 31
-0.0528180383427087
  0
LINE
  5
61C3
330
18
100
AcDbEntity
  8
S1
 62
    80
100
AcDbLine
 10
6.187332943175613
 20
4.325468025415009
 30
-0.0528205216040519
 11
5.052962630889171
 21
4.699362636786823
 31
-0.053684674320859
  0
LINE
  5
61C4
330
18
100
AcDbEntity
  8
S1
 62
    80
100
AcDbLine
 10
6.187332943175613
 20
4.325468025415009
 30
-0.0528205216040519
 11
5.052962630889171
 21
4.699362636786823
 31
-0.0536846743208485
  0
LINE
  5
61C5
330
18
100
AcDbEntity
  8
0
100
AcDbLine
 10
5.306160658467396
 20
6.256945728142943
 30
0.0
 11
5.719462402051807
 21
6.256945728142941
 31
0.0
  0
TEXT
  5
61C6
330
18
100
AcDbEntity
  8
S3
  6
CONTINUOUS
100
AcDbText
 10
5.338379497640802
 20
6.054332041749381
 30
0.0
 40
0.08
  1
LIGHT 
100
AcDbText
  0
TEXT
  5
61C7
330
18
100
AcDbEntity
  8
S3
  6
CONTINUOUS
100
AcDbText
 10
5.361002819915606
 20
5.938892557857728
 30
0.0
 40
0.08
  1
 IN
100
AcDbText
  0
LINE
  5
61C8
330
18
100
AcDbEntity
  8
0
100
AcDbLine
 10
5.306160658467396
 20
6.256945728142943
 30
0.0
 11
5.306160658467398
 21
6.194445728142941
 31
0.0
  0
LINE
  5
61C9
330
18
100
AcDbEntity
  8
S1
100
AcDbLine
 10
5.616136966155705
 20
6.256945728142941
 30
0.0
 11
5.616136966155705
 21
6.194445728142941
 31
0.0
  0
LINE
  5
61CA
330
18
100
AcDbEntity
  8
S1
100
AcDbLine
 10
5.409486094363497
 20
6.256945728142941
 30
0.0
 11
5.409486094363497
 21
6.194445728142941
 31
0.0
  0
LINE
  5
61CB
330
18
100
AcDbEntity
  8
0
100
AcDbLine
 10
5.719462402051807
 20
6.256945728142941
 30
0.0
 11
5.719462402051805
 21
6.194445728142939
 31
0.0
  0
LINE
  5
61CC
330
18
100
AcDbEntity
  8
0
100
AcDbLine
 10
5.442811530259604
 20
6.266945728142944
 30
0.0
 11
5.582811530259601
 21
6.266945728142944
 31
0.0
  0
LINE
  5
61CD
330
18
100
AcDbEntity
  8
0
100
AcDbLine
 10
5.412811530259602
 20
6.286945728142944
 30
0.0
 11
5.612811530259602
 21
6.286945728142942
 31
0.0
  0
LINE
  5
61CE
330
18
100
AcDbEntity
  8
S1
 62
    41
100
AcDbLine
 10
5.470829174623924
 20
3.701039870113426
 30
-0.0001001619513813
 11
5.482524710389919
 21
3.800313650702129
 31
-0.0035342811013849
210
-0.2817325568414296
220
0.0
230
-0.9594929736144976
  0
LINE
  5
61CF
330
18
100
AcDbEntity
  8
S1
 62
    41
100
AcDbLine
 10
5.470829174623903
 20
3.701039870113426
 30
-0.0001001619513946
 11
5.48252471038989
 21
3.800313650702129
 31
-0.0035342811013982
210
0.2817325568414297
220
0.0
230
0.9594929736144976
  0
LINE
  5
61D0
330
18
100
AcDbEntity
  8
S3
100
AcDbLine
 10
7.116417211298058
 20
5.846385017456938
 30
0.0
 11
7.229985777982763
 21
5.846385017456938
 31
0.0
  0
LINE
  5
61D1
330
18
100
AcDbEntity
  8
S3
100
AcDbLine
 10
7.225818178842382
 20
6.080547010621291
 30
0.0
 11
7.116417211298058
 21
6.080547010621291
 31
0.0
  0
SOLID
  5
61D2
330
18
100
AcDbEntity
  8
S3
100
AcDbTrace
 10
6.451563072446072
 20
5.845401828360454
 30
0.0
 11
6.451563072446072
 21
5.874988695407907
 31
0.0
 12
6.512668565471793
 22
5.866441378260866
 32
0.0
 13
6.496242357669176
 23
5.888795900030054
 33
0.0
  0
SOLID
  5
61D3
330
18
100
AcDbEntity
  8
S3
100
AcDbTrace
 10
6.493614164420757
 20
6.076179391330601
 30
0.0
 11
6.481787294802879
 21
6.042647608676819
 31
0.0
 12
6.45070054720727
 22
6.085298123526072
 32
0.0
 13
6.449711390839235
 23
6.051644407117187
 33
0.0
  0
POLYLINE
  5
61D4
330
18
100
AcDbEntity
  8
S3
100
AcDb2dPolyline
 66
     1
 10
0.0
 20
0.0
 30
0.0
 40
0.0093664797265741
 41
0.0093664797265741
  0
VERTEX
  5
652A
330
61D4
100
AcDbEntity
  8
S3
100
AcDbVertex
100
AcDb2dVertex
 10
6.350076741073786
 20
5.923791954193696
 30
0.0
 42
0.7616390336395551
  0
VERTEX
  5
652B
330
61D4
100
AcDbEntity
  8
S3
100
AcDbVertex
100
AcDb2dVertex
 10
6.553673510962434
 20
5.925935798968684
 30
0.0
 42
0.7616390336395551
  0
SEQEND
  5
652C
330
61D4
100
AcDbEntity
  8
S3
  0
POLYLINE
  5
61D5
330
18
100
AcDbEntity
  8
S3
100
AcDb2dPolyline
 66
     1
 10
0.0
 20
0.0
 30
0.0
 40
0.0093664797265741
 41
0.0093664797265741
  0
VERTEX
  5
652D
330
61D5
100
AcDbEntity
  8
S3
100
AcDbVertex
100
AcDb2dVertex
 10
6.551929780817241
 20
6.008545366019237
 30
0.0
 42
0.7414713431190223
  0
VERTEX
  5
652E
330
61D5
100
AcDbEntity
  8
S3
100
AcDbVertex
100
AcDb2dVertex
 10
6.35046710561661
 20
6.007355901403659
 30
0.0
 42
0.7414713431190223
  0
SEQEND
  5
652F
330
61D5
100
AcDbEntity
  8
S3
  0
POLYLINE
  5
61D6
330
18
100
AcDbEntity
  8
S3
100
AcDb2dPolyline
 66
     1
 10
0.0
 20
0.0
 30
0.0
 70
     1
 40
0.0093664797265741
 41
0.0093664797265741
  0
VERTEX
  5
6530
330
61D6
100
AcDbEntity
  8
S3
100
AcDbVertex
100
AcDb2dVertex
 10
6.393858249824022
 20
6.015758067803048
 30
0.0
 42
0.2285268323977459
  0
VERTEX
  5
6531
330
61D6
100
AcDbEntity
  8
S3
100
AcDbVertex
100
AcDb2dVertex
 10
6.394952098597444
 20
5.909438712261366
 30
0.0
 42
0.6230043105321781
  0
VERTEX
  5
6532
330
61D6
100
AcDbEntity
  8
S3
100
AcDbVertex
100
AcDb2dVertex
 10
6.507601947593082
 20
5.909794131005678
 30
0.0
 42
0.2290062495557326
  0
VERTEX
  5
6533
330
61D6
100
AcDbEntity
  8
S3
100
AcDbVertex
100
AcDb2dVertex
 10
6.507928329496033
 20
6.016221903803621
 30
0.0
 42
0.6323121992740218
  0
SEQEND
  5
6534
330
61D6
100
AcDbEntity
  8
S3
  0
SOLID
  5
61D7
330
18
100
AcDbEntity
  8
S3
100
AcDbTrace
 10
5.95265728398016
 20
6.080547010621291
 30
0.0
 11
6.149353358238217
 21
6.080547010621291
 31
0.0
 12
5.95265728398016
 22
6.041910281749171
 32
0.0
 13
6.149353358238217
 23
6.041910281749171
 33
0.0
  0
SOLID
  5
61D8
330
18
100
AcDbEntity
  8
S3
100
AcDbTrace
 10
6.027589121792752
 20
5.846385017456938
 30
0.0
 11
6.074421520425625
 21
5.846385017456938
 31
0.0
 12
6.027589121792752
 22
6.041910281749171
 32
0.0
 13
6.074421520425625
 23
6.041910281749171
 33
0.0
  0
SOLID
  5
61D9
330
18
100
AcDbEntity
  8
S3
100
AcDbTrace
 10
6.29336298403429
 20
5.989223833287191
 30
0.0
 11
6.19618575687109
 21
5.989223833287191
 31
0.0
 12
6.29336298403429
 22
5.949416294449253
 32
0.0
 13
6.19618575687109
 23
5.949416294449253
 33
0.0
  0
SOLID
  5
61DA
330
18
100
AcDbEntity
  8
S3
100
AcDbTrace
 10
6.149353358238217
 20
6.080547010621291
 30
0.0
 11
6.19618575687109
 21
6.080547010621291
 31
0.0
 12
6.149353358238217
 22
5.846385017456938
 32
0.0
 13
6.19618575687109
 23
5.846385017456938
 33
0.0
  0
SOLID
  5
61DB
330
18
100
AcDbEntity
  8
S3
100
AcDbTrace
 10
6.356730692243383
 20
6.027888842593267
 30
0.0
 11
6.390362008756776
 21
6.004133278069346
 31
0.0
 12
6.343150100948834
 22
5.963091810615885
 32
0.0
 13
6.381258903050893
 23
5.959804380943946
 33
0.0
  0
SOLID
  5
61DC
330
18
100
AcDbEntity
  8
S3
100
AcDbTrace
 10
6.29336298403429
 20
6.080547010621291
 30
0.0
 11
6.340195382667156
 21
6.080547010621291
 31
0.0
 12
6.29336298403429
 22
5.846385017456938
 32
0.0
 13
6.340195382667156
 23
5.846385017456938
 33
0.0
  0
POLYLINE
  5
61DD
330
18
100
AcDbEntity
  8
S3
100
AcDb2dPolyline
 66
     1
 10
0.0
 20
0.0
 30
0.0
 40
0.0093664797265741
 41
0.0093664797265741
  0
VERTEX
  5
6535
330
61DD
100
AcDbEntity
  8
S3
100
AcDbVertex
100
AcDb2dVertex
 10
6.35046710561661
 20
6.007355901403659
 30
0.0
 42
0.1430540650207981
  0
VERTEX
  5
6536
330
61DD
100
AcDbEntity
  8
S3
100
AcDbVertex
100
AcDb2dVertex
 10
6.350076741073786
 20
5.923791954193696
 30
0.0
 42
0.1430540650207981
  0
SEQEND
  5
6537
330
61DD
100
AcDbEntity
  8
S3
  0
SOLID
  5
61DE
330
18
100
AcDbEntity
  8
S3
100
AcDbTrace
 10
6.343150100948834
 20
5.963091810615885
 30
0.0
 11
6.381258903050893
 21
5.959804380943946
 31
0.0
 12
6.360233357063551
 22
5.896028245308322
 32
0.0
 13
6.393742820980877
 23
5.908520478061689
 33
0.0
  0
SOLID
  5
61DF
330
18
100
AcDbEntity
  8
S3
100
AcDbTrace
 10
6.360233357063551
 20
5.896028245308322
 30
0.0
 11
6.393742820980877
 21
5.908520478061689
 31
0.0
 12
6.409511980471387
 22
5.853291659573109
 32
0.0
 13
6.426595236586097
 23
5.87761863914546
 33
0.0
  0
SOLID
  5
61E0
330
18
100
AcDbEntity
  8
S3
100
AcDbTrace
 10
6.388383696020691
 20
6.063522189379149
 30
0.0
 11
6.40618851064543
 21
6.036797179289738
 31
0.0
 12
6.356730692243383
 22
6.027888842593267
 32
0.0
 13
6.390362008756776
 23
6.004133278069346
 33
0.0
  0
SOLID
  5
61E1
330
18
100
AcDbEntity
  8
S3
100
AcDbTrace
 10
6.409511980471387
 20
5.853291659573109
 30
0.0
 11
6.426595236586097
 21
5.87761863914546
 31
0.0
 12
6.451563072446072
 22
5.845401828360454
 32
0.0
 13
6.451563072446072
 23
5.874988695407907
 33
0.0
  0
SOLID
  5
61E2
330
18
100
AcDbEntity
  8
S3
100
AcDbTrace
 10
6.45070054720727
 20
6.085298123526072
 30
0.0
 11
6.449711390839235
 21
6.051644407117187
 31
0.0
 12
6.388383696020691
 22
6.063522189379149
 32
0.0
 13
6.40618851064543
 23
6.036797179289738
 33
0.0
  0
LINE
  5
61E3
330
18
100
AcDbEntity
  8
S3
100
AcDbLine
 10
6.753491300602251
 20
5.846385017456938
 30
0.0
 11
6.919746315748946
 21
5.846385017456938
 31
0.0
  0
LINE
  5
61E4
330
18
100
AcDbEntity
  8
S3
100
AcDbLine
 10
6.802665319166765
 20
6.080547010621291
 30
0.0
 11
6.753491300602251
 21
6.080547010621291
 31
0.0
  0
SOLID
  5
61E5
330
18
100
AcDbEntity
  8
S3
100
AcDbTrace
 10
6.545520981077013
 20
5.903260590586587
 30
0.0
 11
6.517924951968625
 21
5.932189971699656
 31
0.0
 12
6.55997604394331
 22
5.972954099631703
 32
0.0
 13
6.519239048592831
 23
5.976899015238029
 33
0.0
  0
SOLID
  5
61E6
330
18
100
AcDbEntity
  8
S3
100
AcDbTrace
 10
6.512668565471793
 20
5.866441378260866
 30
0.0
 11
6.496242357669176
 21
5.888795900030054
 31
0.0
 12
6.545520981077013
 22
5.903260590586587
 32
0.0
 13
6.517924951968625
 23
5.932189971699656
 33
0.0
  0
SOLID
  5
61E7
330
18
100
AcDbEntity
  8
S3
100
AcDbTrace
 10
6.55997604394331
 20
5.972954099631703
 30
0.0
 11
6.519239048592831
 21
5.976899015238029
 31
0.0
 12
6.540264594580181
 22
6.03936017900488
 32
0.0
 13
6.505441034038641
 23
6.022923030645181
 33
0.0
  0
SOLID
  5
61E8
330
18
100
AcDbEntity
  8
S3
100
AcDbTrace
 10
6.540264594580181
 20
6.03936017900488
 30
0.0
 11
6.505441034038641
 21
6.022923030645181
 31
0.0
 12
6.493614164420757
 22
6.076179391330601
 32
0.0
 13
6.481787294802879
 23
6.042647608676819
 33
0.0
  0
POLYLINE
  5
61E9
330
18
100
AcDbEntity
  8
S3
100
AcDb2dPolyline
 66
     1
 10
0.0
 20
0.0
 30
0.0
 40
0.0093664797265741
 41
0.0093664797265741
  0
VERTEX
  5
6538
330
61E9
100
AcDbEntity
  8
S3
100
AcDbVertex
100
AcDb2dVertex
 10
6.699014096095689
 20
5.962640224720509
 30
0.0
 42
0.9399343180161681
  0
VERTEX
  5
6539
330
61E9
100
AcDbEntity
  8
S3
100
AcDbVertex
100
AcDb2dVertex
 10
6.691995945411109
 20
6.075863770758004
 30
0.0
 42
0.9399343180161681
  0
SEQEND
  5
653A
330
61E9
100
AcDbEntity
  8
S3
  0
POLYLINE
  5
61EA
330
18
100
AcDbEntity
  8
S3
100
AcDb2dPolyline
 66
     1
 10
0.0
 20
0.0
 30
0.0
 40
0.0093664797265741
 41
0.0093664797265741
  0
VERTEX
  5
653B
330
61EA
100
AcDbEntity
  8
S3
100
AcDbVertex
100
AcDb2dVertex
 10
6.73898403874754
 20
5.913536104767356
 30
0.0
 42
0.3581345567762107
  0
VERTEX
  5
653C
330
61EA
100
AcDbEntity
  8
S3
100
AcDbVertex
100
AcDb2dVertex
 10
6.699139031655748
 20
5.953331595927632
 30
0.0
 42
0.3581345567762107
  0
SEQEND
  5
653D
330
61EA
100
AcDbEntity
  8
S3
  0
SOLID
  5
61EB
330
18
100
AcDbEntity
  8
S3
100
AcDbTrace
 10
6.695045587115147
 20
5.974439976701454
 30
0.0
 11
6.712941089444301
 21
5.9660969197114
 31
0.0
 12
6.670422769351469
 22
5.975267446769386
 32
0.0
 13
6.699592454320191
 23
5.957992834336515
 33
0.0
  0
SOLID
  5
61EC
330
18
100
AcDbEntity
  8
S3
100
AcDbTrace
 10
6.562744108814912
 20
5.846385017456938
 30
0.0
 11
6.562744108814912
 21
6.080547010621291
 31
0.0
 12
6.61057987004604
 22
5.846385017456938
 32
0.0
 13
6.61057987004604
 23
6.075445162200093
 33
0.0
  0
POLYLINE
  5
61ED
330
18
100
AcDbEntity
  8
S3
100
AcDb2dPolyline
 66
     1
 10
0.0
 20
0.0
 30
0.0
 40
0.0093664797265741
 41
0.0093664797265741
  0
VERTEX
  5
653E
330
61ED
100
AcDbEntity
  8
S3
100
AcDbVertex
100
AcDb2dVertex
 10
6.553673510962434
 20
5.925935798968684
 30
0.0
 42
0.1406948172011772
  0
VERTEX
  5
653F
330
61ED
100
AcDbEntity
  8
S3
100
AcDbVertex
100
AcDb2dVertex
 10
6.551929780817241
 20
6.008545366019237
 30
0.0
 42
0.1406948172011772
  0
SEQEND
  5
6540
330
61ED
100
AcDbEntity
  8
S3
  0
SOLID
  5
61EE
330
18
100
AcDbEntity
  8
S3
100
AcDbTrace
 10
6.61057987004604
 20
5.975267446769386
 30
0.0
 11
6.61057987004604
 21
5.939968695611447
 31
0.0
 12
6.670422769351469
 22
5.975267446769386
 32
0.0
 13
6.656188575052434
 23
5.939968695611447
 33
0.0
  0
SOLID
  5
61EF
330
18
100
AcDbEntity
  8
S3
100
AcDbTrace
 10
6.676620321461166
 20
5.941725472390348
 30
0.0
 11
6.699592454320191
 21
5.957992834336515
 31
0.0
 12
6.656188575052434
 22
5.939968695611447
 32
0.0
 13
6.670422769351469
 23
5.975267446769386
 33
0.0
  0
LINE
  5
61F0
330
18
100
AcDbEntity
  8
S3
100
AcDbLine
 10
6.753491300602251
 20
6.080547010621291
 30
0.0
 11
6.753491300602251
 21
5.846385017456938
 31
0.0
  0
POLYLINE
  5
61F1
330
18
100
AcDbEntity
  8
S3
100
AcDb2dPolyline
 66
     1
 10
0.0
 20
0.0
 30
0.0
 40
0.0093664797265741
 41
0.0093664797265741
  0
VERTEX
  5
6541
330
61F1
100
AcDbEntity
  8
S3
100
AcDbVertex
100
AcDb2dVertex
 10
6.744116901732612
 20
5.861441980302643
 30
0.0
 42
0.0950669764493849
  0
VERTEX
  5
6542
330
61F1
100
AcDbEntity
  8
S3
100
AcDbVertex
100
AcDb2dVertex
 10
6.747857331194305
 20
5.848805150503025
 30
0.0
 42
0.1404915454274296
  0
SEQEND
  5
6543
330
61F1
100
AcDbEntity
  8
S3
  0
SOLID
  5
61F2
330
18
100
AcDbEntity
  8
S3
100
AcDbTrace
 10
6.706650069418879
 20
5.846385017456938
 30
0.0
 11
6.754927656895889
 21
5.846385017456938
 31
0.0
 12
6.704438294233442
 22
5.852896219192977
 32
0.0
 13
6.747873582231955
 23
5.85746159983185
 33
0.0
  0
SOLID
  5
61F3
330
18
100
AcDbEntity
  8
S3
100
AcDbTrace
 10
6.699151583429626
 20
5.900529039072178
 30
0.0
 11
6.702766011302289
 21
5.858339955079941
 31
0.0
 12
6.743644709728068
 22
5.913995323264785
 32
0.0
 13
6.748777572713139
 23
5.861901198800069
 33
0.0
  0
SOLID
  5
61F4
330
18
100
AcDbEntity
  8
S3
100
AcDbTrace
 10
6.704438294233442
 20
5.852896219192977
 30
0.0
 11
6.747873582231955
 21
5.85746159983185
 31
0.0
 12
6.702766011302289
 22
5.858339955079941
 32
0.0
 13
6.748777572713139
 23
5.861901198800069
 33
0.0
  0
POLYLINE
  5
61F5
330
18
100
AcDbEntity
  8
S3
100
AcDb2dPolyline
 66
     1
 10
0.0
 20
0.0
 30
0.0
 40
0.0093664797265741
 41
0.0093664797265741
  0
VERTEX
  5
6544
330
61F5
100
AcDbEntity
  8
S3
100
AcDbVertex
100
AcDb2dVertex
 10
6.707432158387762
 20
5.858739713749429
 30
0.0
 42
0.1148360225250129
  0
VERTEX
  5
6545
330
61F5
100
AcDbEntity
  8
S3
100
AcDbVertex
100
AcDb2dVertex
 10
6.710660157173899
 20
5.848804094101886
 30
0.0
 42
0.1148360225250129
  0
SEQEND
  5
6546
330
61F5
100
AcDbEntity
  8
S3
  0
SOLID
  5
61F6
330
18
100
AcDbEntity
  8
S3
100
AcDbTrace
 10
6.699151583429626
 20
5.900529039072178
 30
0.0
 11
6.743644709728068
 21
5.913995323264785
 31
0.0
 12
6.700090330285336
 22
5.914507186351535
 32
0.0
 13
6.738079669057926
 23
5.927812310805602
 33
0.0
  0
SOLID
  5
61F7
330
18
100
AcDbEntity
  8
S3
100
AcDbTrace
 10
6.700090330285336
 20
5.914507186351535
 30
0.0
 11
6.738079669057926
 21
5.927812310805602
 31
0.0
 12
6.689326684299773
 22
5.929079465515513
 32
0.0
 13
6.714652910148162
 23
5.946819631454271
 33
0.0
  0
SOLID
  5
61F8
330
18
100
AcDbEntity
  8
S3
100
AcDbTrace
 10
6.689326684299773
 20
5.929079465515513
 30
0.0
 11
6.714652910148162
 21
5.946819631454271
 31
0.0
 12
6.676620321461166
 22
5.941725472390348
 32
0.0
 13
6.699592454320191
 23
5.957992834336515
 33
0.0
  0
POLYLINE
  5
61F9
330
18
100
AcDbEntity
  8
S3
100
AcDb2dPolyline
 66
     1
 10
0.0
 20
0.0
 30
0.0
 40
0.0093664797265741
 41
0.0093664797265741
  0
VERTEX
  5
6547
330
61F9
100
AcDbEntity
  8
S3
100
AcDbVertex
100
AcDb2dVertex
 10
6.703817730515099
 20
5.900928797741663
 30
0.0
 42
0.3893977487990803
  0
VERTEX
  5
6548
330
61F9
100
AcDbEntity
  8
S3
100
AcDbVertex
100
AcDb2dVertex
 10
6.656188575052434
 20
5.944651935474734
 30
0.0
 42
0.3893977487990803
  0
SEQEND
  5
6549
330
61F9
100
AcDbEntity
  8
S3
  0
SOLID
  5
61FA
330
18
100
AcDbEntity
  8
S3
100
AcDbTrace
 10
6.61057987004604
 20
6.044848836761769
 30
0.0
 11
6.61057987004604
 21
6.075445162200093
 31
0.0
 12
6.670422769351469
 22
6.044848836761769
 32
0.0
 13
6.691995945411109
 23
6.080547010621291
 33
0.0
  0
POLYLINE
  5
61FB
330
18
100
AcDbEntity
  8
S3
100
AcDb2dPolyline
 66
     1
 10
0.0
 20
0.0
 30
0.0
 40
0.0093664797265741
 41
0.0093664797265741
  0
VERTEX
  5
654A
330
61FB
100
AcDbEntity
  8
S3
100
AcDbVertex
100
AcDb2dVertex
 10
6.691995945411109
 20
6.075863770758004
 30
0.0
  0
VERTEX
  5
654B
330
61FB
100
AcDbEntity
  8
S3
100
AcDbVertex
100
AcDb2dVertex
 10
6.562744108814912
 20
6.075863770758004
 30
0.0
  0
SEQEND
  5
654C
330
61FB
100
AcDbEntity
  8
S3
  0
SOLID
  5
61FC
330
18
100
AcDbEntity
  8
S3
100
AcDbTrace
 10
6.690519586241913
 20
6.047436000485454
 30
0.0
 11
6.707003044103858
 21
6.07411817725756
 31
0.0
 12
6.670422769351469
 22
6.044848836761769
 32
0.0
 13
6.691995945411109
 23
6.080547010621291
 33
0.0
  0
SOLID
  5
61FD
330
18
100
AcDbEntity
  8
S3
100
AcDbTrace
 10
6.706518236519686
 20
6.030456433448662
 30
0.0
 11
6.742878805332816
 21
6.049376522432517
 31
0.0
 12
6.690519586241913
 22
6.047436000485454
 32
0.0
 13
6.707003044103858
 23
6.07411817725756
 33
0.0
  0
SOLID
  5
61FE
330
18
100
AcDbEntity
  8
S3
100
AcDbTrace
 10
6.711366312361443
 20
6.011051213978042
 30
0.0
 11
6.747726881174566
 21
5.999408082295669
 31
0.0
 12
6.706518236519686
 22
6.030456433448662
 32
0.0
 13
6.742878805332816
 23
6.049376522432517
 33
0.0
  0
POLYLINE
  5
61FF
330
18
100
AcDbEntity
  8
S3
100
AcDb2dPolyline
 66
     1
 10
0.0
 20
0.0
 30
0.0
 40
0.0093664797265741
 41
0.0093664797265741
  0
VERTEX
  5
654D
330
61FF
100
AcDbEntity
  8
S3
100
AcDbVertex
100
AcDb2dVertex
 10
6.670422769351469
 20
5.970584206906099
 30
0.0
 42
1.0
  0
VERTEX
  5
654E
330
61FF
100
AcDbEntity
  8
S3
100
AcDbVertex
100
AcDb2dVertex
 10
6.670422769351469
 20
6.049532076625055
 30
0.0
 42
1.0
  0
SEQEND
  5
654F
330
61FF
100
AcDbEntity
  8
S3
  0
SOLID
  5
6200
330
18
100
AcDbEntity
  8
S3
100
AcDbTrace
 10
6.695045587115147
 20
5.974439976701454
 30
0.0
 11
6.712941089444301
 21
5.9660969197114
 31
0.0
 12
6.711366312361443
 22
6.011051213978042
 32
0.0
 13
6.747726881174566
 23
5.999408082295669
 33
0.0
  0
LINE
  5
6201
330
18
100
AcDbEntity
  8
S3
100
AcDbLine
 10
7.116417211298058
 20
6.080547010621291
 30
0.0
 11
7.116417211298058
 21
5.862946224606378
 31
0.0
  0
LINE
  5
6202
330
18
100
AcDbEntity
  8
S3
100
AcDbLine
 10
6.917486652514904
 20
5.886192556294876
 30
0.0
 11
6.802665319166765
 21
5.886192556294876
 31
0.0
  0
LINE
  5
6203
330
18
100
AcDbEntity
  8
S3
100
AcDbLine
 10
6.802665319166765
 20
5.886192556294876
 30
0.0
 11
6.802665319166765
 21
6.080547010621291
 31
0.0
  0
POLYLINE
  5
6204
330
18
100
AcDbEntity
  8
S3
100
AcDb2dPolyline
 66
     1
 10
0.0
 20
0.0
 30
0.0
  0
VERTEX
  5
6550
330
6204
100
AcDbEntity
  8
S3
100
AcDbVertex
100
AcDb2dVertex
 10
7.057613035366715
 20
5.896729845987273
 30
0.0
  0
VERTEX
  5
6551
330
6204
100
AcDbEntity
  8
S3
100
AcDbVertex
100
AcDb2dVertex
 10
6.968038380696826
 20
5.896729845987273
 30
0.0
  0
VERTEX
  5
6552
330
6204
100
AcDbEntity
  8
S3
100
AcDbVertex
100
AcDb2dVertex
 10
6.952528994791949
 20
5.846385017456935
 30
0.0
  0
VERTEX
  5
6553
330
6204
100
AcDbEntity
  8
S3
100
AcDbVertex
100
AcDb2dVertex
 10
6.903354976227435
 20
5.846385017456935
 30
0.0
  0
SEQEND
  5
6554
330
6204
100
AcDbEntity
  8
S3
  0
LINE
  5
6205
330
18
100
AcDbEntity
  8
S3
100
AcDbLine
 10
7.046792533572622
 20
5.931854144961924
 30
0.0
 11
7.012825708031778
 21
6.042113443303069
 31
0.0
  0
LINE
  5
6206
330
18
100
AcDbEntity
  8
S3
100
AcDbLine
 10
7.012825708031778
 20
6.042113443303069
 30
0.0
 11
6.978858882490927
 21
5.931854144961924
 31
0.0
  0
LINE
  5
6207
330
18
100
AcDbEntity
  8
S3
100
AcDbLine
 10
6.978858882490927
 20
5.931854144961924
 30
0.0
 11
7.046792533572622
 21
5.931854144961924
 31
0.0
  0
POLYLINE
  5
6208
330
18
100
AcDbEntity
  8
S3
100
AcDb2dPolyline
 66
     1
 10
0.0
 20
0.0
 30
0.0
  0
VERTEX
  5
6555
330
6208
100
AcDbEntity
  8
S3
100
AcDbVertex
100
AcDb2dVertex
 10
6.917486652514904
 20
5.886192556294876
 30
0.0
  0
VERTEX
  5
6556
330
6208
100
AcDbEntity
  8
S3
100
AcDbVertex
100
AcDb2dVertex
 10
6.986482483800779
 20
6.080547010621291
 30
0.0
  0
VERTEX
  5
6557
330
6208
100
AcDbEntity
  8
S3
100
AcDbVertex
100
AcDb2dVertex
 10
7.039168932262763
 20
6.080547010621291
 30
0.0
  0
VERTEX
  5
6558
330
6208
100
AcDbEntity
  8
S3
100
AcDbVertex
100
AcDb2dVertex
 10
7.116417211298058
 20
5.862946224606375
 30
0.0
  0
SEQEND
  5
6559
330
6208
100
AcDbEntity
  8
S3
  0
POLYLINE
  5
6209
330
18
100
AcDbEntity
  8
S3
100
AcDb2dPolyline
 66
     1
 10
0.0
 20
0.0
 30
0.0
  0
VERTEX
  5
655A
330
6209
100
AcDbEntity
  8
S3
100
AcDbVertex
100
AcDb2dVertex
 10
7.122296439836107
 20
5.846385017456935
 30
0.0
  0
VERTEX
  5
655B
330
6209
100
AcDbEntity
  8
S3
100
AcDbVertex
100
AcDb2dVertex
 10
7.0731224212716
 20
5.846385017456935
 30
0.0
  0
VERTEX
  5
655C
330
6209
100
AcDbEntity
  8
S3
100
AcDbVertex
100
AcDb2dVertex
 10
7.057613035366715
 20
5.896729845987273
 30
0.0
  0
SEQEND
  5
655D
330
6209
100
AcDbEntity
  8
S3
  0
POLYLINE
  5
620A
330
18
100
AcDbEntity
  8
S3
100
AcDb2dPolyline
 66
     1
 10
0.0
 20
0.0
 30
0.0
  0
VERTEX
  5
655E
330
620A
100
AcDbEntity
  8
S3
100
AcDbVertex
100
AcDb2dVertex
 10
7.307723755315715
 20
5.916756565849972
 30
0.0
  0
VERTEX
  5
655F
330
620A
100
AcDbEntity
  8
S3
100
AcDbVertex
100
AcDb2dVertex
 10
7.345270332747128
 20
5.916756565849972
 30
0.0
 42
0.3020440864755188
  0
VERTEX
  5
6560
330
620A
100
AcDbEntity
  8
S3
100
AcDbVertex
100
AcDb2dVertex
 10
7.369282001339273
 20
5.88138096109845
 30
0.0
 42
0.2653699712401423
  0
VERTEX
  5
6561
330
620A
100
AcDbEntity
  8
S3
100
AcDbVertex
100
AcDb2dVertex
 10
7.433660882882621
 20
5.889861807874837
 30
0.0
 42
0.6356064402471244
  0
VERTEX
  5
6562
330
620A
100
AcDbEntity
  8
S3
100
AcDbVertex
100
AcDb2dVertex
 10
7.423269782094651
 20
5.938293922042113
 30
0.0
 42
-0.0009437836138568
  0
VERTEX
  5
6563
330
620A
100
AcDbEntity
  8
S3
100
AcDbVertex
100
AcDb2dVertex
 10
7.34651286823364
 20
5.956181690921006
 30
0.0
 42
-0.3442454331168749
  0
VERTEX
  5
6564
330
620A
100
AcDbEntity
  8
S3
100
AcDbVertex
100
AcDb2dVertex
 10
7.301219977009788
 20
6.012551045367271
 30
0.0
 42
-0.322222187521162
  0
VERTEX
  5
6565
330
620A
100
AcDbEntity
  8
S3
100
AcDbVertex
100
AcDb2dVertex
 10
7.347671494123
 20
6.0790639422299
 30
0.0
 42
-0.1417364340760132
  0
VERTEX
  5
6566
330
620A
100
AcDbEntity
  8
S3
100
AcDbVertex
100
AcDb2dVertex
 10
7.427071777783398
 20
6.083524888996191
 30
0.0
 42
-0.3337744805077131
  0
VERTEX
  5
6567
330
620A
100
AcDbEntity
  8
S3
100
AcDbVertex
100
AcDb2dVertex
 10
7.48404390893827
 20
6.016026152148899
 30
0.0
  0
VERTEX
  5
6568
330
620A
100
AcDbEntity
  8
S3
100
AcDbVertex
100
AcDb2dVertex
 10
7.437741273559618
 20
6.016026152148899
 30
0.0
 42
0.3019792396306431
  0
VERTEX
  5
6569
330
620A
100
AcDbEntity
  8
S3
100
AcDbVertex
100
AcDb2dVertex
 10
7.415621421951309
 20
6.046766330334307
 30
0.0
 42
0.1972875622237244
  0
VERTEX
  5
656A
330
620A
100
AcDbEntity
  8
S3
100
AcDbVertex
100
AcDb2dVertex
 10
7.366517873558033
 20
6.045338884399182
 30
0.0
 42
0.728374493267646
  0
VERTEX
  5
656B
330
620A
100
AcDbEntity
  8
S3
100
AcDbVertex
100
AcDb2dVertex
 10
7.372100490489005
 20
5.993300861409352
 30
0.0
 42
0.0019568917075044
  0
SEQEND
  5
656C
330
620A
100
AcDbEntity
  8
S3
  0
POLYLINE
  5
620B
330
18
100
AcDbEntity
  8
S3
100
AcDb2dPolyline
 66
     1
 10
0.0
 20
0.0
 30
0.0
  0
VERTEX
  5
656D
330
620B
100
AcDbEntity
  8
S3
100
AcDbVertex
100
AcDb2dVertex
 10
7.372100490489005
 20
5.993300861409352
 30
0.0
 42
0.0019568917075044
  0
VERTEX
  5
656E
330
620B
100
AcDbEntity
  8
S3
100
AcDbVertex
100
AcDb2dVertex
 10
7.439156516499361
 20
5.979639596330855
 30
0.0
 42
-0.2136964031287707
  0
VERTEX
  5
656F
330
620B
100
AcDbEntity
  8
S3
100
AcDbVertex
100
AcDb2dVertex
 10
7.48476284625906
 20
5.94776333502714
 30
0.0
 42
-0.2075585583027768
  0
VERTEX
  5
6570
330
620B
100
AcDbEntity
  8
S3
100
AcDbVertex
100
AcDb2dVertex
 10
7.491069589390258
 20
5.899678580295777
 30
0.0
 42
-0.2311984101377718
  0
VERTEX
  5
6571
330
620B
100
AcDbEntity
  8
S3
100
AcDbVertex
100
AcDb2dVertex
 10
7.446709251153572
 20
5.850437709068106
 30
0.0
 42
-0.176335766587305
  0
VERTEX
  5
6572
330
620B
100
AcDbEntity
  8
S3
100
AcDbVertex
100
AcDb2dVertex
 10
7.354115322718316
 20
5.847288553145332
 30
0.0
 42
-0.2115906095274752
  0
VERTEX
  5
6573
330
620B
100
AcDbEntity
  8
S3
100
AcDbVertex
100
AcDb2dVertex
 10
7.304879494207996
 20
5.891538524448531
 30
0.0
  0
SEQEND
  5
6574
330
620B
100
AcDbEntity
  8
S3
  0
LINE
  5
620C
330
18
100
AcDbEntity
  8
S3
100
AcDbLine
 10
7.225486390582618
 20
5.950587104415074
 30
0.0
 11
7.163249609930931
 21
5.950587104415074
 31
0.0
  0
LINE
  5
620D
330
18
100
AcDbEntity
  8
S3
100
AcDbLine
 10
7.163249609930931
 20
5.88268012639741
 30
0.0
 11
7.219448488290369
 21
5.88268012639741
 31
0.0
  0
LINE
  5
620E
330
18
100
AcDbEntity
  8
S3
100
AcDbLine
 10
7.163249609930931
 20
5.986882213355549
 30
0.0
 11
7.222460888533925
 21
5.986882213355549
 31
0.0
  0
LINE
  5
620F
330
18
100
AcDbEntity
  8
S3
100
AcDbLine
 10
7.222460886066629
 20
6.045422711646637
 30
0.0
 11
7.163249609930931
 21
6.045422711646637
 31
0.0
  0
ARC
  5
6210
330
18
100
AcDbEntity
  8
S3
100
AcDbCircle
 10
7.222460888533925
 20
6.016152462501093
 30
0.0
 40
0.0292702491455442
100
AcDbArc
 50
270.0
 51
90.00000482967505
  0
LINE
  5
6211
330
18
100
AcDbEntity
  8
S3
100
AcDbLine
 10
7.163249609930931
 20
5.950587104415074
 30
0.0
 11
7.163249609930931
 21
5.88268012639741
 31
0.0
  0
LINE
  5
6212
330
18
100
AcDbEntity
  8
S3
100
AcDbLine
 10
7.163249609930931
 20
6.045422711646637
 30
0.0
 11
7.163249609930931
 21
5.986882213355549
 31
0.0
  0
ARC
  5
6213
330
18
100
AcDbEntity
  8
S3
100
AcDbCircle
 10
7.230129106282541
 20
5.894588456618258
 30
0.0
 40
0.0840595258168529
100
AcDbArc
 50
41.82143111053796
 51
67.21116987831347
  0
ARC
  5
6214
330
18
100
AcDbEntity
  8
S3
100
AcDbCircle
 10
7.248143201314997
 20
5.910707045122215
 30
0.0
 40
0.0598868860106895
100
AcDbArc
 50
297.4526478761236
 51
341.3323115150401
  0
ARC
  5
6215
330
18
100
AcDbEntity
  8
S3
100
AcDbCircle
 10
7.248143201314997
 20
5.910707045122215
 30
0.0
 40
0.0598868860106895
100
AcDbArc
 50
5.797666812800212
 51
41.82143111053826
  0
ARC
  5
6216
330
18
100
AcDbEntity
  8
S3
100
AcDbCircle
 10
7.219448488290369
 20
5.92425327104971
 30
0.0
 40
0.0415731446522985
100
AcDbArc
 50
270.0
 51
313.2275081247472
  0
ARC
  5
6217
330
18
100
AcDbEntity
  8
S3
100
AcDbCircle
 10
7.225486390582618
 20
5.917829741117056
 30
0.0
 40
0.0327573632980184
100
AcDbArc
 50
313.2275081247474
 51
90.0
  0
ARC
  5
6218
330
18
100
AcDbEntity
  8
S3
100
AcDbCircle
 10
7.229985777982777
 20
5.945657624462629
 30
0.0
 40
0.0992726070056914
100
AcDbArc
 50
269.9999999999951
 51
297.4526478761186
  0
ARC
  5
6219
330
18
100
AcDbEntity
  8
S3
100
AcDbCircle
 10
7.248482475543704
 20
6.021486412741413
 30
0.0
 40
0.052704931452052
100
AcDbArc
 50
358.6532608214001
 51
58.67020583628292
  0
ARC
  5
621A
330
18
100
AcDbEntity
  8
S3
100
AcDbCircle
 10
7.256487065555527
 20
6.021298229932941
 30
0.0
 40
0.0446981297168491
100
AcDbArc
 50
313.1575629115595
 51
358.653260821401
  0
ARC
  5
621B
330
18
100
AcDbEntity
  8
S3
100
AcDbCircle
 10
7.22581817884239
 20
5.984253822375158
 30
0.0
 40
0.0962931882461316
100
AcDbArc
 50
58.67020583628391
 51
90.00000000000076
  0
ARC
  5
621C
330
18
100
AcDbEntity
  8
S3
100
AcDbCircle
 10
7.221790108222018
 20
6.058301621270683
 30
0.0
 40
0.0954241567512806
100
AcDbArc
 50
295.3783953421118
 51
313.1575629115589
  0
SOLID
  5
621D
330
18
100
AcDbEntity
  8
S3
100
AcDbTrace
 10
7.528332649741701
 20
5.976472167265018
 30
0.0
 11
7.638482451326213
 21
5.976472167265018
 31
0.0
 12
7.528332649741701
 22
5.953340708932273
 32
0.0
 13
7.638482451326213
 23
5.953340708932273
 33
0.0
  0
SOLID
  5
621E
330
18
100
AcDbEntity
  8
S3
100
AcDbTrace
 10
7.528332649741701
 20
5.906527043258854
 30
0.0
 11
7.638480051358195
 21
5.975879110943314
 31
0.0
 12
7.528340858033923
 22
5.884453521044893
 32
0.0
 13
7.638482451326213
 23
5.952789959924349
 33
0.0
  0
SOLID
  5
621F
330
18
100
AcDbEntity
  8
S3
100
AcDbTrace
 10
7.528332656650777
 20
5.840437163358618
 30
0.0
 11
7.528332656650777
 21
5.863568621691367
 31
0.0
 12
7.638482458235289
 22
5.840437163358618
 32
0.0
 13
7.638482458235289
 23
5.863568621691367
 33
0.0
  0
SOLID
  5
6220
330
18
100
AcDbEntity
  8
S3
100
AcDbTrace
 10
7.638482451326213
 20
5.882844835918184
 30
0.0
 11
7.528332649741701
 21
5.882844835918184
 31
0.0
 12
7.638482451326213
 22
5.905976294250933
 32
0.0
 13
7.528332649741701
 23
5.905976294250933
 33
0.0
  0
POLYLINE
  5
6221
330
18
100
AcDbEntity
  8
S3
100
AcDb2dPolyline
 66
     1
 10
0.0
 20
0.0
 30
0.0
 40
0.0044059920633805
 41
0.0044059920633805
  0
VERTEX
  5
6575
330
6221
100
AcDbEntity
  8
S3
100
AcDbVertex
100
AcDb2dVertex
 10
7.530033476987989
 20
6.056576027957891
 30
0.0
 42
0.3986208060685013
  0
VERTEX
  5
6576
330
6221
100
AcDbEntity
  8
S3
100
AcDbVertex
100
AcDb2dVertex
 10
7.559462700033607
 20
5.993754832333447
 30
0.0
 42
0.3986208060685013
  0
SEQEND
  5
6577
330
6221
100
AcDbEntity
  8
S3
  0
SOLID
  5
6222
330
18
100
AcDbEntity
  8
S3
100
AcDbTrace
 10
7.554587774373574
 20
6.064113365753588
 30
0.0
 11
7.543484788985319
 21
6.076217651477772
 31
0.0
 12
7.540860446984462
 22
6.049386484789163
 32
0.0
 13
7.528142481903367
 23
6.054631675269643
 33
0.0
  0
SOLID
  5
6223
330
18
100
AcDbEntity
  8
S3
100
AcDbTrace
 10
7.543081044062107
 20
6.025984865722406
 30
0.0
 11
7.529757461596199
 21
6.020537937146524
 31
0.0
 12
7.564075780068998
 22
6.009240603803952
 32
0.0
 13
7.552770922219133
 23
5.995724151411945
 33
0.0
  0
POLYLINE
  5
6224
330
18
100
AcDbEntity
  8
S3
100
AcDb2dPolyline
 66
     1
 10
0.0
 20
0.0
 30
0.0
 40
0.0044059920633805
 41
0.0044059920633805
  0
VERTEX
  5
6578
330
6224
100
AcDbEntity
  8
S3
100
AcDbVertex
100
AcDb2dVertex
 10
7.561854005766344
 20
6.083194191010157
 30
0.0
 42
0.2841209316902218
  0
VERTEX
  5
6579
330
6224
100
AcDbEntity
  8
S3
100
AcDbVertex
100
AcDb2dVertex
 10
7.530033476987989
 20
6.056576027957891
 30
0.0
 42
0.2888447634665965
  0
SEQEND
  5
657A
330
6224
100
AcDbEntity
  8
S3
  0
SOLID
  5
6225
330
18
100
AcDbEntity
  8
S3
100
AcDbTrace
 10
7.554587774373574
 20
6.064113365753588
 30
0.0
 11
7.543484788985319
 21
6.076217651477772
 31
0.0
 12
7.559237353005373
 22
6.065304271284514
 32
0.0
 13
7.557804709729468
 23
6.084371775140354
 33
0.0
  0
POLYLINE
  5
6226
330
18
100
AcDbEntity
  8
S3
100
AcDb2dPolyline
 66
     1
 10
0.0
 20
0.0
 30
0.0
 40
0.0044059920633805
 41
0.0044059920633805
  0
VERTEX
  5
657B
330
6226
100
AcDbEntity
  8
S3
100
AcDbVertex
100
AcDb2dVertex
 10
7.561918837267421
 20
6.06609925514056
 30
0.0
 42
0.3426274439635524
  0
VERTEX
  5
657C
330
6226
100
AcDbEntity
  8
S3
100
AcDbVertex
100
AcDb2dVertex
 10
7.540675140306897
 20
6.043508996462534
 30
0.0
 42
0.2942809489964497
  0
VERTEX
  5
657D
330
6226
100
AcDbEntity
  8
S3
100
AcDbVertex
100
AcDb2dVertex
 10
7.555813148153811
 20
6.014281834394054
 30
0.0
 42
0.2735375373643303
  0
VERTEX
  5
657E
330
6226
100
AcDbEntity
  8
S3
100
AcDbVertex
100
AcDb2dVertex
 10
7.610908123397161
 20
6.015026660689294
 30
0.0
 42
0.208169861593478
  0
VERTEX
  5
657F
330
6226
100
AcDbEntity
  8
S3
100
AcDbVertex
100
AcDb2dVertex
 10
7.624911252442368
 20
6.034943557684883
 30
0.0
 42
0.4189849082168211
  0
VERTEX
  5
6580
330
6226
100
AcDbEntity
  8
S3
100
AcDbVertex
100
AcDb2dVertex
 10
7.603321948995786
 20
6.067102959860939
 30
0.0
 42
0.4189849082168211
  0
SEQEND
  5
6581
330
6226
100
AcDbEntity
  8
S3
  0
SOLID
  5
6227
330
18
100
AcDbEntity
  8
S3
100
AcDbTrace
 10
7.540860446984462
 20
6.049386484789163
 30
0.0
 11
7.528142481903367
 21
6.054631675269643
 31
0.0
 12
7.543081044062107
 22
6.025984865722406
 32
0.0
 13
7.529757461596199
 23
6.020537937146524
 33
0.0
  0
SOLID
  5
6228
330
18
100
AcDbEntity
  8
S3
100
AcDbTrace
 10
7.625571992687179
 20
6.038362474027458
 30
0.0
 11
7.639846329327101
 21
6.031230056202886
 31
0.0
 12
7.61977304342721
 22
6.057530846931001
 32
0.0
 13
7.63337827053713
 23
6.066669257268735
 33
0.0
  0
POLYLINE
  5
6229
330
18
100
AcDbEntity
  8
S3
100
AcDb2dPolyline
 66
     1
 10
0.0
 20
0.0
 30
0.0
 40
0.0044059920633805
 41
0.0044059920633805
  0
VERTEX
  5
6582
330
6229
100
AcDbEntity
  8
S3
100
AcDbVertex
100
AcDb2dVertex
 10
7.622019726764102
 20
6.003503438942111
 30
0.0
 42
0.1790006504245718
  0
VERTEX
  5
6583
330
6229
100
AcDbEntity
  8
S3
100
AcDbVertex
100
AcDb2dVertex
 10
7.638260032446533
 20
6.031012742962015
 30
0.0
 42
0.1790006504245718
  0
SEQEND
  5
6584
330
6229
100
AcDbEntity
  8
S3
  0
SOLID
  5
622A
330
18
100
AcDbEntity
  8
S3
100
AcDbTrace
 10
7.615981422757231
 20
6.016742332496722
 30
0.0
 11
7.624233773627191
 21
6.00314616101863
 31
0.0
 12
7.625571992687179
 22
6.038362474027458
 32
0.0
 13
7.639846329327101
 23
6.031230056202886
 33
0.0
  0
SOLID
  5
622B
330
18
100
AcDbEntity
  8
S3
100
AcDbTrace
 10
7.61977304342721
 20
6.057530846931001
 30
0.0
 11
7.63337827053713
 21
6.066669257268735
 31
0.0
 12
7.605940839566395
 22
6.065678510070192
 32
0.0
 13
7.60828325379216
 23
6.085906503124199
 33
0.0
  0
POLYLINE
  5
622C
330
18
100
AcDbEntity
  8
S3
100
AcDb2dPolyline
 66
     1
 10
0.0
 20
0.0
 30
0.0
 40
0.0044059920633805
 41
0.0044059920633805
  0
VERTEX
  5
6585
330
622C
100
AcDbEntity
  8
S3
100
AcDbVertex
100
AcDb2dVertex
 10
7.638260032446533
 20
6.031012742962015
 30
0.0
 42
0.1521907920671271
  0
VERTEX
  5
6586
330
622C
100
AcDbEntity
  8
S3
100
AcDbVertex
100
AcDb2dVertex
 10
7.634421780139634
 20
6.062056826843861
 30
0.0
 42
0.1521907920671271
  0
SEQEND
  5
6587
330
622C
100
AcDbEntity
  8
S3
  0
SOLID
  5
622D
330
18
100
AcDbEntity
  8
S3
100
AcDbTrace
 10
7.559237353005373
 20
6.065304271284514
 30
0.0
 11
7.557804709729468
 21
6.084371775140354
 31
0.0
 12
7.562260948128519
 22
6.063922985011565
 32
0.0
 13
7.562260948128519
 23
6.085472050782442
 33
0.0
  0
SOLID
  5
622E
330
18
100
AcDbEntity
  8
S3
100
AcDbTrace
 10
7.564075780068998
 20
6.009240603803952
 30
0.0
 11
7.552770922219133
 21
5.995724151411945
 31
0.0
 12
7.586685495768714
 22
6.007424960945321
 32
0.0
 13
7.587896730538341
 23
5.988663318072838
 33
0.0
  0
SOLID
  5
622F
330
18
100
AcDbEntity
  8
S3
100
AcDbTrace
 10
7.586685495768714
 20
6.007424960945321
 30
0.0
 11
7.587896730538341
 21
5.988663318072838
 31
0.0
 12
7.615981422757231
 22
6.016742332496722
 32
0.0
 13
7.624233773627191
 23
6.00314616101863
 33
0.0
  0
POLYLINE
  5
6230
330
18
100
AcDbEntity
  8
S3
100
AcDb2dPolyline
 66
     1
 10
0.0
 20
0.0
 30
0.0
 40
0.0044059920633805
 41
0.0044059920633805
  0
VERTEX
  5
6588
330
6230
100
AcDbEntity
  8
S3
100
AcDbVertex
100
AcDb2dVertex
 10
7.634421780139634
 20
6.062056826843861
 30
0.0
 42
0.2619660936757589
  0
VERTEX
  5
6589
330
6230
100
AcDbEntity
  8
S3
100
AcDbVertex
100
AcDb2dVertex
 10
7.603218740456968
 20
6.084965542791451
 30
0.0
 42
0.2656465770789468
  0
SEQEND
  5
658A
330
6230
100
AcDbEntity
  8
S3
  0
SOLID
  5
6231
330
18
100
AcDbEntity
  8
S3
100
AcDbTrace
 10
7.605940839566395
 20
6.065678510070192
 30
0.0
 11
7.60828325379216
 21
6.085906503124199
 31
0.0
 12
7.602914445626511
 22
6.064937981219085
 32
0.0
 13
7.602914445626511
 23
6.087217720567565
 33
0.0
  0
POLYLINE
  5
6232
330
18
100
AcDbEntity
  8
S3
100
AcDb2dPolyline
 66
     1
 10
0.0
 20
0.0
 30
0.0
 40
0.0044059920633805
 41
0.0044059920633805
  0
VERTEX
  5
658B
330
6232
100
AcDbEntity
  8
S3
100
AcDbVertex
100
AcDb2dVertex
 10
7.559462700033607
 20
5.993754832333447
 30
0.0
 42
0.2706611322925477
  0
VERTEX
  5
658C
330
6232
100
AcDbEntity
  8
S3
100
AcDbVertex
100
AcDb2dVertex
 10
7.622019726764102
 20
6.003503438942111
 30
0.0
 42
0.2706611322925477
  0
SEQEND
  5
658D
330
6232
100
AcDbEntity
  8
S3
  0
LINE
  5
6233
330
18
100
AcDbEntity
  8
0
100
AcDbLine
 10
9.357811530259601
 20
4.308445728142945
 30
0.0
 11
9.357811530259599
 21
5.114445728142946
 31
0.0
  0
TEXT
  5
6234
330
18
100
AcDbEntity
  8
S3
  6
CONTINUOUS
100
AcDbText
 10
8.93910552471828
 20
4.262772064970917
 30
0.0
 40
0.08
  1
TO INTERFACE
 50
90.0
100
AcDbText
  0
LINE
  5
6235
330
18
100
AcDbEntity
  8
OUTER_HOUSING
100
AcDbLine
 10
9.0078115302596
 20
3.244445728142945
 30
0.0
 11
9.0078115302596
 21
6.194445728142941
 31
0.0
  0
LINE
  5
6236
330
18
100
AcDbEntity
  8
0
100
AcDbLine
 10
9.257811530259598
 20
4.300323908369886
 30
0.0
 11
9.007811530259601
 21
4.300323908369886
 31
0.0
  0
LINE
  5
6237
330
18
100
AcDbEntity
  8
0
100
AcDbLine
 10
9.2578115302596
 20
4.210896528031254
 30
0.0
 11
9.0078115302596
 21
4.210896528031254
 31
0.0
  0
LINE
  5
6238
330
18
100
AcDbEntity
  8
0
100
AcDbLine
 10
9.2578115302596
 20
4.130018347804316
 30
0.0
 11
9.0078115302596
 21
4.130018347804314
 31
0.0
  0
LINE
  5
6239
330
18
100
AcDbEntity
  8
0
100
AcDbLine
 10
9.357811530259599
 20
4.308445728142945
 30
0.0
 11
9.0078115302596
 21
4.308445728142945
 31
0.0
  0
LINE
  5
623A
330
18
100
AcDbEntity
  8
0
100
AcDbLine
 10
9.2578115302596
 20
4.130018347804316
 30
0.0
 11
9.2578115302596
 21
4.308445728142947
 31
0.0
  0
LINE
  5
623B
330
18
100
AcDbEntity
  8
0
100
AcDbLine
 10
9.2578115302596
 20
5.29275459130994
 30
0.0
 11
9.0078115302596
 21
5.29275459130994
 31
0.0
  0
LINE
  5
623C
330
18
100
AcDbEntity
  8
0
100
AcDbLine
 10
9.2578115302596
 20
5.284483642608998
 30
0.0
 11
9.0078115302596
 21
5.284483642608998
 31
0.0
  0
LINE
  5
623D
330
18
100
AcDbEntity
  8
0
100
AcDbLine
 10
9.2578115302596
 20
5.195174779442005
 30
0.0
 11
9.0078115302596
 21
5.195174779442004
 31
0.0
  0
LINE
  5
623E
330
18
100
AcDbEntity
  8
0
100
AcDbLine
 10
9.357811530259599
 20
5.114445728142946
 30
0.0
 11
9.0078115302596
 21
5.114445728142946
 31
0.0
  0
LINE
  5
623F
330
18
100
AcDbEntity
  8
0
100
AcDbLine
 10
9.2578115302596
 20
5.114445728142946
 30
0.0
 11
9.2578115302596
 21
5.29275459130994
 31
0.0
  0
LINE
  5
6240
330
18
100
AcDbEntity
  8
OUTER_HOUSING
100
AcDbLine
 10
14.31175257426731
 20
6.194445728142945
 30
0.0
 11
12.2667525742673
 21
6.194445728142943
 31
0.0
  0
LINE
  5
6241
330
18
100
AcDbEntity
  8
OUTER_HOUSING
100
AcDbLine
 10
14.3117525742673
 20
3.24444572814295
 30
0.0
 11
12.2667525742673
 21
3.244445728142943
 31
0.0
  0
LINE
  5
6242
330
18
100
AcDbEntity
  8
0
100
AcDbLine
 10
12.74970420603735
 20
4.473242546554718
 30
0.0
 11
12.74970420603735
 21
4.949648909731173
 31
0.0
  0
LINE
  5
6243
330
18
100
AcDbEntity
  8
0
100
AcDbLine
 10
12.29970420603734
 20
4.440445728142945
 30
0.0
 11
12.29970420603735
 21
4.982445728142947
 31
0.0
  0
CIRCLE
  5
6244
330
18
100
AcDbEntity
  8
0
100
AcDbCircle
 10
12.59970420603735
 20
4.914695728142945
 30
0.0
 40
0.0236721818009187
  0
LINE
  5
6245
330
18
100
AcDbEntity
  8
0
100
AcDbLine
 10
12.78265583780739
 20
4.159445728142946
 30
0.0
 11
12.78265583780739
 21
5.279445728142944
 31
0.0
  0
LINE
  5
6246
330
18
100
AcDbEntity
  8
OUTER_HOUSING
100
AcDbLine
 10
12.2667525742673
 20
5.279445728142944
 30
0.0
 11
12.2667525742673
 21
4.15944572814295
 31
0.0
  0
LINE
  5
6247
330
18
100
AcDbEntity
  8
OUTER_HOUSING
100
AcDbLine
 10
12.2667525742673
 20
6.194445728142943
 30
0.0
 11
12.2667525742673
 21
3.244445728142943
 31
0.0
  0
ARC
  5
6248
330
18
100
AcDbEntity
  8
0
100
AcDbCircle
 10
12.61770420603736
 20
4.473242546554718
 30
0.0
 40
0.132
100
AcDbArc
 50
279.9999999999996
 51
0.0
  0
POLYLINE
  5
6249
330
18
100
AcDbEntity
  8
0
100
AcDb2dPolyline
 66
     1
 10
0.0
 20
0.0
 30
0.0
 70
     1
  0
VERTEX
  5
658E
330
6249
100
AcDbEntity
  8
0
100
AcDbVertex
100
AcDb2dVertex
 10
12.58127101113462
 20
4.138567547916006
 30
0.0
  0
VERTEX
  5
658F
330
6249
100
AcDbEntity
  8
0
100
AcDbVertex
100
AcDb2dVertex
 10
12.62303016727437
 20
4.227994928254636
 30
0.0
  0
VERTEX
  5
6590
330
6249
100
AcDbEntity
  8
0
100
AcDbVertex
100
AcDb2dVertex
 10
12.5664633621771
 20
4.308873108481579
 30
0.0
  0
VERTEX
  5
6591
330
6249
100
AcDbEntity
  8
0
100
AcDbVertex
100
AcDb2dVertex
 10
12.46813740094008
 20
4.300323908369888
 30
0.0
  0
VERTEX
  5
6592
330
6249
100
AcDbEntity
  8
0
100
AcDbVertex
100
AcDb2dVertex
 10
12.42637824480033
 20
4.210896528031254
 30
0.0
  0
VERTEX
  5
6593
330
6249
100
AcDbEntity
  8
0
100
AcDbVertex
100
AcDb2dVertex
 10
12.4829450498976
 20
4.130018347804314
 30
0.0
  0
SEQEND
  5
6594
330
6249
100
AcDbEntity
  8
0
  0
LINE
  5
624A
330
18
100
AcDbEntity
  8
0
100
AcDbLine
 10
12.45462576548939
 20
4.310451104745334
 30
0.0
 11
12.64062576548939
 21
4.343247923157111
 31
0.0
  0
CIRCLE
  5
624B
330
18
100
AcDbEntity
  8
0
100
AcDbCircle
 10
12.44970420603735
 20
4.440445728142943
 30
0.0
 40
0.0236721818009187
  0
LINE
  5
624C
330
18
100
AcDbEntity
  8
0
100
AcDbLine
 10
12.71970420603735
 20
4.096945728142939
 30
0.0
 11
12.32970420603735
 21
4.096945728142946
 31
0.0
  0
ARC
  5
624D
330
18
100
AcDbEntity
  8
0
100
AcDbCircle
 10
12.43170420603735
 20
4.440445728142945
 30
0.0
 40
0.132
100
AcDbArc
 50
180.0
 51
279.9999999999996
  0
ARC
  5
624E
330
18
100
AcDbEntity
  8
0
100
AcDbCircle
 10
12.32970420603735
 20
4.159445728142948
 30
0.0
 40
0.0625
100
AcDbArc
 50
180.0
 51
269.9999999999997
  0
ARC
  5
624F
330
18
100
AcDbEntity
  8
0
100
AcDbCircle
 10
12.71970420603735
 20
4.159445728142943
 30
0.0
 40
0.0625
100
AcDbArc
 50
270.0000000000002
 51
0.0
  0
CIRCLE
  5
6250
330
18
100
AcDbEntity
  8
0
100
AcDbCircle
 10
12.44970420603735
 20
4.575945728142944
 30
0.0
 40
0.0236721818009187
  0
CIRCLE
  5
6251
330
18
100
AcDbEntity
  8
0
100
AcDbCircle
 10
12.44970420603735
 20
4.711445728142944
 30
0.0
 40
0.0236721818009187
  0
CIRCLE
  5
6252
330
18
100
AcDbEntity
  8
0
100
AcDbCircle
 10
12.44970420603735
 20
4.846945728142944
 30
0.0
 40
0.0236721818009187
  0
CIRCLE
  5
6253
330
18
100
AcDbEntity
  8
0
100
AcDbCircle
 10
12.59970420603735
 20
4.508195728142943
 30
0.0
 40
0.0236721818009187
  0
CIRCLE
  5
6254
330
18
100
AcDbEntity
  8
0
100
AcDbCircle
 10
12.59970420603735
 20
4.779195728142944
 30
0.0
 40
0.0236721818009187
  0
CIRCLE
  5
6255
330
18
100
AcDbEntity
  8
0
100
AcDbCircle
 10
12.59970420603735
 20
4.643695728142944
 30
0.0
 40
0.0236721818009187
  0
ARC
  5
6256
330
18
100
AcDbEntity
  8
0
100
AcDbCircle
 10
12.71970420603735
 20
5.27944572814294
 30
0.0
 40
0.0625
100
AcDbArc
 50
0.0
 51
89.99999999999975
  0
ARC
  5
6257
330
18
100
AcDbEntity
  8
0
100
AcDbCircle
 10
12.32970420603735
 20
5.279445728142944
 30
0.0
 40
0.0625
100
AcDbArc
 50
90.00000000000019
 51
180.0
  0
POLYLINE
  5
6258
330
18
100
AcDbEntity
  8
0
100
AcDb2dPolyline
 66
     1
 10
0.0
 20
0.0
 30
0.0
 70
     1
  0
VERTEX
  5
6595
330
6258
100
AcDbEntity
  8
0
100
AcDbVertex
100
AcDb2dVertex
 10
12.48269217876475
 20
5.11413686497595
 30
0.0
  0
VERTEX
  5
6596
330
6258
100
AcDbEntity
  8
0
100
AcDbVertex
100
AcDb2dVertex
 10
12.58104193668678
 20
5.122407813676892
 30
0.0
  0
VERTEX
  5
6597
330
6258
100
AcDbEntity
  8
0
100
AcDbVertex
100
AcDb2dVertex
 10
12.62305396395938
 20
5.211716676843884
 30
0.0
  0
VERTEX
  5
6598
330
6258
100
AcDbEntity
  8
0
100
AcDbVertex
100
AcDb2dVertex
 10
12.56671623330995
 20
5.29275459130994
 30
0.0
  0
VERTEX
  5
6599
330
6258
100
AcDbEntity
  8
0
100
AcDbVertex
100
AcDb2dVertex
 10
12.46836647538793
 20
5.284483642608998
 30
0.0
  0
VERTEX
  5
659A
330
6258
100
AcDbEntity
  8
0
100
AcDbVertex
100
AcDb2dVertex
 10
12.42635444811533
 20
5.195174779442005
 30
0.0
  0
SEQEND
  5
659B
330
6258
100
AcDbEntity
  8
0
  0
LINE
  5
6259
330
18
100
AcDbEntity
  8
0
100
AcDbLine
 10
12.45462576548939
 20
5.112440351540557
 30
0.0
 11
12.64062576548939
 21
5.079643533128781
 31
0.0
  0
CIRCLE
  5
625A
330
18
100
AcDbEntity
  8
0
100
AcDbCircle
 10
12.44970420603735
 20
4.982445728142945
 30
0.0
 40
0.0236721818009187
  0
LINE
  5
625B
330
18
100
AcDbEntity
  8
0
100
AcDbLine
 10
12.71970420603735
 20
5.341945728142947
 30
0.0
 11
12.32970420603735
 21
5.34194572814294
 31
0.0
  0
ARC
  5
625C
330
18
100
AcDbEntity
  8
0
100
AcDbCircle
 10
12.43170420603735
 20
4.982445728142947
 30
0.0
 40
0.132
100
AcDbArc
 50
80.00000000000042
 51
180.0
  0
ARC
  5
625D
330
18
100
AcDbEntity
  8
0
100
AcDbCircle
 10
12.61770420603736
 20
4.949648909731173
 30
0.0
 40
0.132
100
AcDbArc
 50
0.0
 51
80.00000000000033
  0
LINE
  5
625E
330
18
100
AcDbEntity
  8
OUTER_HOUSING
100
AcDbLine
 10
14.1117525742673
 20
6.194445728142943
 30
0.0
 11
14.1117525742673
 21
3.244445728142947
 31
0.0
  0
LINE
  5
625F
330
18
100
AcDbEntity
  8
S1
 62
    41
100
AcDbLine
 10
5.457389645699487
 20
3.80031365070209
 30
0.0011500794155383
 11
5.292785077078955
 21
5.140910281243126
 31
0.0011500794155382
  0
LINE
  5
6260
330
18
100
AcDbEntity
  8
S1
 62
    41
100
AcDbLine
 10
5.457389645699487
 20
3.80031365070209
 30
0.0011500794155383
 11
5.292785077078955
 21
5.140910281243126
 31
0.0011500794155383
  0
LINE
  5
6261
330
18
100
AcDbEntity
  8
S1
 62
    41
100
AcDbLine
 10
5.457389645699487
 20
3.80031365070209
 30
0.001150079415525
 11
5.292785077078955
 21
5.140910281243126
 31
0.001150079415525
  0
LINE
  5
6262
330
18
100
AcDbEntity
  8
S1
 62
    41
100
AcDbLine
 10
5.457389645699487
 20
3.80031365070209
 30
0.001150079415525
 11
5.292785077078955
 21
5.140910281243126
 31
0.0011500794155249
  0
LINE
  5
6263
330
18
100
AcDbEntity
  8
S1
 62
    41
100
AcDbLine
 10
5.458639887066405
 20
3.80031365070209
 30
0.0011500794155283
 11
5.293984769972924
 21
5.141321965518255
 31
0.0011500794155282
  0
LINE
  5
6264
330
18
100
AcDbEntity
  8
S1
 62
    41
100
AcDbLine
 10
5.458639887066405
 20
3.80031365070209
 30
0.0011500794155283
 11
5.293984769972924
 21
5.141321965518255
 31
0.0011500794155283
  0
LINE
  5
6265
330
18
100
AcDbEntity
  8
S1
 62
    41
100
AcDbLine
 10
5.457389645699487
 20
3.80031365070209
 30
0.0011500794155383
 11
5.292785077078955
 21
5.140910281243126
 31
0.0011500794155382
  0
LINE
  5
6266
330
18
100
AcDbEntity
  8
S1
 62
    41
100
AcDbLine
 10
5.457389645699487
 20
3.80031365070209
 30
0.0011500794155383
 11
5.292785077078955
 21
5.140910281243126
 31
0.0011500794155383
  0
LINE
  5
6267
330
18
100
AcDbEntity
  8
S1
 62
    41
100
AcDbLine
 10
5.457389645699487
 20
3.80031365070209
 30
0.001150079415525
 11
5.292785077078955
 21
5.140910281243126
 31
0.001150079415525
  0
LINE
  5
6268
330
18
100
AcDbEntity
  8
S1
 62
    41
100
AcDbLine
 10
5.457389645699487
 20
3.80031365070209
 30
0.001150079415525
 11
5.292785077078955
 21
5.140910281243126
 31
0.0011500794155249
  0
LINE
  5
6269
330
18
100
AcDbEntity
  8
S1
 62
    41
100
AcDbLine
 10
5.458639887066405
 20
3.80031365070209
 30
0.0011500794155283
 11
5.293984769972924
 21
5.141321965518255
 31
0.0011500794155282
  0
LINE
  5
626A
330
18
100
AcDbEntity
  8
S1
 62
    41
100
AcDbLine
 10
5.458639887066405
 20
3.80031365070209
 30
0.0011500794155283
 11
5.293984769972924
 21
5.141321965518255
 31
0.0011500794155283
  0
LINE
  5
626B
330
18
100
AcDbEntity
  8
S1
 62
    41
100
AcDbLine
 10
5.457389645699487
 20
3.80031365070209
 30
0.0011500794155383
 11
5.292785077078955
 21
5.140910281243126
 31
0.0011500794155382
  0
LINE
  5
626C
330
18
100
AcDbEntity
  8
S1
 62
    41
100
AcDbLine
 10
5.457389645699487
 20
3.80031365070209
 30
0.0011500794155383
 11
5.292785077078955
 21
5.140910281243126
 31
0.0011500794155383
  0
LINE
  5
626D
330
18
100
AcDbEntity
  8
S1
 62
    41
100
AcDbLine
 10
5.457389645699487
 20
3.80031365070209
 30
0.001150079415525
 11
5.292785077078955
 21
5.140910281243126
 31
0.001150079415525
  0
LINE
  5
626E
330
18
100
AcDbEntity
  8
S1
 62
    41
100
AcDbLine
 10
5.457389645699487
 20
3.80031365070209
 30
0.001150079415525
 11
5.292785077078955
 21
5.140910281243126
 31
0.0011500794155249
  0
LINE
  5
626F
330
18
100
AcDbEntity
  8
S1
 62
    41
100
AcDbLine
 10
5.458639887066405
 20
3.80031365070209
 30
0.0011500794155283
 11
5.293984769972924
 21
5.141321965518255
 31
0.0011500794155282
  0
LINE
  5
6270
330
18
100
AcDbEntity
  8
S1
 62
    41
100
AcDbLine
 10
5.458639887066405
 20
3.80031365070209
 30
0.0011500794155283
 11
5.293984769972924
 21
5.141321965518255
 31
0.0011500794155283
  0
LINE
  5
6271
330
18
100
AcDbEntity
  8
S1
 62
    41
100
AcDbLine
 10
5.457389645699487
 20
3.80031365070209
 30
0.0011500794155383
 11
5.292785077078955
 21
5.140910281243126
 31
0.0011500794155382
  0
LINE
  5
6272
330
18
100
AcDbEntity
  8
S1
 62
    41
100
AcDbLine
 10
5.457389645699487
 20
3.80031365070209
 30
0.0011500794155383
 11
5.292785077078955
 21
5.140910281243126
 31
0.0011500794155383
  0
LINE
  5
6273
330
18
100
AcDbEntity
  8
S1
 62
    41
100
AcDbLine
 10
5.457389645699487
 20
3.80031365070209
 30
0.001150079415525
 11
5.292785077078955
 21
5.140910281243126
 31
0.001150079415525
  0
LINE
  5
6274
330
18
100
AcDbEntity
  8
S1
 62
    41
100
AcDbLine
 10
5.457389645699487
 20
3.80031365070209
 30
0.001150079415525
 11
5.292785077078955
 21
5.140910281243126
 31
0.0011500794155249
  0
LINE
  5
6275
330
18
100
AcDbEntity
  8
S1
 62
    41
100
AcDbLine
 10
5.458639887066405
 20
3.80031365070209
 30
0.0011500794155283
 11
5.293984769972924
 21
5.141321965518255
 31
0.0011500794155282
  0
LINE
  5
6276
330
18
100
AcDbEntity
  8
S1
 62
    41
100
AcDbLine
 10
5.458639887066405
 20
3.80031365070209
 30
0.0011500794155283
 11
5.293984769972924
 21
5.141321965518255
 31
0.0011500794155283
  0
LINE
  5
6277
330
18
100
AcDbEntity
  8
S1
 62
    41
100
AcDbLine
 10
5.457389645699487
 20
3.80031365070209
 30
0.0011500794155383
 11
5.292785077078955
 21
5.140910281243126
 31
0.0011500794155382
  0
LINE
  5
6278
330
18
100
AcDbEntity
  8
S1
 62
    41
100
AcDbLine
 10
5.457389645699487
 20
3.80031365070209
 30
0.0011500794155383
 11
5.292785077078955
 21
5.140910281243126
 31
0.0011500794155383
  0
LINE
  5
6279
330
18
100
AcDbEntity
  8
S1
 62
    41
100
AcDbLine
 10
5.457389645699487
 20
3.80031365070209
 30
0.001150079415525
 11
5.292785077078955
 21
5.140910281243126
 31
0.001150079415525
  0
LINE
  5
627A
330
18
100
AcDbEntity
  8
S1
 62
    41
100
AcDbLine
 10
5.457389645699487
 20
3.80031365070209
 30
0.001150079415525
 11
5.292785077078955
 21
5.140910281243126
 31
0.0011500794155249
  0
LINE
  5
627B
330
18
100
AcDbEntity
  8
S1
 62
    41
100
AcDbLine
 10
5.458639887066405
 20
3.80031365070209
 30
0.0011500794155283
 11
5.293984769972924
 21
5.141321965518255
 31
0.0011500794155282
  0
LINE
  5
627C
330
18
100
AcDbEntity
  8
S1
 62
    41
100
AcDbLine
 10
5.458639887066405
 20
3.80031365070209
 30
0.0011500794155283
 11
5.293984769972924
 21
5.141321965518255
 31
0.0011500794155283
  0
LINE
  5
627D
330
18
100
AcDbEntity
  8
S1
 62
    41
100
AcDbLine
 10
5.457389645699487
 20
3.80031365070209
 30
0.0011500794155383
 11
5.292785077078955
 21
5.140910281243126
 31
0.0011500794155382
  0
LINE
  5
627E
330
18
100
AcDbEntity
  8
S1
 62
    41
100
AcDbLine
 10
5.457389645699487
 20
3.80031365070209
 30
0.0011500794155383
 11
5.292785077078955
 21
5.140910281243126
 31
0.0011500794155383
  0
LINE
  5
627F
330
18
100
AcDbEntity
  8
S1
 62
    41
100
AcDbLine
 10
5.457389645699487
 20
3.80031365070209
 30
0.001150079415525
 11
5.292785077078955
 21
5.140910281243126
 31
0.001150079415525
  0
LINE
  5
6280
330
18
100
AcDbEntity
  8
S1
 62
    41
100
AcDbLine
 10
5.457389645699487
 20
3.80031365070209
 30
0.001150079415525
 11
5.292785077078955
 21
5.140910281243126
 31
0.0011500794155249
  0
LINE
  5
6281
330
18
100
AcDbEntity
  8
S1
 62
    41
100
AcDbLine
 10
5.458639887066405
 20
3.80031365070209
 30
0.0011500794155283
 11
5.293984769972924
 21
5.141321965518255
 31
0.0011500794155282
  0
LINE
  5
6282
330
18
100
AcDbEntity
  8
S1
 62
    41
100
AcDbLine
 10
5.458639887066405
 20
3.80031365070209
 30
0.0011500794155283
 11
5.293984769972924
 21
5.141321965518255
 31
0.0011500794155283
  0
LINE
  5
6283
330
18
100
AcDbEntity
  8
S1
 62
    41
100
AcDbLine
 10
5.482524710391013
 20
3.80031365070209
 30
0.0033339571986225
 11
5.652059869407063
 21
5.239358130115967
 31
0.0531139713686633
  0
LINE
  5
6284
330
18
100
AcDbEntity
  8
S1
 62
    41
100
AcDbLine
 10
5.482524710391013
 20
3.80031365070209
 30
0.003333957198609
 11
5.652059869407063
 21
5.239358130115967
 31
0.0531139713686498
  0
LINE
  5
6285
330
18
100
AcDbEntity
  8
S1
 62
    41
100
AcDbLine
 10
5.482524710391013
 20
3.80031365070209
 30
0.0045841985655321
 11
5.652057166432543
 21
5.239335186788963
 31
0.0543634190706369
  0
LINE
  5
6286
330
18
100
AcDbEntity
  8
S1
 62
    41
100
AcDbLine
 10
5.482524710391013
 20
3.80031365070209
 30
0.0033339571986225
 11
5.652059869407063
 21
5.239358130115967
 31
0.0531139713686633
  0
LINE
  5
6287
330
18
100
AcDbEntity
  8
S1
 62
    41
100
AcDbLine
 10
5.482524710391013
 20
3.80031365070209
 30
0.003333957198609
 11
5.652059869407063
 21
5.239358130115967
 31
0.0531139713686498
  0
LINE
  5
6288
330
18
100
AcDbEntity
  8
S1
 62
    41
100
AcDbLine
 10
5.482524710391013
 20
3.80031365070209
 30
0.0045841985655321
 11
5.652057166432543
 21
5.239335186788963
 31
0.0543634190706369
  0
LINE
  5
6289
330
18
100
AcDbEntity
  8
S1
 62
    41
100
AcDbLine
 10
5.482524710391013
 20
3.80031365070209
 30
0.0033339571986225
 11
5.652059869407063
 21
5.239358130115967
 31
0.0531139713686633
  0
LINE
  5
628A
330
18
100
AcDbEntity
  8
S1
 62
    41
100
AcDbLine
 10
5.482524710391013
 20
3.80031365070209
 30
0.003333957198609
 11
5.652059869407063
 21
5.239358130115967
 31
0.0531139713686498
  0
LINE
  5
628B
330
18
100
AcDbEntity
  8
S1
 62
    41
100
AcDbLine
 10
5.482524710391013
 20
3.80031365070209
 30
0.0045841985655321
 11
5.652057166432543
 21
5.239335186788963
 31
0.0543634190706369
  0
LINE
  5
628C
330
18
100
AcDbEntity
  8
S1
 62
    41
100
AcDbLine
 10
5.482524710391013
 20
3.80031365070209
 30
0.0033339571986225
 11
5.652059869407063
 21
5.239358130115967
 31
0.0531139713686633
  0
LINE
  5
628D
330
18
100
AcDbEntity
  8
S1
 62
    41
100
AcDbLine
 10
5.482524710391013
 20
3.80031365070209
 30
0.003333957198609
 11
5.652059869407063
 21
5.239358130115967
 31
0.0531139713686498
  0
LINE
  5
628E
330
18
100
AcDbEntity
  8
S1
 62
    41
100
AcDbLine
 10
5.482524710391013
 20
3.80031365070209
 30
0.0045841985655321
 11
5.652057166432543
 21
5.239335186788963
 31
0.0543634190706369
  0
LINE
  5
628F
330
18
100
AcDbEntity
  8
S1
 62
    41
100
AcDbLine
 10
5.482524710391013
 20
3.80031365070209
 30
0.0033339571986225
 11
5.652059869407063
 21
5.239358130115967
 31
0.0531139713686633
  0
LINE
  5
6290
330
18
100
AcDbEntity
  8
S1
 62
    41
100
AcDbLine
 10
5.482524710391013
 20
3.80031365070209
 30
0.003333957198609
 11
5.652059869407063
 21
5.239358130115967
 31
0.0531139713686498
  0
LINE
  5
6291
330
18
100
AcDbEntity
  8
S1
 62
    41
100
AcDbLine
 10
5.482524710391013
 20
3.80031365070209
 30
0.0045841985655321
 11
5.652057166432543
 21
5.239335186788963
 31
0.0543634190706369
  0
LINE
  5
6292
330
18
100
AcDbEntity
  8
S1
 62
    41
100
AcDbLine
 10
5.482524710391013
 20
3.80031365070209
 30
0.0033339571986225
 11
5.652059869407063
 21
5.239358130115967
 31
0.0531139713686633
  0
LINE
  5
6293
330
18
100
AcDbEntity
  8
S1
 62
    41
100
AcDbLine
 10
5.482524710391013
 20
3.80031365070209
 30
0.003333957198609
 11
5.652059869407063
 21
5.239358130115967
 31
0.0531139713686498
  0
LINE
  5
6294
330
18
100
AcDbEntity
  8
S1
 62
    41
100
AcDbLine
 10
5.482524710391013
 20
3.80031365070209
 30
0.0045841985655321
 11
5.652057166432543
 21
5.239335186788963
 31
0.0543634190706369
  0
LINE
  5
6295
330
18
100
AcDbEntity
  8
S1
 62
    41
100
AcDbLine
 10
5.292785077078955
 20
5.140910281243126
 30
0.0011500794155382
 11
5.916789407093327
 21
4.098455044070973
 31
0.0011500794155303
  0
LINE
  5
6296
330
18
100
AcDbEntity
  8
S1
 62
    41
100
AcDbLine
 10
5.292785077078955
 20
5.140910281243126
 30
0.0011500794155383
 11
5.916789407093327
 21
4.098455044070973
 31
0.0011500794155304
  0
LINE
  5
6297
330
18
100
AcDbEntity
  8
S1
 62
    41
100
AcDbLine
 10
5.292785077078955
 20
5.140910281243126
 30
0.001150079415525
 11
5.916789407093327
 21
4.098455044070973
 31
0.0011500794155276
  0
LINE
  5
6298
330
18
100
AcDbEntity
  8
S1
 62
    41
100
AcDbLine
 10
5.292785077078955
 20
5.140910281243126
 30
0.0011500794155249
 11
5.916789407093327
 21
4.098455044070973
 31
0.0011500794155275
  0
LINE
  5
6299
330
18
100
AcDbEntity
  8
S1
 62
    41
100
AcDbLine
 10
5.293984769972924
 20
5.141321965518255
 30
0.0011500794155282
 11
5.916955374852287
 21
4.098594307556311
 31
0.0011500794155282
  0
LINE
  5
629A
330
18
100
AcDbEntity
  8
S1
 62
    41
100
AcDbLine
 10
5.293984769972924
 20
5.141321965518255
 30
0.0011500794155283
 11
5.916955374852287
 21
4.098594307556311
 31
0.0011500794155283
  0
LINE
  5
629B
330
18
100
AcDbEntity
  8
S1
 62
    41
100
AcDbLine
 10
5.292785077078955
 20
5.140910281243126
 30
0.0011500794155382
 11
5.916789407093327
 21
4.098455044070973
 31
0.0011500794155303
  0
LINE
  5
629C
330
18
100
AcDbEntity
  8
S1
 62
    41
100
AcDbLine
 10
5.292785077078955
 20
5.140910281243126
 30
0.0011500794155383
 11
5.916789407093327
 21
4.098455044070973
 31
0.0011500794155304
  0
LINE
  5
629D
330
18
100
AcDbEntity
  8
S1
 62
    41
100
AcDbLine
 10
5.292785077078955
 20
5.140910281243126
 30
0.001150079415525
 11
5.916789407093327
 21
4.098455044070973
 31
0.0011500794155276
  0
LINE
  5
629E
330
18
100
AcDbEntity
  8
S1
 62
    41
100
AcDbLine
 10
5.292785077078955
 20
5.140910281243126
 30
0.0011500794155249
 11
5.916789407093327
 21
4.098455044070973
 31
0.0011500794155275
  0
LINE
  5
629F
330
18
100
AcDbEntity
  8
S1
 62
    41
100
AcDbLine
 10
5.293984769972924
 20
5.141321965518255
 30
0.0011500794155282
 11
5.916955374852287
 21
4.098594307556311
 31
0.0011500794155282
  0
LINE
  5
62A0
330
18
100
AcDbEntity
  8
S1
 62
    41
100
AcDbLine
 10
5.293984769972924
 20
5.141321965518255
 30
0.0011500794155283
 11
5.916955374852287
 21
4.098594307556311
 31
0.0011500794155283
  0
LINE
  5
62A1
330
18
100
AcDbEntity
  8
S1
 62
    41
100
AcDbLine
 10
5.292785077078955
 20
5.140910281243126
 30
0.0011500794155382
 11
5.916789407093327
 21
4.098455044070973
 31
0.0011500794155303
  0
LINE
  5
62A2
330
18
100
AcDbEntity
  8
S1
 62
    41
100
AcDbLine
 10
5.292785077078955
 20
5.140910281243126
 30
0.0011500794155383
 11
5.916789407093327
 21
4.098455044070973
 31
0.0011500794155304
  0
LINE
  5
62A3
330
18
100
AcDbEntity
  8
S1
 62
    41
100
AcDbLine
 10
5.292785077078955
 20
5.140910281243126
 30
0.001150079415525
 11
5.916789407093327
 21
4.098455044070973
 31
0.0011500794155276
  0
LINE
  5
62A4
330
18
100
AcDbEntity
  8
S1
 62
    41
100
AcDbLine
 10
5.292785077078955
 20
5.140910281243126
 30
0.0011500794155249
 11
5.916789407093327
 21
4.098455044070973
 31
0.0011500794155275
  0
LINE
  5
62A5
330
18
100
AcDbEntity
  8
S1
 62
    41
100
AcDbLine
 10
5.293984769972924
 20
5.141321965518255
 30
0.0011500794155282
 11
5.916955374852287
 21
4.098594307556311
 31
0.0011500794155282
  0
LINE
  5
62A6
330
18
100
AcDbEntity
  8
S1
 62
    41
100
AcDbLine
 10
5.293984769972924
 20
5.141321965518255
 30
0.0011500794155283
 11
5.916955374852287
 21
4.098594307556311
 31
0.0011500794155283
  0
LINE
  5
62A7
330
18
100
AcDbEntity
  8
S1
 62
    41
100
AcDbLine
 10
5.292785077078955
 20
5.140910281243126
 30
0.0011500794155382
 11
5.916789407093327
 21
4.098455044070973
 31
0.0011500794155303
  0
LINE
  5
62A8
330
18
100
AcDbEntity
  8
S1
 62
    41
100
AcDbLine
 10
5.292785077078955
 20
5.140910281243126
 30
0.0011500794155383
 11
5.916789407093327
 21
4.098455044070973
 31
0.0011500794155304
  0
LINE
  5
62A9
330
18
100
AcDbEntity
  8
S1
 62
    41
100
AcDbLine
 10
5.292785077078955
 20
5.140910281243126
 30
0.001150079415525
 11
5.916789407093327
 21
4.098455044070973
 31
0.0011500794155276
  0
LINE
  5
62AA
330
18
100
AcDbEntity
  8
S1
 62
    41
100
AcDbLine
 10
5.292785077078955
 20
5.140910281243126
 30
0.0011500794155249
 11
5.916789407093327
 21
4.098455044070973
 31
0.0011500794155275
  0
LINE
  5
62AB
330
18
100
AcDbEntity
  8
S1
 62
    41
100
AcDbLine
 10
5.293984769972924
 20
5.141321965518255
 30
0.0011500794155282
 11
5.916955374852287
 21
4.098594307556311
 31
0.0011500794155282
  0
LINE
  5
62AC
330
18
100
AcDbEntity
  8
S1
 62
    41
100
AcDbLine
 10
5.293984769972924
 20
5.141321965518255
 30
0.0011500794155283
 11
5.916955374852287
 21
4.098594307556311
 31
0.0011500794155283
  0
LINE
  5
62AD
330
18
100
AcDbEntity
  8
S1
 62
    41
100
AcDbLine
 10
5.292785077078955
 20
5.140910281243126
 30
0.0011500794155382
 11
5.916789407093327
 21
4.098455044070973
 31
0.0011500794155303
  0
LINE
  5
62AE
330
18
100
AcDbEntity
  8
S1
 62
    41
100
AcDbLine
 10
5.292785077078955
 20
5.140910281243126
 30
0.0011500794155383
 11
5.916789407093327
 21
4.098455044070973
 31
0.0011500794155304
  0
LINE
  5
62AF
330
18
100
AcDbEntity
  8
S1
 62
    41
100
AcDbLine
 10
5.292785077078955
 20
5.140910281243126
 30
0.001150079415525
 11
5.916789407093327
 21
4.098455044070973
 31
0.0011500794155276
  0
LINE
  5
62B0
330
18
100
AcDbEntity
  8
S1
 62
    41
100
AcDbLine
 10
5.292785077078955
 20
5.140910281243126
 30
0.0011500794155249
 11
5.916789407093327
 21
4.098455044070973
 31
0.0011500794155275
  0
LINE
  5
62B1
330
18
100
AcDbEntity
  8
S1
 62
    41
100
AcDbLine
 10
5.293984769972924
 20
5.141321965518255
 30
0.0011500794155282
 11
5.916955374852287
 21
4.098594307556311
 31
0.0011500794155282
  0
LINE
  5
62B2
330
18
100
AcDbEntity
  8
S1
 62
    41
100
AcDbLine
 10
5.293984769972924
 20
5.141321965518255
 30
0.0011500794155283
 11
5.916955374852287
 21
4.098594307556311
 31
0.0011500794155283
  0
LINE
  5
62B3
330
18
100
AcDbEntity
  8
S1
 62
    41
100
AcDbLine
 10
5.292785077078955
 20
5.140910281243126
 30
0.0011500794155382
 11
5.916789407093327
 21
4.098455044070973
 31
0.0011500794155303
  0
LINE
  5
62B4
330
18
100
AcDbEntity
  8
S1
 62
    41
100
AcDbLine
 10
5.292785077078955
 20
5.140910281243126
 30
0.0011500794155383
 11
5.916789407093327
 21
4.098455044070973
 31
0.0011500794155304
  0
LINE
  5
62B5
330
18
100
AcDbEntity
  8
S1
 62
    41
100
AcDbLine
 10
5.292785077078955
 20
5.140910281243126
 30
0.001150079415525
 11
5.916789407093327
 21
4.098455044070973
 31
0.0011500794155276
  0
LINE
  5
62B6
330
18
100
AcDbEntity
  8
S1
 62
    41
100
AcDbLine
 10
5.292785077078955
 20
5.140910281243126
 30
0.0011500794155249
 11
5.916789407093327
 21
4.098455044070973
 31
0.0011500794155275
  0
LINE
  5
62B7
330
18
100
AcDbEntity
  8
S1
 62
    41
100
AcDbLine
 10
5.293984769972924
 20
5.141321965518255
 30
0.0011500794155282
 11
5.916955374852287
 21
4.098594307556311
 31
0.0011500794155282
  0
LINE
  5
62B8
330
18
100
AcDbEntity
  8
S1
 62
    41
100
AcDbLine
 10
5.293984769972924
 20
5.141321965518255
 30
0.0011500794155283
 11
5.916955374852287
 21
4.098594307556311
 31
0.0011500794155283
  0
LINE
  5
62B9
330
18
100
AcDbEntity
  8
S1
 62
    41
100
AcDbLine
 10
5.652059869407063
 20
5.239358130115967
 30
0.0531139713686633
 11
6.187586292027939
 21
4.32568061034356
 31
0.0547050651319239
  0
LINE
  5
62BA
330
18
100
AcDbEntity
  8
S1
 62
    41
100
AcDbLine
 10
5.652059869407063
 20
5.239358130115967
 30
0.0531139713686498
 11
6.187586292027939
 21
4.32568061034356
 31
0.0547050651319194
  0
LINE
  5
62BB
330
18
100
AcDbEntity
  8
S1
 62
    41
100
AcDbLine
 10
5.652057166432543
 20
5.239335186788963
 30
0.0543634190706369
 11
6.187579255379271
 21
4.325674705894272
 31
0.0551181971737654
  0
LINE
  5
62BC
330
18
100
AcDbEntity
  8
S1
 62
    41
100
AcDbLine
 10
5.652059869407063
 20
5.239358130115967
 30
0.0531139713686633
 11
6.187586292027939
 21
4.32568061034356
 31
0.0547050651319239
  0
LINE
  5
62BD
330
18
100
AcDbEntity
  8
S1
 62
    41
100
AcDbLine
 10
5.652059869407063
 20
5.239358130115967
 30
0.0531139713686498
 11
6.187586292027939
 21
4.32568061034356
 31
0.0547050651319194
  0
LINE
  5
62BE
330
18
100
AcDbEntity
  8
S1
 62
    41
100
AcDbLine
 10
5.652057166432543
 20
5.239335186788963
 30
0.0543634190706369
 11
6.187579255379271
 21
4.325674705894272
 31
0.0551181971737654
  0
LINE
  5
62BF
330
18
100
AcDbEntity
  8
S1
 62
    41
100
AcDbLine
 10
5.652059869407063
 20
5.239358130115967
 30
0.0531139713686633
 11
6.187586292027939
 21
4.32568061034356
 31
0.0547050651319239
  0
LINE
  5
62C0
330
18
100
AcDbEntity
  8
S1
 62
    41
100
AcDbLine
 10
5.652059869407063
 20
5.239358130115967
 30
0.0531139713686498
 11
6.187586292027939
 21
4.32568061034356
 31
0.0547050651319194
  0
LINE
  5
62C1
330
18
100
AcDbEntity
  8
S1
 62
    41
100
AcDbLine
 10
5.652057166432543
 20
5.239335186788963
 30
0.0543634190706369
 11
6.187579255379271
 21
4.325674705894272
 31
0.0551181971737654
  0
LINE
  5
62C2
330
18
100
AcDbEntity
  8
S1
 62
    41
100
AcDbLine
 10
5.652059869407063
 20
5.239358130115967
 30
0.0531139713686633
 11
6.187586292027939
 21
4.32568061034356
 31
0.0547050651319239
  0
LINE
  5
62C3
330
18
100
AcDbEntity
  8
S1
 62
    41
100
AcDbLine
 10
5.652059869407063
 20
5.239358130115967
 30
0.0531139713686498
 11
6.187586292027939
 21
4.32568061034356
 31
0.0547050651319194
  0
LINE
  5
62C4
330
18
100
AcDbEntity
  8
S1
 62
    41
100
AcDbLine
 10
5.652057166432543
 20
5.239335186788963
 30
0.0543634190706369
 11
6.187579255379271
 21
4.325674705894272
 31
0.0551181971737654
  0
LINE
  5
62C5
330
18
100
AcDbEntity
  8
S1
 62
    41
100
AcDbLine
 10
5.652059869407063
 20
5.239358130115967
 30
0.0531139713686633
 11
6.187586292027939
 21
4.32568061034356
 31
0.0547050651319239
  0
LINE
  5
62C6
330
18
100
AcDbEntity
  8
S1
 62
    41
100
AcDbLine
 10
5.652059869407063
 20
5.239358130115967
 30
0.0531139713686498
 11
6.187586292027939
 21
4.32568061034356
 31
0.0547050651319194
  0
LINE
  5
62C7
330
18
100
AcDbEntity
  8
S1
 62
    41
100
AcDbLine
 10
5.652057166432543
 20
5.239335186788963
 30
0.0543634190706369
 11
6.187579255379271
 21
4.325674705894272
 31
0.0551181971737654
  0
LINE
  5
62C8
330
18
100
AcDbEntity
  8
S1
 62
    41
100
AcDbLine
 10
5.652059869407063
 20
5.239358130115967
 30
0.0531139713686633
 11
6.187586292027939
 21
4.32568061034356
 31
0.0547050651319239
  0
LINE
  5
62C9
330
18
100
AcDbEntity
  8
S1
 62
    41
100
AcDbLine
 10
5.652059869407063
 20
5.239358130115967
 30
0.0531139713686498
 11
6.187586292027939
 21
4.32568061034356
 31
0.0547050651319194
  0
LINE
  5
62CA
330
18
100
AcDbEntity
  8
S1
 62
    41
100
AcDbLine
 10
5.652057166432543
 20
5.239335186788963
 30
0.0543634190706369
 11
6.187579255379271
 21
4.325674705894272
 31
0.0551181971737654
  0
LINE
  5
62CB
330
18
100
AcDbEntity
  8
S1
100
AcDbLine
 10
5.802045055782736
 20
4.002173101206953
 30
0.0011500794155283
 11
6.288577205239343
 21
4.410422048371877
 31
0.0011500794155283
  0
LINE
  5
62CC
330
18
100
AcDbEntity
  8
S1
100
AcDbLine
 10
5.802045055782736
 20
4.002173101206953
 30
0.0011500794155283
 11
6.288577205239343
 21
4.410422048371874
 31
0.0011500794155283
  0
LINE
  5
62CD
330
18
100
AcDbEntity
  8
S1
 62
   170
100
AcDbLine
 10
6.193182596925021
 20
4.330376467718664
 30
0.0011500794155318
 11
5.066131986890704
 21
4.880174272737917
 31
0.0011500794155239
  0
LINE
  5
62CE
330
18
100
AcDbEntity
  8
S1
 62
   170
100
AcDbLine
 10
6.193182596925021
 20
4.330376467718664
 30
0.0011500794155317
 11
5.066131986890704
 21
4.880174272737917
 31
0.0011500794155238
  0
LINE
  5
62CF
330
18
100
AcDbEntity
  8
S1
 62
   170
100
AcDbLine
 10
6.193182596925021
 20
4.330376467718664
 30
0.0011500794155272
 11
5.066131986890704
 21
4.880174272737917
 31
0.0011500794155298
  0
LINE
  5
62D0
330
18
100
AcDbEntity
  8
S1
 62
   170
100
AcDbLine
 10
6.193182596925021
 20
4.330376467718664
 30
0.0011500794155273
 11
5.066131986890704
 21
4.880174272737917
 31
0.00115007941553
  0
LINE
  5
62D1
330
18
100
AcDbEntity
  8
S1
 62
    98
100
AcDbLine
 10
6.19367877080405
 20
4.330792807037575
 30
0.0011500794155318
 11
5.052967673393604
 21
4.699239739397615
 31
0.0011500794155242
  0
LINE
  5
62D2
330
18
100
AcDbEntity
  8
S1
 62
    98
100
AcDbLine
 10
6.19367877080405
 20
4.330792807037575
 30
0.0011500794155317
 11
5.052967673393604
 21
4.699239739397615
 31
0.0011500794155241
  0
LINE
  5
62D3
330
18
100
AcDbEntity
  8
S1
 62
    98
100
AcDbLine
 10
6.19367877080405
 20
4.330792807037575
 30
0.0011500794155272
 11
5.052967673393604
 21
4.699239739397615
 31
0.0011500794155297
  0
LINE
  5
62D4
330
18
100
AcDbEntity
  8
S1
 62
    98
100
AcDbLine
 10
6.19367877080405
 20
4.330792807037575
 30
0.0011500794155273
 11
5.052967673393604
 21
4.699239739397615
 31
0.0011500794155298
  0
LINE
  5
62D5
330
18
100
AcDbEntity
  8
S1
 62
    10
100
AcDbLine
 10
6.19367877080405
 20
4.330792807037575
 30
0.0011500794155318
 11
5.045594807002567
 21
4.529200423231866
 31
0.0011500794155244
  0
LINE
  5
62D6
330
18
100
AcDbEntity
  8
S1
 62
    10
100
AcDbLine
 10
6.19367877080405
 20
4.330792807037575
 30
0.0011500794155317
 11
5.045594807002567
 21
4.529200423231866
 31
0.0011500794155243
  0
LINE
  5
62D7
330
18
100
AcDbEntity
  8
S1
 62
    10
100
AcDbLine
 10
6.19367877080405
 20
4.330792807037575
 30
0.0011500794155272
 11
5.045594807002567
 21
4.529200423231866
 31
0.0011500794155297
  0
LINE
  5
62D8
330
18
100
AcDbEntity
  8
S1
 62
    10
100
AcDbLine
 10
6.19367877080405
 20
4.330792807037575
 30
0.0011500794155273
 11
5.045594807002567
 21
4.529200423231866
 31
0.0011500794155298
  0
LINE
  5
62D9
330
18
100
AcDbEntity
  8
S1
 62
    41
100
AcDbLine
 10
5.472079415990842
 20
3.701039870113422
 30
0.0011500794155383
 11
5.482333697212341
 21
3.800313650702129
 31
0.007740105805505
210
-0.540640817455598
220
0.0
230
0.8412535328311811
  0
LINE
  5
62DA
330
18
100
AcDbEntity
  8
S1
 62
    41
100
AcDbLine
 10
5.469578933257006
 20
3.701039870113426
 30
0.0011500794155383
 11
5.457389645698251
 21
3.800313650702129
 31
0.0011500794155383
  0
LINE
  5
62DB
330
18
100
AcDbEntity
  8
S1
 62
    41
100
AcDbLine
 10
5.469578933257006
 20
3.701039870113426
 30
0.0011500794155383
 11
5.457883397491011
 21
3.800313650702129
 31
0.0045841985655419
210
-0.2817325568414296
220
0.0
230
-0.9594929736144976
  0
LINE
  5
62DC
330
18
100
AcDbEntity
  8
S1
 62
    41
100
AcDbLine
 10
5.469578933257006
 20
3.701039870113426
 30
0.0011500794155383
 11
5.457389645698251
 21
3.800313650702129
 31
0.0011500794155383
210
0.0000000000000001
220
0.0
230
-1.0
  0
LINE
  5
62DD
330
18
100
AcDbEntity
  8
S1
 62
    41
100
AcDbLine
 10
5.472079415990821
 20
3.701039870113422
 30
0.001150079415525
 11
5.48233369721232
 21
3.800313650702129
 31
0.0077401058054917
210
0.5406408174555978
220
0.0
230
-0.8412535328311811
  0
LINE
  5
62DE
330
18
100
AcDbEntity
  8
S1
 62
    41
100
AcDbLine
 10
5.469578933256977
 20
3.701039870113426
 30
0.001150079415525
 11
5.45738964569823
 21
3.800313650702129
 31
0.001150079415525
  0
LINE
  5
62DF
330
18
100
AcDbEntity
  8
S1
 62
    41
100
AcDbLine
 10
5.469578933256977
 20
3.701039870113426
 30
0.001150079415525
 11
5.45788339749099
 21
3.800313650702129
 31
0.0045841985655286
210
0.2817325568414297
220
0.0
230
0.9594929736144976
  0
LINE
  5
62E0
330
18
100
AcDbEntity
  8
S1
 62
    41
100
AcDbLine
 10
5.469578933256977
 20
3.701039870113426
 30
0.001150079415525
 11
5.457389645698222
 21
3.800313650702129
 31
0.001150079415525
210
0.0000000000000006
220
0.0
230
-1.0
  0
LINE
  5
62E1
330
18
100
AcDbEntity
  8
S1
 62
    41
100
AcDbLine
 10
5.47082917462391
 20
3.70103987011398
 30
0.0011500794155283
 11
5.482524710389897
 21
3.800313650702683
 31
0.0045841985655319
210
0.2817325568414301
220
0.0
230
-0.9594929736144973
  0
LINE
  5
62E2
330
18
100
AcDbEntity
  8
S1
 62
    80
100
AcDbLine
 10
5.916955374852287
 20
4.098594307556311
 30
0.0011500794155282
 11
5.043183460694416
 21
4.395035315354867
 31
0.0011500794155282
  0
LINE
  5
62E3
330
18
100
AcDbEntity
  8
S1
 62
    80
100
AcDbLine
 10
5.916955374852287
 20
4.098594307556311
 30
0.0011500794155283
 11
5.043183460694416
 21
4.395035315354867
 31
0.0011500794155283
  0
LINE
  5
62E4
330
18
100
AcDbEntity
  8
S1
 62
    98
100
AcDbLine
 10
5.916955392050413
 20
4.098594321987249
 30
0.0008901906311005
 11
5.043163632706553
 21
4.391622916919946
 31
0.0016416221582085
  0
LINE
  5
62E5
330
18
100
AcDbEntity
  8
S1
 62
    98
100
AcDbLine
 10
5.916955392050413
 20
4.098594321987249
 30
0.0008901906311005
 11
5.043163632706553
 21
4.391622916919946
 31
0.0016416221582085
  0
LINE
  5
62E6
330
18
100
AcDbEntity
  8
S1
 62
    98
100
AcDbLine
 10
5.916955392050413
 20
4.098594321987249
 30
0.0008901906310977
 11
5.043163632706553
 21
4.391622916919946
 31
0.0016416221582138
  0
LINE
  5
62E7
330
18
100
AcDbEntity
  8
S1
 62
    98
100
AcDbLine
 10
5.916955392050413
 20
4.098594321987249
 30
0.0008901906310977
 11
5.043163632706553
 21
4.391622916919946
 31
0.0016416221582138
  0
LINE
  5
62E8
330
18
100
AcDbEntity
  8
S1
 62
    98
100
AcDbLine
 10
5.916789407093327
 20
4.098455044070973
 30
0.0011500794155303
 11
5.043166005790043
 21
4.392378280955902
 31
0.0011500794155243
  0
LINE
  5
62E9
330
18
100
AcDbEntity
  8
S1
 62
    98
100
AcDbLine
 10
5.916789407093327
 20
4.098455044070973
 30
0.0011500794155304
 11
5.043166005790043
 21
4.392378280955902
 31
0.0011500794155244
  0
LINE
  5
62EA
330
18
100
AcDbEntity
  8
S1
 62
    98
100
AcDbLine
 10
5.916789407093327
 20
4.098455044070973
 30
0.0011500794155276
 11
5.043166005790043
 21
4.392378280955902
 31
0.0011500794155296
  0
LINE
  5
62EB
330
18
100
AcDbEntity
  8
S1
 62
    98
100
AcDbLine
 10
5.916789407093327
 20
4.098455044070973
 30
0.0011500794155275
 11
5.043166005790043
 21
4.392378280955902
 31
0.0011500794155295
  0
LINE
  5
62EC
330
18
100
AcDbEntity
  8
S1
 62
    98
100
AcDbLine
 10
5.916955374852287
 20
4.098594307556311
 30
0.0011500794155282
 11
5.043161263263664
 21
4.391623708559428
 31
0.0011500794155282
  0
LINE
  5
62ED
330
18
100
AcDbEntity
  8
S1
 62
    98
100
AcDbLine
 10
5.916955374852287
 20
4.098594307556311
 30
0.0011500794155283
 11
5.043161263263664
 21
4.391623708559428
 31
0.0011500794155283
  0
LINE
  5
62EE
330
18
100
AcDbEntity
  8
S1
 62
    50
100
AcDbLine
 10
5.916955392050413
 20
4.098594321987249
 30
0.0008901906311005
 11
5.043834453371781
 21
4.257091562286319
 31
0.001613715792564
  0
LINE
  5
62EF
330
18
100
AcDbEntity
  8
S1
 62
    50
100
AcDbLine
 10
5.916955392050413
 20
4.098594321987249
 30
0.0008901906311005
 11
5.043834453371781
 21
4.257091562286319
 31
0.001613715792564
  0
LINE
  5
62F0
330
18
100
AcDbEntity
  8
S1
 62
    50
100
AcDbLine
 10
5.916955392050413
 20
4.098594321987249
 30
0.0008901906310977
 11
5.043834453371781
 21
4.257091562286319
 31
0.001613715792569
  0
LINE
  5
62F1
330
18
100
AcDbEntity
  8
S1
 62
    50
100
AcDbLine
 10
5.916955392050413
 20
4.098594321987249
 30
0.0008901906310977
 11
5.043834453371781
 21
4.257091562286319
 31
0.001613715792569
  0
LINE
  5
62F2
330
18
100
AcDbEntity
  8
S1
 62
    50
100
AcDbLine
 10
5.916955374852287
 20
4.098594307556311
 30
0.0011500794155282
 11
5.043832207285158
 21
4.257092015793173
 31
0.0011500794155282
  0
LINE
  5
62F3
330
18
100
AcDbEntity
  8
S1
 62
    50
100
AcDbLine
 10
5.916955374852287
 20
4.098594307556311
 30
0.0011500794155283
 11
5.043832207285158
 21
4.257092015793173
 31
0.0011500794155283
  0
LINE
  5
62F4
330
18
100
AcDbEntity
  8
S1
 62
   130
100
AcDbLine
 10
5.916955392050413
 20
4.098594321987249
 30
0.0008901906311005
 11
5.045599727130872
 21
4.529280807608074
 31
0.0016826878842792
  0
LINE
  5
62F5
330
18
100
AcDbEntity
  8
S1
 62
   130
100
AcDbLine
 10
5.916955392050413
 20
4.098594321987249
 30
0.0008901906311005
 11
5.045599727130872
 21
4.529280807608074
 31
0.0016826878842792
  0
LINE
  5
62F6
330
18
100
AcDbEntity
  8
S1
 62
   130
100
AcDbLine
 10
5.916955392050413
 20
4.098594321987249
 30
0.0008901906310977
 11
5.045599727130872
 21
4.529280807608074
 31
0.0016826878842849
  0
LINE
  5
62F7
330
18
100
AcDbEntity
  8
S1
 62
   130
100
AcDbLine
 10
5.916955392050413
 20
4.098594321987249
 30
0.0008901906310977
 11
5.045599727130872
 21
4.529280807608074
 31
0.0016826878842849
  0
LINE
  5
62F8
330
18
100
AcDbEntity
  8
S1
 62
   130
100
AcDbLine
 10
5.916955374852287
 20
4.098594307556311
 30
0.0011500794155282
 11
5.045597186637218
 21
4.529282011053005
 31
0.0011500794155282
  0
LINE
  5
62F9
330
18
100
AcDbEntity
  8
S1
 62
   130
100
AcDbLine
 10
5.916955374852287
 20
4.098594307556311
 30
0.0011500794155283
 11
5.045597186637218
 21
4.529282011053005
 31
0.0011500794155283
  0
LINE
  5
62FA
330
18
100
AcDbEntity
  8
S1
 62
    80
100
AcDbLine
 10
5.916955392050413
 20
4.098594321987249
 30
0.0008901906311005
 11
5.043185833880025
 21
4.395034514374433
 31
0.0016424940542277
  0
LINE
  5
62FB
330
18
100
AcDbEntity
  8
S1
 62
    80
100
AcDbLine
 10
5.916955392050413
 20
4.098594321987249
 30
0.0008901906311005
 11
5.043185833880025
 21
4.395034514374433
 31
0.0016424940542277
  0
LINE
  5
62FC
330
18
100
AcDbEntity
  8
S1
 62
    80
100
AcDbLine
 10
5.916955392050413
 20
4.098594321987249
 30
0.0008901906310977
 11
5.043185833880025
 21
4.395034514374433
 31
0.001642494054233
  0
LINE
  5
62FD
330
18
100
AcDbEntity
  8
S1
 62
    80
100
AcDbLine
 10
5.916955392050413
 20
4.098594321987249
 30
0.0008901906310977
 11
5.043185833880025
 21
4.395034514374433
 31
0.001642494054233
  0
LINE
  5
62FE
330
18
100
AcDbEntity
  8
S1
 62
    80
100
AcDbLine
 10
5.916789407093327
 20
4.098455044070973
 30
0.0011500794155303
 11
5.04318862798055
 21
4.39578927459917
 31
0.0011500794155243
  0
LINE
  5
62FF
330
18
100
AcDbEntity
  8
S1
 62
    80
100
AcDbLine
 10
5.916789407093327
 20
4.098455044070973
 30
0.0011500794155304
 11
5.04318862798055
 21
4.39578927459917
 31
0.0011500794155244
  0
LINE
  5
6300
330
18
100
AcDbEntity
  8
S1
 62
    80
100
AcDbLine
 10
5.916789407093327
 20
4.098455044070973
 30
0.0011500794155276
 11
5.04318862798055
 21
4.39578927459917
 31
0.0011500794155296
  0
LINE
  5
6301
330
18
100
AcDbEntity
  8
S1
 62
    80
100
AcDbLine
 10
5.916789407093327
 20
4.098455044070973
 30
0.0011500794155275
 11
5.04318862798055
 21
4.39578927459917
 31
0.0011500794155295
  0
LINE
  5
6302
330
18
100
AcDbEntity
  8
S1
 62
    80
100
AcDbLine
 10
6.187332943175613
 20
4.325468025415009
 30
0.055120680435116
 11
5.053478967489832
 21
4.699192449440989
 31
0.0559844398115048
  0
LINE
  5
6303
330
18
100
AcDbEntity
  8
S1
 62
    80
100
AcDbLine
 10
6.187332943175613
 20
4.325468025415009
 30
0.0551206804351085
 11
5.053478967489832
 21
4.699192449440989
 31
0.0559844398115068
  0
LINE
  5
6304
330
18
100
AcDbEntity
  8
OUTER_HOUSING
  6
CONTINUOUS
100
AcDbLine
 10
9.007811530259601
 20
9.537543531412708
 30
0.0
 11
4.707811530259604
 21
9.537543531412708
 31
0.0
  0
LINE
  5
6305
330
18
100
AcDbEntity
  8
OUTER_HOUSING
  6
CONTINUOUS
100
AcDbLine
 10
9.007811530259601
 20
7.692543531412706
 30
0.0
 11
4.707811530259606
 21
7.692543531412706
 31
0.0
  0
LINE
  5
6306
330
18
100
AcDbEntity
  8
OUTER_HOUSING
  6
CONTINUOUS
100
AcDbLine
 10
5.817811530259602
 20
9.537543531412712
 30
0.0
 11
5.817811530259602
 21
8.932543531412708
 31
0.0
  0
LINE
  5
6307
330
18
100
AcDbEntity
  8
OUTER_HOUSING
  6
CONTINUOUS
100
AcDbLine
 10
5.307811530259606
 20
9.537543531412708
 30
0.0
 11
5.307811530259604
 21
8.932543531412711
 31
0.0
  0
LINE
  5
6308
330
18
100
AcDbEntity
  8
OUTER_HOUSING
100
AcDbLine
 10
4.707811530259606
 20
7.692543531412706
 30
0.0
 11
4.707811530259604
 21
9.537543531412708
 31
0.0
  0
LINE
  5
6309
330
18
100
AcDbEntity
  8
OUTER_HOUSING
  6
CONTINUOUS
100
AcDbLine
 10
5.817811530259604
 20
8.932543531412711
 30
0.0
 11
5.307811530259606
 21
8.932543531412711
 31
0.0
  0
LINE
  5
630A
330
18
100
AcDbEntity
  8
OUTER_HOUSING
  6
CONTINUOUS
100
AcDbLine
 10
9.007811530259601
 20
9.537543531412708
 30
0.0
 11
9.007811530259603
 21
7.692543531412706
 31
0.0
  0
LINE
  5
630B
330
18
100
AcDbEntity
  8
SMA_BODY
100
AcDbLine
 10
5.812811530259605
 20
9.532543531412709
 30
0.0
 11
5.812811530259605
 21
8.932543531412711
 31
0.0
  0
LINE
  5
630C
330
18
100
AcDbEntity
  8
SMA_BODY
100
AcDbLine
 10
5.312811530259605
 20
9.532543531412709
 30
0.0
 11
5.312811530259605
 21
8.932543531412711
 31
0.0
  0
LINE
  5
630D
330
18
100
AcDbEntity
  8
SMA_BODY
100
AcDbLine
 10
5.812811530259605
 20
8.932543531412711
 30
0.0
 11
5.312811530259605
 21
8.932543531412711
 31
0.0
  0
LINE
  5
630E
330
18
100
AcDbEntity
  8
SMA_BODY
100
AcDbLine
 10
5.812811530259605
 20
9.532543531412709
 30
0.0
 11
5.312811530259605
 21
9.532543531412709
 31
0.0
  0
CIRCLE
  5
630F
330
18
100
AcDbEntity
  8
SMA_BODY
100
AcDbCircle
 10
5.512811530259604
 20
9.347543531412711
 30
0.0
 40
0.1060000000000034
  0
CIRCLE
  5
6310
330
18
100
AcDbEntity
  8
SMA_BODY
  6
HIDDEN
100
AcDbCircle
 10
5.512811530259604
 20
9.347543531412711
 30
0.0
 40
0.1240000000000012
  0
LINE
  5
6311
330
18
100
AcDbEntity
  8
S1
100
AcDbLine
 10
5.71946240205181
 20
9.347543531412711
 30
0.0
 11
5.616136966155707
 21
9.168578626726459
 31
0.0
  0
LINE
  5
6312
330
18
100
AcDbEntity
  8
S1
100
AcDbLine
 10
5.616136966155707
 20
9.168578626726459
 30
0.0
 11
5.409486094363501
 21
9.168578626726459
 31
0.0
  0
LINE
  5
6313
330
18
100
AcDbEntity
  8
S1
100
AcDbLine
 10
5.409486094363501
 20
9.168578626726459
 30
0.0
 11
5.306160658467398
 21
9.347543531412711
 31
0.0
  0
LINE
  5
6314
330
18
100
AcDbEntity
  8
S1
100
AcDbLine
 10
5.306160658467398
 20
9.347543531412711
 30
0.0
 11
5.409486094363501
 21
9.526508436098962
 31
0.0
  0
LINE
  5
6315
330
18
100
AcDbEntity
  8
S1
100
AcDbLine
 10
5.409486094363501
 20
9.526508436098962
 30
0.0
 11
5.616136966155707
 21
9.526508436098962
 31
0.0
  0
LINE
  5
6316
330
18
100
AcDbEntity
  8
S1
100
AcDbLine
 10
5.616136966155707
 20
9.526508436098962
 30
0.0
 11
5.71946240205181
 21
9.347543531412711
 31
0.0
  0
LINE
  5
6317
330
18
100
AcDbEntity
  8
D1
  6
CONTINUOUS
100
AcDbLine
 10
4.707811530259599
 20
3.204445728142946
 30
0.0
 11
4.707811530259599
 21
2.169817102347117
 31
0.0
  0
LINE
  5
6318
330
18
100
AcDbEntity
  8
D1
  6
CONTINUOUS
100
AcDbLine
 10
9.0078115302596
 20
3.204445728142946
 30
0.0
 11
9.0078115302596
 21
2.169817102347117
 31
0.0
  0
LINE
  5
6319
330
18
100
AcDbEntity
  8
D1
  6
CONTINUOUS
100
AcDbLine
 10
4.887811530259599
 20
2.209817102347116
 30
0.0
 11
6.485965544082743
 21
2.209817102347116
 31
0.0
  0
LINE
  5
631A
330
18
100
AcDbEntity
  8
D1
  6
CONTINUOUS
100
AcDbLine
 10
8.8278115302596
 20
2.209817102347116
 30
0.0
 11
8.001409527248739
 21
2.209817102347116
 31
0.0
  0
SOLID
  5
631B
330
18
100
AcDbEntity
  8
D1
  6
CONTINUOUS
100
AcDbTrace
 10
4.887811530259599
 20
2.179817102347117
 30
0.0
 11
4.887811530259599
 21
2.239817102347116
 31
0.0
 12
4.707811530259599
 22
2.209817102347116
 32
0.0
 13
4.707811530259599
 23
2.209817102347116
 33
0.0
  0
SOLID
  5
631C
330
18
100
AcDbEntity
  8
D1
  6
CONTINUOUS
100
AcDbTrace
 10
8.8278115302596
 20
2.179817102347117
 30
0.0
 11
8.8278115302596
 21
2.239817102347116
 31
0.0
 12
9.0078115302596
 22
2.209817102347116
 32
0.0
 13
9.0078115302596
 23
2.209817102347116
 33
0.0
  0
MTEXT
  5
631D
330
18
100
AcDbEntity
  8
D1
  6
CONTINUOUS
100
AcDbMText
 10
6.834095573753513
 20
2.209817102347116
 30
0.0
 40
0.1
 41
0.0
 71
     5
 72
     1
  1
4.30"\P(109mm)
1001
ACAD
1000
MTEXTBEGIN
1070
    73
1070
     1
1070
    44
1040
1.0
1070
    74
1070
     0
1000
MTEXTEND
  0
LINE
  5
631E
330
18
100
AcDbEntity
  8
D1
  6
CONTINUOUS
100
AcDbLine
 10
14.3517525742673
 20
6.194445728142943
 30
0.0
 11
15.4274545486802
 21
6.194445728142943
 31
0.0
  0
LINE
  5
631F
330
18
100
AcDbEntity
  8
D1
  6
CONTINUOUS
100
AcDbLine
 10
14.3517525742673
 20
3.244445728142949
 30
0.0
 11
15.4274545486802
 21
3.244445728142949
 31
0.0
  0
LINE
  5
6320
330
18
100
AcDbEntity
  8
D1
  6
CONTINUOUS
100
AcDbLine
 10
15.3874545486802
 20
6.014445728142943
 30
0.0
 11
15.3874545486802
 21
4.88761487956625
 31
0.0
  0
LINE
  5
6321
330
18
100
AcDbEntity
  8
D1
  6
CONTINUOUS
100
AcDbLine
 10
15.3874545486802
 20
3.424445728142949
 30
0.0
 11
15.3874545486802
 21
4.497733018163501
 31
0.0
  0
SOLID
  5
6322
330
18
100
AcDbEntity
  8
D1
  6
CONTINUOUS
100
AcDbTrace
 10
15.3574545486802
 20
6.014445728142943
 30
0.0
 11
15.4174545486802
 21
6.014445728142943
 31
0.0
 12
15.3874545486802
 22
6.194445728142943
 32
0.0
 13
15.3874545486802
 23
6.194445728142943
 33
0.0
  0
SOLID
  5
6323
330
18
100
AcDbEntity
  8
D1
  6
CONTINUOUS
100
AcDbTrace
 10
15.3574545486802
 20
3.424445728142949
 30
0.0
 11
15.4174545486802
 21
3.424445728142949
 31
0.0
 12
15.3874545486802
 22
3.244445728142949
 32
0.0
 13
15.3874545486802
 23
3.244445728142949
 33
0.0
  0
MTEXT
  5
6324
330
18
100
AcDbEntity
  8
D1
  6
CONTINUOUS
100
AcDbMText
 10
15.3874545486802
 20
4.700908770726677
 30
0.0
 40
0.1
 41
0.0
 71
     5
 72
     1
  1
2.95"\P(75mm)
1001
ACAD
1000
MTEXTBEGIN
1070
    73
1070
     1
1070
    44
1040
1.0
1070
    74
1070
     0
1000
MTEXTEND
  0
INSERT
  5
6332
330
18
100
AcDbEntity
  8
S1
100
AcDbBlockReference
  2
DFSF
 10
-11.00542673353843
 20
27.36548178598897
 30
0.0
 41
-1.0
 50
180.0
  0
LINE
  5
6333
330
18
100
AcDbEntity
  8
OUTER_HOUSING
100
AcDbLine
 10
14.3117525742673
 20
6.194445728142943
 30
0.0
 11
14.31175257426731
 21
3.244445728142947
 31
0.0
  0
LINE
  5
6334
330
18
100
AcDbEntity
  8
D1
  6
CONTINUOUS
100
AcDbLine
 10
4.667811530259605
 20
7.692543531412706
 30
0.0
 11
3.494669053388484
 21
7.692543531412706
 31
0.0
  0
LINE
  5
6335
330
18
100
AcDbEntity
  8
D1
  6
CONTINUOUS
100
AcDbLine
 10
4.667811530259601
 20
9.737543531412711
 30
0.0
 11
3.494669053388484
 21
9.737543531412711
 31
0.0
  0
LINE
  5
6336
330
18
100
AcDbEntity
  8
D1
  6
CONTINUOUS
100
AcDbLine
 10
3.534669053388484
 20
7.872543531412706
 30
0.0
 11
3.534669053388484
 21
8.536965465758143
 31
0.0
  0
LINE
  5
6337
330
18
100
AcDbEntity
  8
D1
  6
CONTINUOUS
100
AcDbLine
 10
3.534669053388483
 20
9.557543531412711
 30
0.0
 11
3.534669053388484
 21
8.974058273327052
 31
0.0
  0
SOLID
  5
6338
330
18
100
AcDbEntity
  8
D1
  6
CONTINUOUS
100
AcDbTrace
 10
3.504669053388484
 20
7.872543531412706
 30
0.0
 11
3.564669053388485
 21
7.872543531412706
 31
0.0
 12
3.534669053388484
 22
7.692543531412706
 32
0.0
 13
3.534669053388484
 23
7.692543531412706
 33
0.0
  0
SOLID
  5
6339
330
18
100
AcDbEntity
  8
D1
  6
CONTINUOUS
100
AcDbTrace
 10
3.504669053388484
 20
9.557543531412711
 30
0.0
 11
3.564669053388484
 21
9.557543531412711
 31
0.0
 12
3.534669053388483
 22
9.737543531412711
 32
0.0
 13
3.534669053388483
 23
9.737543531412711
 33
0.0
  0
MTEXT
  5
633A
330
18
100
AcDbEntity
  8
D1
  6
CONTINUOUS
100
AcDbMText
 10
3.534669053388483
 20
8.753711661724743
 30
0.0
 40
0.1
 41
0.0
 71
     5
 72
     1
  1
2.05"\P(52mm)
1001
ACAD
1000
MTEXTBEGIN
1070
    73
1070
     1
1070
    44
1040
1.0
1070
    74
1070
     0
1000
MTEXTEND
  0
MTEXT
  5
633C
330
18
100
AcDbEntity
  8
D1
  6
CONTINUOUS
100
AcDbMText
 10
4.776240964430401
 20
6.799474873614602
 30
0.0
 40
0.1
 41
0.0
 71
     9
 72
     1
  1
SMA ADAPTER FOR\PINPUTTING LIGHT
1001
ACAD
1000
MTEXTBEGIN
1070
    73
1070
     1
1070
    44
1040
1.0
1070
    74
1070
     0
1000
MTEXTEND
  0
SOLID
  5
633D
330
18
100
AcDbEntity
  8
D1
  6
CONTINUOUS
100
AcDbTrace
 10
5.27001646956835
 20
6.520566019650143
 30
0.0
 11
5.412811530259602
 21
6.406945728142941
 31
0.0
 12
5.314584945770212
 22
6.560736293846918
 32
0.0
 13
5.314584945770212
 23
6.560736293846918
 33
0.0
1001
ACAD
1000
DSTYLE
1002
{
1070
   147
1040
0.09
1070
    77
1070
     0
1070
   289
1070
     0
1002
}
  0
POLYLINE
  5
633E
330
18
100
AcDbEntity
  8
D1
  6
CONTINUOUS
100
AcDb2dPolyline
 66
     1
 10
0.0
 20
0.0
 30
0.0
1001
ACAD
1000
DSTYLE
1002
{
1070
   147
1040
0.09
1070
    77
1070
     0
1070
   289
1070
     0
1002
}
  0
VERTEX
  5
659C
330
633E
100
AcDbEntity
  8
D1
  6
CONTINUOUS
100
AcDbVertex
100
AcDb2dVertex
 10
5.292300707669282
 20
6.540651156748531
 30
0.0
  0
VERTEX
  5
659D
330
633E
100
AcDbEntity
  8
D1
  6
CONTINUOUS
100
AcDbVertex
100
AcDb2dVertex
 10
5.030238881329472
 20
6.831405862913335
 30
0.0
  0
VERTEX
  5
659E
330
633E
100
AcDbEntity
  8
D1
  6
CONTINUOUS
100
AcDbVertex
100
AcDb2dVertex
 10
4.866240964430401
 20
6.831405862913335
 30
0.0
  0
SEQEND
  5
659F
330
633E
100
AcDbEntity
  8
D1
  6
CONTINUOUS
  0
MTEXT
  5
6340
330
18
100
AcDbEntity
  8
D1
  6
CONTINUOUS
100
AcDbMText
 10
11.38241945995087
 20
3.55526594075613
 30
0.0
 40
0.1
 41
0.0
 71
     3
 72
     1
  1
DB9 CONNECTOR\PFOR OUTPUT \PREADING
1001
ACAD
1000
MTEXTBEGIN
1070
    73
1070
     1
1070
    44
1040
1.0
1070
    74
1070
     0
1000
MTEXTEND
  0
SOLID
  5
6341
330
18
100
AcDbEntity
  8
D1
  6
CONTINUOUS
100
AcDbTrace
 10
12.18157481310825
 20
3.990373297606443
 30
0.0
 11
12.32970420603735
 21
4.096945728142946
 31
0.0
 12
12.22414583884599
 22
3.948092004253034
 32
0.0
 13
12.22414583884599
 23
3.948092004253034
 33
0.0
1001
ACAD
1000
DSTYLE
1002
{
1070
   147
1040
0.09
1070
    77
1070
     0
1070
   289
1070
     0
1002
}
  0
POLYLINE
  5
6342
330
18
100
AcDbEntity
  8
D1
  6
CONTINUOUS
100
AcDb2dPolyline
 66
     1
 10
0.0
 20
0.0
 30
0.0
1001
ACAD
1000
DSTYLE
1002
{
1070
   147
1040
0.09
1070
    77
1070
     0
1070
   289
1070
     0
1002
}
  0
VERTEX
  5
65A0
330
6342
100
AcDbEntity
  8
D1
  6
CONTINUOUS
100
AcDbVertex
100
AcDb2dVertex
 10
12.20286032597712
 20
3.969232650929739
 30
0.0
  0
VERTEX
  5
65A1
330
6342
100
AcDbEntity
  8
D1
  6
CONTINUOUS
100
AcDbVertex
100
AcDb2dVertex
 10
11.77761024423274
 20
3.541068544794264
 30
0.0
  0
VERTEX
  5
65A2
330
6342
100
AcDbEntity
  8
D1
  6
CONTINUOUS
100
AcDbVertex
100
AcDb2dVertex
 10
11.47241945995087
 20
3.541068544794264
 30
0.0
  0
SEQEND
  5
65A3
330
6342
100
AcDbEntity
  8
D1
  6
CONTINUOUS
  0
INSERT
  5
634E
330
18
100
AcDbEntity
  8
D1
  6
CONTINUOUS
100
AcDbBlockReference
  2
COPYWRITE
 10
0.1998615358677966
 20
4.842961971561951
 30
0.0
 41
0.75
 42
0.75
 43
0.75
  0
INSERT
  5
6355
330
18
100
AcDbEntity
  8
D1
  6
CONTINUOUS
100
AcDbBlockReference
  2
MANUFACTURING_INFO
 10
5.270622545487967
 20
-1.34236132344855
 30
0.0
 41
0.75
 42
0.75
 43
0.75
  0
LINE
  5
6357
330
18
100
AcDbEntity
  8
D1
  6
CONTINUOUS
100
AcDbLine
 10
5.422811530259604
 20
9.347543531412711
 30
0.0
 11
5.602811530259604
 21
9.347543531412711
 31
0.0
  0
LINE
  5
6358
330
18
100
AcDbEntity
  8
D1
  6
CONTINUOUS
100
AcDbLine
 10
5.512811530259604
 20
9.43754353141271
 30
0.0
 11
5.512811530259604
 21
9.257543531412711
 31
0.0
  0
LINE
  5
6359
330
18
100
AcDbEntity
  8
D1
  6
CONTINUOUS
100
AcDbLine
 10
4.667811530259601
 20
9.737543531412711
 30
0.0
 11
4.19410951556118
 21
9.737543531412711
 31
0.0
  0
LINE
  5
635A
330
18
100
AcDbEntity
  8
D1
  6
CONTINUOUS
100
AcDbLine
 10
5.382811530259605
 20
9.347543531412711
 30
0.0
 11
4.19410951556118
 21
9.347543531412711
 31
0.0
  0
LINE
  5
635B
330
18
100
AcDbEntity
  8
D1
  6
CONTINUOUS
100
AcDbLine
 10
4.23410951556118
 20
9.917543531412711
 30
0.0
 11
4.23410951556118
 21
10.09754353141271
 31
0.0
  0
LINE
  5
635C
330
18
100
AcDbEntity
  8
D1
  6
CONTINUOUS
100
AcDbLine
 10
4.23410951556118
 20
9.167543531412711
 30
0.0
 11
4.23410951556118
 21
8.987543531412711
 31
0.0
  0
SOLID
  5
635D
330
18
100
AcDbEntity
  8
D1
  6
CONTINUOUS
100
AcDbTrace
 10
4.20410951556118
 20
9.917543531412711
 30
0.0
 11
4.26410951556118
 21
9.917543531412711
 31
0.0
 12
4.23410951556118
 22
9.737543531412711
 32
0.0
 13
4.23410951556118
 23
9.737543531412711
 33
0.0
  0
SOLID
  5
635E
330
18
100
AcDbEntity
  8
D1
  6
CONTINUOUS
100
AcDbTrace
 10
4.20410951556118
 20
9.167543531412711
 30
0.0
 11
4.26410951556118
 21
9.167543531412711
 31
0.0
 12
4.23410951556118
 22
9.347543531412711
 32
0.0
 13
4.23410951556118
 23
9.347543531412711
 33
0.0
  0
MTEXT
  5
635F
330
18
100
AcDbEntity
  8
D1
  6
CONTINUOUS
100
AcDbMText
 10
4.234109515561179
 20
9.542543531412711
 30
0.0
 40
0.1
 41
0.0
 71
     5
 72
     1
  1
0.39"\P(4mm)
1001
ACAD
1000
MTEXTBEGIN
1070
    73
1070
     1
1070
    44
1040
1.0
1070
    74
1070
     0
1000
MTEXTEND
  0
LINE
  5
6360
330
18
100
AcDbEntity
  8
D1
  6
CONTINUOUS
100
AcDbLine
 10
4.707811530259601
 20
9.77754353141271
 30
0.0
 11
4.707811530259601
 21
10.53546889447797
 31
0.0
  0
LINE
  5
6361
330
18
100
AcDbEntity
  8
D1
  6
CONTINUOUS
100
AcDbLine
 10
5.512811530259604
 20
9.47754353141271
 30
0.0
 11
5.512811530259604
 21
10.53546889447797
 31
0.0
  0
LINE
  5
6362
330
18
100
AcDbEntity
  8
D1
  6
CONTINUOUS
100
AcDbLine
 10
4.527811530259601
 20
10.49546889447797
 30
0.0
 11
4.3478115302596
 21
10.49546889447797
 31
0.0
  0
LINE
  5
6363
330
18
100
AcDbEntity
  8
D1
  6
CONTINUOUS
100
AcDbLine
 10
5.692811530259604
 20
10.49546889447797
 30
0.0
 11
5.872811530259603
 21
10.49546889447797
 31
0.0
  0
SOLID
  5
6364
330
18
100
AcDbEntity
  8
D1
  6
CONTINUOUS
100
AcDbTrace
 10
4.527811530259601
 20
10.46546889447797
 30
0.0
 11
4.527811530259601
 21
10.52546889447797
 31
0.0
 12
4.707811530259601
 22
10.49546889447797
 32
0.0
 13
4.707811530259601
 23
10.49546889447797
 33
0.0
  0
SOLID
  5
6365
330
18
100
AcDbEntity
  8
D1
  6
CONTINUOUS
100
AcDbTrace
 10
5.692811530259604
 20
10.46546889447797
 30
0.0
 11
5.692811530259604
 21
10.52546889447797
 31
0.0
 12
5.512811530259604
 22
10.49546889447797
 32
0.0
 13
5.512811530259604
 23
10.49546889447797
 33
0.0
  0
MTEXT
  5
6366
330
18
100
AcDbEntity
  8
D1
  6
CONTINUOUS
100
AcDbMText
 10
5.088924019182634
 20
10.49546889447797
 30
0.0
 40
0.1
 41
0.0
 71
     5
 72
     1
  1
0.81"\P(21mm)
1001
ACAD
1000
MTEXTBEGIN
1070
    73
1070
     1
1070
    44
1040
1.0
1070
    74
1070
     0
1000
MTEXTEND
  0
LINE
  5
6450
330
18
100
AcDbEntity
  8
S8
  6
CONTINUOUS
100
AcDbLine
 10
6.6478115302596
 20
3.074445728142944
 30
0.0
 11
7.067811530259604
 21
3.074445728142944
 31
0.0
  0
LINE
  5
6451
330
18
100
AcDbEntity
  8
S8
  6
CONTINUOUS
100
AcDbLine
 10
6.647811530259602
 20
3.244445728142945
 30
0.0
 11
7.067811530259598
 21
3.244445728142945
 31
0.0
  0
LINE
  5
6454
330
18
100
AcDbEntity
  8
S8
  6
CONTINUOUS
100
AcDbLine
 10
7.067811530259598
 20
3.244445728142945
 30
0.0
 11
7.067811530259604
 21
3.074445728142944
 31
0.0
  0
LINE
  5
6455
330
18
100
AcDbEntity
  8
S8
  6
CONTINUOUS
100
AcDbLine
 10
7.047811530259604
 20
3.054445728142944
 30
0.0
 11
7.067811530259604
 21
3.074445728142944
 31
0.0
  0
LINE
  5
6458
330
18
100
AcDbEntity
  8
S8
  6
CONTINUOUS
100
AcDbLine
 10
6.647811530259602
 20
3.244445728142945
 30
0.0
 11
6.6478115302596
 21
3.074445728142944
 31
0.0
  0
LINE
  5
6459
330
18
100
AcDbEntity
  8
S8
  6
CONTINUOUS
100
AcDbLine
 10
6.6678115302596
 20
3.054445728142944
 30
0.0
 11
6.6478115302596
 21
3.074445728142944
 31
0.0
  0
LINE
  5
645C
330
18
100
AcDbEntity
  8
D1
  6
CONTINUOUS
100
AcDbLine
 10
4.707811530259599
 20
3.204445728142945
 30
0.0
 11
4.707811530259599
 21
2.598371911409308
 31
0.0
  0
LINE
  5
645D
330
18
100
AcDbEntity
  8
D1
  6
CONTINUOUS
100
AcDbLine
 10
6.857811530259602
 20
3.014445728142944
 30
0.0
 11
6.857811530259602
 21
2.598371911409308
 31
0.0
  0
LINE
  5
645E
330
18
100
AcDbEntity
  8
D1
  6
CONTINUOUS
100
AcDbLine
 10
4.887811530259599
 20
2.638371911409308
 30
0.0
 11
5.488257988270057
 21
2.638371911409308
 31
0.0
  0
LINE
  5
645F
330
18
100
AcDbEntity
  8
D1
  6
CONTINUOUS
100
AcDbLine
 10
6.677811530259602
 20
2.638371911409308
 30
0.0
 11
6.018257988270057
 21
2.638371911409308
 31
0.0
  0
SOLID
  5
6460
330
18
100
AcDbEntity
  8
D1
  6
CONTINUOUS
100
AcDbTrace
 10
4.887811530259599
 20
2.668371911409308
 30
0.0
 11
4.887811530259599
 21
2.608371911409308
 31
0.0
 12
4.707811530259599
 22
2.638371911409308
 32
0.0
 13
4.707811530259599
 23
2.638371911409308
 33
0.0
  0
SOLID
  5
6461
330
18
100
AcDbEntity
  8
D1
  6
CONTINUOUS
100
AcDbTrace
 10
6.677811530259602
 20
2.668371911409308
 30
0.0
 11
6.677811530259602
 21
2.608371911409308
 31
0.0
 12
6.857811530259602
 22
2.638371911409308
 32
0.0
 13
6.857811530259602
 23
2.638371911409308
 33
0.0
  0
MTEXT
  5
6462
330
18
100
AcDbEntity
  8
D1
  6
CONTINUOUS
100
AcDbMText
 10
5.753257988270057
 20
2.638371911409308
 30
0.0
 40
0.1
 41
0.0
 71
     5
 72
     1
  1
2.15"\P(55mm)
1001
ACAD
1000
MTEXTBEGIN
1070
    73
1070
     1
1070
    44
1040
1.0
1070
    74
1070
     0
1000
MTEXTEND
  0
LINE
  5
6463
330
18
100
AcDbEntity
  8
D1
  6
CONTINUOUS
100
AcDbLine
 10
4.667811530259599
 20
3.244445728142945
 30
0.0
 11
3.955415265625745
 21
3.244445728142945
 31
0.0
  0
LINE
  5
6465
330
18
100
AcDbEntity
  8
D1
  6
CONTINUOUS
100
AcDbLine
 10
3.995415265625745
 20
3.424445728142945
 30
0.0
 11
3.995415265625745
 21
3.604445728142945
 31
0.0
  0
LINE
  5
6466
330
18
100
AcDbEntity
  8
D1
  6
CONTINUOUS
100
AcDbLine
 10
3.995415265625745
 20
2.874445728142944
 30
0.0
 11
3.995415265625745
 21
2.694445728142945
 31
0.0
  0
SOLID
  5
6467
330
18
100
AcDbEntity
  8
D1
  6
CONTINUOUS
100
AcDbTrace
 10
3.965415265625745
 20
3.424445728142945
 30
0.0
 11
4.025415265625746
 21
3.424445728142945
 31
0.0
 12
3.995415265625745
 22
3.244445728142945
 32
0.0
 13
3.995415265625745
 23
3.244445728142945
 33
0.0
  0
SOLID
  5
6468
330
18
100
AcDbEntity
  8
D1
  6
CONTINUOUS
100
AcDbTrace
 10
3.965415265625745
 20
2.874445728142944
 30
0.0
 11
4.025415265625746
 21
2.874445728142944
 31
0.0
 12
3.995415265625745
 22
3.054445728142944
 32
0.0
 13
3.995415265625745
 23
3.054445728142944
 33
0.0
  0
MTEXT
  5
6469
330
18
100
AcDbEntity
  8
D1
  6
CONTINUOUS
100
AcDbMText
 10
3.995415265625744
 20
2.497115806367907
 30
0.0
 40
0.1
 41
0.0
 71
     5
 72
     1
  1
0.19"\P(5mm)
1001
ACAD
1000
MTEXTBEGIN
1070
    73
1070
     1
1070
    44
1040
1.0
1070
    74
1070
     0
1000
MTEXTEND
  0
LINE
  5
646A
330
18
100
AcDbEntity
  8
D1
  6
CONTINUOUS
100
AcDbLine
 10
6.603005311888423
 20
3.054445728142944
 30
0.0
 11
3.955415265625745
 21
3.054445728142944
 31
0.0
  0
LINE
  5
646B
330
18
100
AcDbEntity
  8
S8
  6
CONTINUOUS
100
AcDbLine
 10
6.6678115302596
 20
3.054445728142944
 30
0.0
 11
7.047811530259604
 21
3.054445728142944
 31
0.0
  0
LEADER
  5
646C
330
18
100
AcDbEntity
  8
D1
  6
CONTINUOUS
100
AcDbLeader
  3
STANDARD
 73
     0
 40
0.1
 41
1.966666666666666
 76
     3
 10
6.857811530259602
 20
3.054445728142944
 30
0.0
 10
8.367181821177268
 20
1.842312622136354
 30
0.0
 10
8.488907087628618
 20
1.842312622136354
 30
0.0
340
646D
213
0.0
223
-0.05
233
0.0
1001
ACAD
1000
DSTYLE
1002
{
1070
     5
1000

1070
    77
1070
     0
1070
   147
1040
0.09
1070
   289
1070
     0
1002
}
1000
LEANOF
1010
0.0
1020
-0.05
1030
0.0
  0
MTEXT
  5
646D
330
18
100
AcDbEntity
  8
D1
  6
CONTINUOUS
100
AcDbMText
 10
8.578907087628618
 20
1.892312622136354
 30
0.0
 40
0.1
 41
0.0
 71
     1
 72
     1
  1
#8 (M4) MOUNTING HOLE
1001
ACAD
1000
MTEXTBEGIN
1070
    73
1070
     1
1070
    44
1040
1.0
1070
    74
1070
     0
1000
MTEXTEND
  0
LINE
  5
646E
330
18
100
AcDbEntity
  8
D1
  6
CONTINUOUS
100
AcDbLine
 10
7.786742312373704
 20
2.209817102347116
 30
0.0
 11
7.19604712513507
 21
2.209817102347116
 31
0.0
  0
LINE
  5
646F
330
18
100
AcDbEntity
  8
S8
  6
CONTINUOUS
100
AcDbLine
 10
13.0792525742673
 20
3.244445728142948
 30
0.0
 11
13.0792525742673
 21
3.074445728142946
 31
0.0
  0
LINE
  5
6470
330
18
100
AcDbEntity
  8
S8
  6
CONTINUOUS
100
AcDbLine
 10
13.4992525742673
 20
3.244445728142948
 30
0.0
 11
13.49925257426731
 21
3.074445728142946
 31
0.0
  0
LINE
  5
6471
330
18
100
AcDbEntity
  8
S8
  6
CONTINUOUS
100
AcDbLine
 10
13.0992525742673
 20
3.054445728142947
 30
0.0
 11
13.0792525742673
 21
3.074445728142946
 31
0.0
  0
LINE
  5
6472
330
18
100
AcDbEntity
  8
S8
  6
CONTINUOUS
100
AcDbLine
 10
13.0992525742673
 20
3.054445728142947
 30
0.0
 11
13.47925257426731
 21
3.054445728142947
 31
0.0
  0
LINE
  5
6473
330
18
100
AcDbEntity
  8
S8
  6
CONTINUOUS
100
AcDbLine
 10
13.0792525742673
 20
3.074445728142946
 30
0.0
 11
13.49925257426731
 21
3.074445728142946
 31
0.0
  0
LINE
  5
6474
330
18
100
AcDbEntity
  8
S8
  6
CONTINUOUS
100
AcDbLine
 10
13.47925257426731
 20
3.054445728142947
 30
0.0
 11
13.49925257426731
 21
3.074445728142946
 31
0.0
  0
LINE
  5
6475
330
18
100
AcDbEntity
  8
D1
  6
CONTINUOUS
100
AcDbLine
 10
12.2667525742673
 20
3.204445728142943
 30
0.0
 11
12.2667525742673
 21
2.487513842601184
 31
0.0
  0
LINE
  5
6476
330
18
100
AcDbEntity
  8
D1
  6
CONTINUOUS
100
AcDbLine
 10
13.2892525742673
 20
3.014445728142947
 30
0.0
 11
13.2892525742673
 21
2.487513842601184
 31
0.0
  0
LINE
  5
6477
330
18
100
AcDbEntity
  8
D1
  6
CONTINUOUS
100
AcDbLine
 10
12.4467525742673
 20
2.527513842601184
 30
0.0
 11
12.57379381797845
 21
2.527513842601184
 31
0.0
  0
LINE
  5
6478
330
18
100
AcDbEntity
  8
D1
  6
CONTINUOUS
100
AcDbLine
 10
13.1092525742673
 20
2.527513842601184
 30
0.0
 11
13.10379381797845
 21
2.527513842601184
 31
0.0
  0
SOLID
  5
6479
330
18
100
AcDbEntity
  8
D1
  6
CONTINUOUS
100
AcDbTrace
 10
12.4467525742673
 20
2.557513842601184
 30
0.0
 11
12.4467525742673
 21
2.497513842601184
 31
0.0
 12
12.2667525742673
 22
2.527513842601184
 32
0.0
 13
12.2667525742673
 23
2.527513842601184
 33
0.0
  0
SOLID
  5
647A
330
18
100
AcDbEntity
  8
D1
  6
CONTINUOUS
100
AcDbTrace
 10
13.1092525742673
 20
2.557513842601184
 30
0.0
 11
13.1092525742673
 21
2.497513842601184
 31
0.0
 12
13.2892525742673
 22
2.527513842601184
 32
0.0
 13
13.2892525742673
 23
2.527513842601184
 33
0.0
  0
MTEXT
  5
647B
330
18
100
AcDbEntity
  8
D1
  6
CONTINUOUS
100
AcDbMText
 10
12.83879381797845
 20
2.527513842601184
 30
0.0
 40
0.1
 41
0.0
 71
     5
 72
     1
  1
1.02"\P(26mm)
1001
ACAD
1000
MTEXTBEGIN
1070
    73
1070
     1
1070
    44
1040
1.0
1070
    74
1070
     0
1000
MTEXTEND
  0
TEXT
  5
648D
330
18
100
AcDbEntity
  8
D1
100
AcDbText
 10
16.0886410276294
 20
1.387828554724553
 30
-0.1677024
 40
0.0864
  1
HS
100
AcDbText
  0
ENDSEC
  0
SECTION
  2
OBJECTS
  0
DICTIONARY
  5
C
330
0
100
AcDbDictionary
  3
ACAD_GROUP
350
D
  3
ACAD_LAYOUT
350
5DBF
  3
ACAD_MLINESTYLE
350
E
  3
ACAD_PLOTSETTINGS
350
5DC0
  3
CONTENTDICTIONARY
350
5903
1001
ACAD
1000
TREAT_AS_HARD
1070
     0
  0
DICTIONARY
  5
649A
330
18
100
AcDbDictionary
  3
ACAD_LAYOUTSELFREF
350
649B
  0
DICTIONARY
  5
6498
330
15
100
AcDbDictionary
  3
ACAD_LAYOUTSELFREF
350
6499
  0
DICTIONARY
  5
D
102
{ACAD_REACTORS
330
C
102
}
330
C
100
AcDbDictionary
1001
ACAD
1000
TREAT_AS_HARD
1070
     0
  0
DICTIONARY
  5
5DBF
102
{ACAD_REACTORS
330
C
102
}
330
C
100
AcDbDictionary
1001
ACAD
1000
TREAT_AS_HARD
1070
     0
  0
DICTIONARY
  5
E
102
{ACAD_REACTORS
330
C
102
}
330
C
100
AcDbDictionary
  3
STANDARD
350
1B
1001
ACAD
1000
TREAT_AS_HARD
1070
     0
  0
DICTIONARY
  5
5DC0
102
{ACAD_REACTORS
330
C
102
}
330
C
100
AcDbDictionary
1001
ACAD
1000
TREAT_AS_HARD
1070
     0
  0
DICTIONARY
  5
5903
102
{ACAD_REACTORS
330
C
102
}
330
C
100
AcDbDictionary
1001
CONTENTTABDATA
1070
     7
1000
English Fasteners
1000
C:\Program Files\AutoCAD LT 97\Symbols\eengfast.dwg
1070
     0
1070
     0
1070
     1
1000
Metric Fasteners
1000
C:\Program Files\AutoCAD LT 97\Symbols\emetfast.dwg
1070
     0
1070
     0
1070
     1
1000
Welding
1000
C:\Program Files\AutoCAD LT 97\Symbols\ewelding.dwg
1070
     0
1070
     0
1070
     1
1000
Hyd-Pneu
1000
C:\Program Files\AutoCAD LT 97\Symbols\ehydpneu.dwg
1070
     0
1070
     0
1070
     1
1000
Pipe Fittings
1000
C:\Program Files\AutoCAD LT 97\Symbols\epipefit.dwg
1070
     0
1070
     0
1070
     1
1000
Plant Process
1000
C:\Program Files\AutoCAD LT 97\Symbols\eplntprc.dwg
1070
     0
1070
     0
1070
     1
1000
BLOCKS
1000
C:\BLOCKS
1070
     1
1070
     0
1070
     1
1001
CONTENTCURRENTTAB
1070
     7
1001
ACAD
1000
TREAT_AS_HARD
1070
     0
  0
XRECORD
  5
649B
102
{ACAD_REACTORS
330
649A
102
}
330
649A
100
AcDbXrecord
340
18
  0
XRECORD
  5
6499
102
{ACAD_REACTORS
330
6498
102
}
330
6498
100
AcDbXrecord
340
15
  0
MLINESTYLE
  5
1B
102
{ACAD_REACTORS
330
E
102
}
330
E
100
AcDbMlineStyle
  2
STANDARD
 70
     0
  3

 62
     0
 51
90.0
 52
90.0
 71
     2
 49
0.5
 62
   256
  6
BYLAYER
 49
-0.5
 62
   256
  6
BYLAYER
  0
ENDSEC
  0
EOF
