ISO-10303-21;
HEADER;
FILE_DESCRIPTION (( 'STEP AP203' ),
    '1' );
FILE_NAME ('4282-E0W.STEP',
    '2015-05-29T14:21:30',
    ( 'admin' ),
    ( '' ),
    'SwSTEP 2.0',
    'SolidWorks 2014',
    '' );
FILE_SCHEMA (( 'CONFIG_CONTROL_DESIGN' ));
ENDSEC;

DATA;
#1 = CALENDAR_DATE ( 2015, 29, 5 ) ;
#2 = CARTESIAN_POINT ( 'NONE',  ( -1.650000000000001500, 1.555301434917138000E-015, -12.69999999999999600 ) ) ;
#3 = FACE_OUTER_BOUND ( 'NONE', #249, .T. ) ;
#4 = CC_DESIGN_APPROVAL ( #235, ( #8 ) ) ;
#5 = PRODUCT_DEFINITION_SHAPE ( 'NONE', 'NONE',  #67 ) ;
#6 = ORIENTED_EDGE ( 'NONE', *, *, #250, .T. ) ;
#7 = CC_DESIGN_PERSON_AND_ORGANIZATION_ASSIGNMENT ( #142, #209, ( #67 ) ) ;
#8 = SECURITY_CLASSIFICATION ( '', '', #213 ) ;
#9 = CARTESIAN_POINT ( 'NONE',  ( -44.09998071338453200, -5.158610415893083100E-018, 0.04212325071591832600 ) ) ;
#10 = DIRECTION ( 'NONE',  ( 0.7071067811865451300, 0.0000000000000000000, -0.7071067811865500200 ) ) ;
#11 = ORIENTED_EDGE ( 'NONE', *, *, #214, .T. ) ;
#12 = CC_DESIGN_DATE_AND_TIME_ASSIGNMENT ( #242, #65, ( #67 ) ) ;
#13 = DIRECTION ( 'NONE',  ( 1.000000000000000000, 0.0000000000000000000, 0.0000000000000000000 ) ) ;
#14 = CARTESIAN_POINT ( 'NONE',  ( -1.899999999999999900, 0.0000000000000000000, -12.44999999999999600 ) ) ;
#15 = COORDINATED_UNIVERSAL_TIME_OFFSET ( 5, 0, .BEHIND. ) ;
#16 = CARTESIAN_POINT ( 'NONE',  ( 0.1683542676338203900, 0.0000000000000000000, 0.0000000000000000000 ) ) ;
#17 = DIRECTION ( 'NONE',  ( 0.0000000000000000000, -1.224646799147353200E-016, 1.000000000000000000 ) ) ;
#18 = CARTESIAN_POINT ( 'NONE',  ( -44.09998071338453200, 0.0000000000000000000, -0.04212325071591832600 ) ) ;
#19 = APPLICATION_CONTEXT ( 'configuration controlled 3d designs of mechanical parts and assemblies' ) ;
#20 = DIRECTION ( 'NONE',  ( 0.0000000000000000000, 0.0000000000000000000, 1.000000000000000000 ) ) ;
#21 = DIRECTION ( 'NONE',  ( 1.000000000000000000, 0.0000000000000000000, 0.0000000000000000000 ) ) ;
#22 = AXIS2_PLACEMENT_3D ( 'NONE', #18, #63, #92 ) ;
#23 = AXIS2_PLACEMENT_3D ( 'NONE', #234, #188, #76 ) ;
#24 = APPROVAL_PERSON_ORGANIZATION ( #217, #176, #197 ) ;
#25 = AXIS2_PLACEMENT_3D ( 'NONE', #145, #204, #86 ) ;
#26 = VERTEX_POINT ( 'NONE', #248 ) ;
#27 = ORIENTED_EDGE ( 'NONE', *, *, #268, .F. ) ;
#28 = CARTESIAN_POINT ( 'NONE',  ( -0.1499999999999973600, 0.0000000000000000000, 0.0000000000000000000 ) ) ;
#29 = AXIS2_PLACEMENT_3D ( 'NONE', #164, #121, #223 ) ;
#30 = UNCERTAINTY_MEASURE_WITH_UNIT (LENGTH_MEASURE( 1.000000000000000100E-005 ), #286, 'distance_accuracy_value', 'NONE');
#31 = EDGE_LOOP ( 'NONE', ( #53, #200, #105, #96 ) ) ;
#32 = ORIENTED_EDGE ( 'NONE', *, *, #214, .F. ) ;
#33 = DIRECTION ( 'NONE',  ( 0.0000000000000000000, 0.0000000000000000000, 1.000000000000000000 ) ) ;
#34 = CC_DESIGN_PERSON_AND_ORGANIZATION_ASSIGNMENT ( #103, #39, ( #8 ) ) ;
#35 = ORIENTED_EDGE ( 'NONE', *, *, #262, .F. ) ;
#36 = DIRECTION ( 'NONE',  ( -1.000000000000000000, -0.0000000000000000000, -0.0000000000000000000 ) ) ;
#37 = CARTESIAN_POINT ( 'NONE',  ( 0.1683542676338203900, 1.525965902989503000E-015, -12.46045720326823800 ) ) ;
#38 = CIRCLE ( 'NONE', #23, 12.46045720326822500 ) ;
#39 = PERSON_AND_ORGANIZATION_ROLE ( 'classification_officer' ) ;
#40 = COORDINATED_UNIVERSAL_TIME_OFFSET ( 5, 0, .BEHIND. ) ;
#41 = ORIENTED_EDGE ( 'NONE', *, *, #47, .F. ) ;
#42 = VERTEX_POINT ( 'NONE', #37 ) ;
#43 = AXIS2_PLACEMENT_3D ( 'NONE', #267, #148, #159 ) ;
#44 = ORIENTED_EDGE ( 'NONE', *, *, #117, .F. ) ;
#45 = LINE ( 'NONE', #100, #173 ) ;
#46 = DIRECTION ( 'NONE',  ( 0.0000000000000000000, 0.0000000000000000000, 1.000000000000000000 ) ) ;
#47 = EDGE_CURVE ( 'NONE', #171, #26, #45, .T. ) ;
#48 = ADVANCED_FACE ( 'NONE', ( #219 ), #240, .T. ) ;
#49 = DIRECTION ( 'NONE',  ( -1.000000000000000000, -0.0000000000000000000, -0.0000000000000000000 ) ) ;
#50 = ADVANCED_FACE ( 'NONE', ( #297 ), #150, .T. ) ;
#51 = AXIS2_PLACEMENT_3D ( 'NONE', #9, #189, #17 ) ;
#52 = DIRECTION ( 'NONE',  ( 0.7071067811865451300, 8.659560562354962400E-017, 0.7071067811865500200 ) ) ;
#53 = ORIENTED_EDGE ( 'NONE', *, *, #216, .F. ) ;
#54 = ORIENTED_EDGE ( 'NONE', *, *, #246, .F. ) ;
#55 = CALENDAR_DATE ( 2015, 29, 5 ) ;
#56 = VECTOR ( 'NONE', #49, 1000.000000000000000 ) ;
#57 = DIRECTION ( 'NONE',  ( 0.0000000000000000000, 0.0000000000000000000, 1.000000000000000000 ) ) ;
#58 = DIRECTION ( 'NONE',  ( -1.000000000000000000, -0.0000000000000000000, -0.0000000000000000000 ) ) ;
#59 = PERSON_AND_ORGANIZATION ( #122, #129 ) ;
#60 = ORIENTED_EDGE ( 'NONE', *, *, #250, .F. ) ;
#61 = CC_DESIGN_SECURITY_CLASSIFICATION ( #8, ( #210 ) ) ;
#62 = CC_DESIGN_APPROVAL ( #176, ( #210 ) ) ;
#63 = DIRECTION ( 'NONE',  ( 0.0000000000000000000, -1.000000000000000000, 0.0000000000000000000 ) ) ;
#64 = CC_DESIGN_DATE_AND_TIME_ASSIGNMENT ( #161, #202, ( #8 ) ) ;
#65 = DATE_TIME_ROLE ( 'creation_date' ) ;
#66 = CARTESIAN_POINT ( 'NONE',  ( -1.899999999999999900, 0.0000000000000000000, 0.0000000000000000000 ) ) ;
#67 = PRODUCT_DEFINITION ( 'UNKNOWN', '', #210, #295 ) ;
#68 = COORDINATED_UNIVERSAL_TIME_OFFSET ( 5, 0, .BEHIND. ) ;
#69 = LOCAL_TIME ( 10, 21, 30.00000000000000000, #15 ) ;
#70 = APPROVAL_ROLE ( '' ) ;
#71 = LOCAL_TIME ( 10, 21, 30.00000000000000000, #87 ) ;
#72 = AXIS2_PLACEMENT_3D ( 'NONE', #280, #144, #33 ) ;
#73 = CARTESIAN_POINT ( 'NONE',  ( -1.899999999999999900, 0.0000000000000000000, 0.0000000000000000000 ) ) ;
#74 = ADVANCED_FACE ( 'NONE', ( #3 ), #229, .T. ) ;
#75 = CALENDAR_DATE ( 2015, 29, 5 ) ;
#76 = DIRECTION ( 'NONE',  ( 0.0000000000000000000, 0.0000000000000000000, 1.000000000000000000 ) ) ;
#77 = APPROVAL ( #272, 'UNSPECIFIED' ) ;
#78 = PERSON_AND_ORGANIZATION_ROLE ( 'creator' ) ;
#79 = EDGE_LOOP ( 'NONE', ( #118, #128 ) ) ;
#80 = PERSON_AND_ORGANIZATION_ROLE ( 'design_supplier' ) ;
#81 = MECHANICAL_CONTEXT ( 'NONE', #299, 'mechanical' ) ;
#82 = VECTOR ( 'NONE', #83, 1000.000000000000000 ) ;
#83 = DIRECTION ( 'NONE',  ( -1.000000000000000000, -0.0000000000000000000, -0.0000000000000000000 ) ) ;
#84 = PERSON_AND_ORGANIZATION ( #122, #129 ) ;
#85 = VERTEX_POINT ( 'NONE', #253 ) ;
#86 = DIRECTION ( 'NONE',  ( 0.0000000000000000000, 0.0000000000000000000, 1.000000000000000000 ) ) ;
#87 = COORDINATED_UNIVERSAL_TIME_OFFSET ( 5, 0, .BEHIND. ) ;
#88 = EDGE_LOOP ( 'NONE', ( #44, #207, #220 ) ) ;
#89 = ADVANCED_FACE ( 'NONE', ( #143 ), #170, .T. ) ;
#90 = DIRECTION ( 'NONE',  ( -0.7990627883224790100, 0.0000000000000000000, 0.6012475865384451200 ) ) ;
#91 = ORIENTED_EDGE ( 'NONE', *, *, #149, .F. ) ;
#92 = DIRECTION ( 'NONE',  ( 0.0000000000000000000, 0.0000000000000000000, -1.000000000000000000 ) ) ;
#93 = CARTESIAN_POINT ( 'NONE',  ( -1.899999999999999900, 0.0000000000000000000, 12.69999999999999600 ) ) ;
#94 = DATE_AND_TIME ( #266, #269 ) ;
#95 = LOCAL_TIME ( 10, 21, 30.00000000000000000, #68 ) ;
#96 = ORIENTED_EDGE ( 'NONE', *, *, #149, .T. ) ;
#97 = CC_DESIGN_PERSON_AND_ORGANIZATION_ASSIGNMENT ( #281, #232, ( #195 ) ) ;
#98 = DIRECTION ( 'NONE',  ( -1.000000000000000000, -0.0000000000000000000, -0.0000000000000000000 ) ) ;
#99 = AXIS2_PLACEMENT_3D ( 'NONE', #66, #102, #274 ) ;
#100 = CARTESIAN_POINT ( 'NONE',  ( -0.1499999999999973600, 0.0000000000000000000, 12.69999999999999600 ) ) ;
#101 = SHAPE_DEFINITION_REPRESENTATION ( #5, #245 ) ;
#102 = DIRECTION ( 'NONE',  ( 1.000000000000000000, 0.0000000000000000000, 0.0000000000000000000 ) ) ;
#103 = PERSON_AND_ORGANIZATION ( #122, #129 ) ;
#104 = ORIENTED_EDGE ( 'NONE', *, *, #225, .F. ) ;
#105 = ORIENTED_EDGE ( 'NONE', *, *, #289, .T. ) ;
#106 = APPROVAL_STATUS ( 'not_yet_approved' ) ;
#107 = CC_DESIGN_APPROVAL ( #77, ( #67 ) ) ;
#108 = APPROVAL_DATE_TIME ( #152, #235 ) ;
#109 = DIRECTION ( 'NONE',  ( 1.000000000000000000, 0.0000000000000000000, 0.0000000000000000000 ) ) ;
#110 = CARTESIAN_POINT ( 'NONE',  ( -1.899999999999999900, 1.555301434917138000E-015, -12.69999999999999600 ) ) ;
#111 = AXIS2_PLACEMENT_3D ( 'NONE', #163, #98, #135 ) ;
#112 = CIRCLE ( 'NONE', #156, 12.69999999999999600 ) ;
#113 = AXIS2_PLACEMENT_3D ( 'NONE', #291, #301, #290 ) ;
#114 = FACE_OUTER_BOUND ( 'NONE', #88, .T. ) ;
#115 = CARTESIAN_POINT ( 'NONE',  ( 0.1683542676338203900, 0.0000000000000000000, 12.46045720326823800 ) ) ;
#116 = CIRCLE ( 'NONE', #140, 12.69999999999999600 ) ;
#117 = EDGE_CURVE ( 'NONE', #276, #42, #228, .T. ) ;
#118 = ORIENTED_EDGE ( 'NONE', *, *, #268, .T. ) ;
#119 = CONICAL_SURFACE ( 'NONE', #162, 12.69999999999999600, 0.6450615056637720700 ) ;
#120 = CIRCLE ( 'NONE', #22, 46.00000000000000000 ) ;
#121 = DIRECTION ( 'NONE',  ( -1.000000000000000000, -0.0000000000000000000, -0.0000000000000000000 ) ) ;
#122 = PERSON ( 'UNSPECIFIED', 'UNSPECIFIED', 'UNSPECIFIED', ('UNSPECIFIED'), ('UNSPECIFIED'), ('UNSPECIFIED') ) ;
#123 = CALENDAR_DATE ( 2015, 29, 5 ) ;
#124 = EDGE_LOOP ( 'NONE', ( #32, #196, #132, #239 ) ) ;
#125 = EDGE_CURVE ( 'NONE', #26, #194, #172, .T. ) ;
#126 = APPROVAL_DATE_TIME ( #94, #77 ) ;
#127 = ORIENTED_EDGE ( 'NONE', *, *, #230, .T. ) ;
#128 = ORIENTED_EDGE ( 'NONE', *, *, #225, .T. ) ;
#129 = ORGANIZATION ( 'UNSPECIFIED', 'UNSPECIFIED', '' ) ;
#130 = PERSON_AND_ORGANIZATION ( #122, #129 ) ;
#131 = ORIENTED_EDGE ( 'NONE', *, *, #230, .F. ) ;
#132 = ORIENTED_EDGE ( 'NONE', *, *, #47, .T. ) ;
#133 = ORIENTED_EDGE ( 'NONE', *, *, #153, .F. ) ;
#134 = EDGE_CURVE ( 'NONE', #171, #42, #288, .T. ) ;
#135 = DIRECTION ( 'NONE',  ( 0.0000000000000000000, 0.0000000000000000000, -1.000000000000000000 ) ) ;
#136 = CARTESIAN_POINT ( 'NONE',  ( -0.1499999999999973600, 0.0000000000000000000, 0.0000000000000000000 ) ) ;
#137 = CIRCLE ( 'NONE', #111, 12.44999999999999600 ) ;
#138 = DIRECTION ( 'NONE',  ( 1.000000000000000000, 0.0000000000000000000, 0.0000000000000000000 ) ) ;
#139 = ADVANCED_FACE ( 'NONE', ( #212 ), #296, .T. ) ;
#140 = AXIS2_PLACEMENT_3D ( 'NONE', #192, #13, #218 ) ;
#141 = DIRECTION ( 'NONE',  ( -1.000000000000000000, -0.0000000000000000000, -0.0000000000000000000 ) ) ;
#142 = PERSON_AND_ORGANIZATION ( #122, #129 ) ;
#143 = FACE_OUTER_BOUND ( 'NONE', #271, .T. ) ;
#144 = DIRECTION ( 'NONE',  ( -1.000000000000000000, -0.0000000000000000000, -0.0000000000000000000 ) ) ;
#145 = CARTESIAN_POINT ( 'NONE',  ( -0.1499999999999973600, 0.0000000000000000000, 0.0000000000000000000 ) ) ;
#146 = CARTESIAN_POINT ( 'NONE',  ( -1.899999999999999900, 1.524685264938454300E-015, 12.44999999999999600 ) ) ;
#147 = CARTESIAN_POINT ( 'NONE',  ( -1.899999999999999900, 0.0000000000000000000, 0.0000000000000000000 ) ) ;
#148 = DIRECTION ( 'NONE',  ( -1.000000000000000000, -0.0000000000000000000, -0.0000000000000000000 ) ) ;
#149 = EDGE_CURVE ( 'NONE', #224, #154, #112, .T. ) ;
#150 = CONICAL_SURFACE ( 'NONE', #300, 12.44999999999999600, 0.7853981633974517200 ) ;
#151 = FACE_OUTER_BOUND ( 'NONE', #31, .T. ) ;
#152 = DATE_AND_TIME ( #123, #95 ) ;
#153 = EDGE_CURVE ( 'NONE', #85, #154, #278, .T. ) ;
#154 = VERTEX_POINT ( 'NONE', #2 ) ;
#155 = CLOSED_SHELL ( 'NONE', ( #50, #139, #74, #89, #261, #205, #273, #187, #48 ) ) ;
#156 = AXIS2_PLACEMENT_3D ( 'NONE', #206, #109, #237 ) ;
#157 = LINE ( 'NONE', #93, #82 ) ;
#158 = CARTESIAN_POINT ( 'NONE',  ( -1.650000000000001500, 0.0000000000000000000, 12.69999999999999600 ) ) ;
#159 = DIRECTION ( 'NONE',  ( 0.0000000000000000000, 0.0000000000000000000, 1.000000000000000000 ) ) ;
#160 = APPROVAL_DATE_TIME ( #165, #176 ) ;
#161 = DATE_AND_TIME ( #75, #69 ) ;
#162 = AXIS2_PLACEMENT_3D ( 'NONE', #28, #182, #168 ) ;
#163 = CARTESIAN_POINT ( 'NONE',  ( -1.899999999999999900, 0.0000000000000000000, 0.0000000000000000000 ) ) ;
#164 = CARTESIAN_POINT ( 'NONE',  ( -1.899999999999999900, 0.0000000000000000000, 0.0000000000000000000 ) ) ;
#165 = DATE_AND_TIME ( #1, #71 ) ;
#166 = ORIENTED_EDGE ( 'NONE', *, *, #125, .F. ) ;
#167 = AXIS2_PLACEMENT_3D ( 'NONE', #284, #36, #46 ) ;
#168 = DIRECTION ( 'NONE',  ( 0.0000000000000000000, 0.0000000000000000000, 1.000000000000000000 ) ) ;
#169 = VECTOR ( 'NONE', #10, 1000.000000000000100 ) ;
#170 = CYLINDRICAL_SURFACE ( 'NONE', #167, 12.69999999999999600 ) ;
#171 = VERTEX_POINT ( 'NONE', #115 ) ;
#172 = CIRCLE ( 'NONE', #298, 12.69999999999999600 ) ;
#173 = VECTOR ( 'NONE', #90, 1000.000000000000000 ) ;
#174 = LOCAL_TIME ( 10, 21, 30.00000000000000000, #40 ) ;
#175 = CIRCLE ( 'NONE', #25, 12.69999999999999600 ) ;
#176 = APPROVAL ( #106, 'UNSPECIFIED' ) ;
#177 = AXIS2_PLACEMENT_3D ( 'NONE', #16, #138, #238 ) ;
#178 = APPLICATION_PROTOCOL_DEFINITION ( 'international standard', 'config_control_design', 1994, #19 ) ;
#179 = CARTESIAN_POINT ( 'NONE',  ( -1.899999999999999900, 1.539993349927796300E-015, 12.44999999999999600 ) ) ;
#180 = ORIENTED_EDGE ( 'NONE', *, *, #125, .T. ) ;
#181 = DIRECTION ( 'NONE',  ( 1.000000000000000000, 0.0000000000000000000, 0.0000000000000000000 ) ) ;
#182 = DIRECTION ( 'NONE',  ( -1.000000000000000000, -0.0000000000000000000, -0.0000000000000000000 ) ) ;
#183 = ORIENTED_EDGE ( 'NONE', *, *, #153, .T. ) ;
#184 = CC_DESIGN_PERSON_AND_ORGANIZATION_ASSIGNMENT ( #59, #80, ( #210 ) ) ;
#185 = PERSON_AND_ORGANIZATION ( #122, #129 ) ;
#186 = DIRECTION ( 'NONE',  ( 0.0000000000000000000, 0.0000000000000000000, 1.000000000000000000 ) ) ;
#187 = ADVANCED_FACE ( 'NONE', ( #283 ), #119, .T. ) ;
#188 = DIRECTION ( 'NONE',  ( 1.000000000000000000, 0.0000000000000000000, 0.0000000000000000000 ) ) ;
#189 = DIRECTION ( 'NONE',  ( -0.0000000000000000000, 1.000000000000000000, 1.224646799147353200E-016 ) ) ;
#190 = ORIENTED_EDGE ( 'NONE', *, *, #262, .T. ) ;
#191 = CYLINDRICAL_SURFACE ( 'NONE', #43, 12.69999999999999600 ) ;
#192 = CARTESIAN_POINT ( 'NONE',  ( -1.650000000000001500, 0.0000000000000000000, 0.0000000000000000000 ) ) ;
#193 = CARTESIAN_POINT ( 'NONE',  ( -0.1499999999999973600, 0.0000000000000000000, 0.0000000000000000000 ) ) ;
#194 = VERTEX_POINT ( 'NONE', #233 ) ;
#195 = PRODUCT ( '4282-E0W', '4282-E0W', '', ( #81 ) ) ;
#196 = ORIENTED_EDGE ( 'NONE', *, *, #134, .F. ) ;
#197 = APPROVAL_ROLE ( '' ) ;
#198 = AXIS2_PLACEMENT_3D ( 'NONE', #136, #141, #186 ) ;
#199 = COORDINATED_UNIVERSAL_TIME_OFFSET ( 5, 0, .BEHIND. ) ;
#200 = ORIENTED_EDGE ( 'NONE', *, *, #211, .T. ) ;
#201 = LINE ( 'NONE', #110, #56 ) ;
#202 = DATE_TIME_ROLE ( 'classification_date' ) ;
#203 =( GEOMETRIC_REPRESENTATION_CONTEXT ( 3 ) GLOBAL_UNCERTAINTY_ASSIGNED_CONTEXT ( ( #30 ) ) GLOBAL_UNIT_ASSIGNED_CONTEXT ( ( #286, #285, #282 ) ) REPRESENTATION_CONTEXT ( 'NONE', 'WORKASPACE' ) );
#204 = DIRECTION ( 'NONE',  ( -1.000000000000000000, -0.0000000000000000000, -0.0000000000000000000 ) ) ;
#205 = ADVANCED_FACE ( 'NONE', ( #151 ), #191, .T. ) ;
#206 = CARTESIAN_POINT ( 'NONE',  ( -1.650000000000001500, 0.0000000000000000000, 0.0000000000000000000 ) ) ;
#207 = ORIENTED_EDGE ( 'NONE', *, *, #246, .T. ) ;
#208 = CARTESIAN_POINT ( 'NONE',  ( -44.09998071338453200, 0.0000000000000000000, 0.0000000000000000000 ) ) ;
#209 = PERSON_AND_ORGANIZATION_ROLE ( 'creator' ) ;
#210 = PRODUCT_DEFINITION_FORMATION_WITH_SPECIFIED_SOURCE ( 'ANY', '', #195, .NOT_KNOWN. ) ;
#211 = EDGE_CURVE ( 'NONE', #194, #26, #175, .T. ) ;
#212 = FACE_OUTER_BOUND ( 'NONE', #215, .T. ) ;
#213 = SECURITY_CLASSIFICATION_LEVEL ( 'unclassified' ) ;
#214 = EDGE_CURVE ( 'NONE', #42, #194, #293, .T. ) ;
#215 = EDGE_LOOP ( 'NONE', ( #131, #11, #166, #41 ) ) ;
#216 = EDGE_CURVE ( 'NONE', #194, #154, #201, .T. ) ;
#217 = PERSON_AND_ORGANIZATION ( #122, #129 ) ;
#218 = DIRECTION ( 'NONE',  ( 0.0000000000000000000, 0.0000000000000000000, -1.000000000000000000 ) ) ;
#219 = FACE_OUTER_BOUND ( 'NONE', #257, .T. ) ;
#220 = ORIENTED_EDGE ( 'NONE', *, *, #134, .T. ) ;
#221 = DIRECTION ( 'NONE',  ( -0.7990627883224790100, 7.363159323493781000E-017, -0.6012475865384451200 ) ) ;
#222 = DIRECTION ( 'NONE',  ( -1.000000000000000000, -0.0000000000000000000, -0.0000000000000000000 ) ) ;
#223 = DIRECTION ( 'NONE',  ( 0.0000000000000000000, 0.0000000000000000000, -1.000000000000000000 ) ) ;
#224 = VERTEX_POINT ( 'NONE', #158 ) ;
#225 = EDGE_CURVE ( 'NONE', #265, #85, #259, .T. ) ;
#226 = DIRECTION ( 'NONE',  ( 0.0000000000000000000, 0.0000000000000000000, -1.000000000000000000 ) ) ;
#227 = CARTESIAN_POINT ( 'NONE',  ( -0.1499999999999973600, 1.555301434917138000E-015, -12.69999999999999600 ) ) ;
#228 = CIRCLE ( 'NONE', #51, 46.00000000000000000 ) ;
#229 = TOROIDAL_SURFACE ( 'NONE', #231, -0.04212325071591832600, 46.00000000000000000 ) ;
#230 = EDGE_CURVE ( 'NONE', #42, #171, #38, .T. ) ;
#231 = AXIS2_PLACEMENT_3D ( 'NONE', #208, #222, #20 ) ;
#232 = PERSON_AND_ORGANIZATION_ROLE ( 'design_owner' ) ;
#233 = CARTESIAN_POINT ( 'NONE',  ( -0.1499999999999973600, 1.555301434917138000E-015, -12.69999999999999600 ) ) ;
#234 = CARTESIAN_POINT ( 'NONE',  ( 0.1683542676338203900, 0.0000000000000000000, 0.0000000000000000000 ) ) ;
#235 = APPROVAL ( #241, 'UNSPECIFIED' ) ;
#236 = APPROVAL_PERSON_ORGANIZATION ( #185, #235, #70 ) ;
#237 = DIRECTION ( 'NONE',  ( 0.0000000000000000000, 0.0000000000000000000, -1.000000000000000000 ) ) ;
#238 = DIRECTION ( 'NONE',  ( 0.0000000000000000000, 0.0000000000000000000, 1.000000000000000000 ) ) ;
#239 = ORIENTED_EDGE ( 'NONE', *, *, #211, .F. ) ;
#240 = CONICAL_SURFACE ( 'NONE', #270, 12.44999999999999600, 0.7853981633974517200 ) ;
#241 = APPROVAL_STATUS ( 'not_yet_approved' ) ;
#242 = DATE_AND_TIME ( #55, #174 ) ;
#243 = PRODUCT_RELATED_PRODUCT_CATEGORY ( 'detail', '', ( #195 ) ) ;
#244 = PLANE ( 'NONE',  #99 ) ;
#245 = ADVANCED_BREP_SHAPE_REPRESENTATION ( '4282-E0W', ( #255, #113 ), #203 ) ;
#246 = EDGE_CURVE ( 'NONE', #276, #171, #120, .T. ) ;
#247 = APPROVAL_PERSON_ORGANIZATION ( #84, #77, #254 ) ;
#248 = CARTESIAN_POINT ( 'NONE',  ( -0.1499999999999973600, 0.0000000000000000000, 12.69999999999999600 ) ) ;
#249 = EDGE_LOOP ( 'NONE', ( #54, #287, #127 ) ) ;
#250 = EDGE_CURVE ( 'NONE', #265, #224, #275, .T. ) ;
#251 = EDGE_LOOP ( 'NONE', ( #104, #6, #35, #133 ) ) ;
#252 = ORIENTED_EDGE ( 'NONE', *, *, #289, .F. ) ;
#253 = CARTESIAN_POINT ( 'NONE',  ( -1.899999999999999900, 0.0000000000000000000, -12.44999999999999600 ) ) ;
#254 = APPROVAL_ROLE ( '' ) ;
#255 = MANIFOLD_SOLID_BREP ( '4282-001-1-solid1', #155 ) ;
#256 = VECTOR ( 'NONE', #221, 1000.000000000000000 ) ;
#257 = EDGE_LOOP ( 'NONE', ( #60, #27, #183, #91 ) ) ;
#258 = VECTOR ( 'NONE', #52, 1000.000000000000100 ) ;
#259 = CIRCLE ( 'NONE', #29, 12.44999999999999600 ) ;
#260 = ORIENTED_EDGE ( 'NONE', *, *, #216, .T. ) ;
#261 = ADVANCED_FACE ( 'NONE', ( #264 ), #244, .F. ) ;
#262 = EDGE_CURVE ( 'NONE', #154, #224, #116, .T. ) ;
#263 = TOROIDAL_SURFACE ( 'NONE', #72, -0.04212325071591832600, 46.00000000000000000 ) ;
#264 = FACE_OUTER_BOUND ( 'NONE', #79, .T. ) ;
#265 = VERTEX_POINT ( 'NONE', #179 ) ;
#266 = CALENDAR_DATE ( 2015, 29, 5 ) ;
#267 = CARTESIAN_POINT ( 'NONE',  ( -1.899999999999999900, 0.0000000000000000000, 0.0000000000000000000 ) ) ;
#268 = EDGE_CURVE ( 'NONE', #85, #265, #137, .T. ) ;
#269 = LOCAL_TIME ( 10, 21, 30.00000000000000000, #199 ) ;
#270 = AXIS2_PLACEMENT_3D ( 'NONE', #147, #181, #226 ) ;
#271 = EDGE_LOOP ( 'NONE', ( #180, #260, #190, #252 ) ) ;
#272 = APPROVAL_STATUS ( 'not_yet_approved' ) ;
#273 = ADVANCED_FACE ( 'NONE', ( #114 ), #263, .T. ) ;
#274 = DIRECTION ( 'NONE',  ( 0.0000000000000000000, 0.0000000000000000000, -1.000000000000000000 ) ) ;
#275 = LINE ( 'NONE', #146, #258 ) ;
#276 = VERTEX_POINT ( 'NONE', #292 ) ;
#277 = CC_DESIGN_PERSON_AND_ORGANIZATION_ASSIGNMENT ( #130, #78, ( #210 ) ) ;
#278 = LINE ( 'NONE', #14, #169 ) ;
#279 = APPLICATION_PROTOCOL_DEFINITION ( 'international standard', 'config_control_design', 1994, #299 ) ;
#280 = CARTESIAN_POINT ( 'NONE',  ( -44.09998071338453200, 0.0000000000000000000, 0.0000000000000000000 ) ) ;
#281 = PERSON_AND_ORGANIZATION ( #122, #129 ) ;
#282 =( NAMED_UNIT ( * ) SI_UNIT ( $, .STERADIAN. ) SOLID_ANGLE_UNIT ( ) );
#283 = FACE_OUTER_BOUND ( 'NONE', #124, .T. ) ;
#284 = CARTESIAN_POINT ( 'NONE',  ( -1.899999999999999900, 0.0000000000000000000, 0.0000000000000000000 ) ) ;
#285 =( NAMED_UNIT ( * ) PLANE_ANGLE_UNIT ( ) SI_UNIT ( $, .RADIAN. ) );
#286 =( LENGTH_UNIT ( ) NAMED_UNIT ( * ) SI_UNIT ( .MILLI., .METRE. ) );
#287 = ORIENTED_EDGE ( 'NONE', *, *, #117, .T. ) ;
#288 = CIRCLE ( 'NONE', #177, 12.46045720326822500 ) ;
#289 = EDGE_CURVE ( 'NONE', #26, #224, #157, .T. ) ;
#290 = DIRECTION ( 'NONE',  ( 1.000000000000000000, 0.0000000000000000000, 0.0000000000000000000 ) ) ;
#291 = CARTESIAN_POINT ( 'NONE',  ( 0.0000000000000000000, 0.0000000000000000000, 0.0000000000000000000 ) ) ;
#292 = CARTESIAN_POINT ( 'NONE',  ( 1.899999999999999900, 0.0000000000000000000, 0.0000000000000000000 ) ) ;
#293 = LINE ( 'NONE', #227, #256 ) ;
#294 = DIRECTION ( 'NONE',  ( 0.0000000000000000000, 0.0000000000000000000, -1.000000000000000000 ) ) ;
#295 = DESIGN_CONTEXT ( 'detailed design', #19, 'design' ) ;
#296 = CONICAL_SURFACE ( 'NONE', #198, 12.69999999999999600, 0.6450615056637720700 ) ;
#297 = FACE_OUTER_BOUND ( 'NONE', #251, .T. ) ;
#298 = AXIS2_PLACEMENT_3D ( 'NONE', #193, #58, #57 ) ;
#299 = APPLICATION_CONTEXT ( 'configuration controlled 3d designs of mechanical parts and assemblies' ) ;
#300 = AXIS2_PLACEMENT_3D ( 'NONE', #73, #21, #294 ) ;
#301 = DIRECTION ( 'NONE',  ( 0.0000000000000000000, 0.0000000000000000000, 1.000000000000000000 ) ) ;
ENDSEC;
END-ISO-10303-21;
