ISO-10303-21;
HEADER;
FILE_DESCRIPTION (( 'STEP AP203' ),
    '1' );
FILE_NAME ('TTN206020-E0W.STEP',
    '2020-01-17T20:15:53',
    ( '' ),
    ( '' ),
    'SwSTEP 2.0',
    'SolidWorks 2018',
    '' );
FILE_SCHEMA (( 'CONFIG_CONTROL_DESIGN' ));
ENDSEC;

DATA;
#1 = CARTESIAN_POINT ( 'NONE',  ( 0.0000000000000000000, -1.815302010895146691E-17, -0.6692693418086720358 ) ) ;
#2 = FACE_OUTER_BOUND ( 'NONE', #83, .T. ) ;
#3 = LOCAL_TIME ( 15, 15, 53.00000000000000000, #181 ) ;
#4 = CIRCLE ( 'NONE', #290, 28.04999999999999716 ) ;
#5 = PERSON_AND_ORGANIZATION_ROLE ( 'classification_officer' ) ;
#6 = DIRECTION ( 'NONE',  ( 0.0000000000000000000, -1.224646799147353454E-16, 1.000000000000000000 ) ) ;
#7 = EDGE_CURVE ( 'NONE', #51, #164, #215, .T. ) ;
#8 = DIRECTION ( 'NONE',  ( -0.0000000000000000000, 1.224646799147354193E-16, -1.000000000000000000 ) ) ;
#9 = DIRECTION ( 'NONE',  ( 0.0000000000000000000, 0.7071067811865499042, -0.7071067811865451302 ) ) ;
#10 = CIRCLE ( 'NONE', #245, 6.349999999999999645 ) ;
#11 = CIRCLE ( 'NONE', #208, 6.150000000000000355 ) ;
#12 = DIRECTION ( 'NONE',  ( 0.0000000000000000000, -1.000000000000000000, -1.365923996832131609E-16 ) ) ;
#13 = AXIS2_PLACEMENT_3D ( 'NONE', #151, #269, #132 ) ;
#14 = VECTOR ( 'NONE', #104, 1000.000000000000000 ) ;
#15 = ADVANCED_FACE ( 'NONE', ( #98 ), #194, .T. ) ;
#16 = CC_DESIGN_PERSON_AND_ORGANIZATION_ASSIGNMENT ( #41, #277, ( #226 ) ) ;
#17 = CARTESIAN_POINT ( 'NONE',  ( 0.0000000000000000000, 6.208578643762684202, -0.6692693418086715917 ) ) ;
#18 = ADVANCED_FACE ( 'NONE', ( #274 ), #205, .T. ) ;
#19 = VECTOR ( 'NONE', #9, 1000.000000000000114 ) ;
#20 = ORIENTED_EDGE ( 'NONE', *, *, #191, .T. ) ;
#21 = CONICAL_SURFACE ( 'NONE', #153, 6.208578643762689531, 0.7853981633974529419 ) ;
#22 = DATE_AND_TIME ( #301, #280 ) ;
#23 = APPROVAL_ROLE ( '' ) ;
#24 =( NAMED_UNIT ( * ) PLANE_ANGLE_UNIT ( ) SI_UNIT ( $, .RADIAN. ) );
#25 = DATE_TIME_ROLE ( 'classification_date' ) ;
#26 = ORIENTED_EDGE ( 'NONE', *, *, #177, .F. ) ;
#27 = LOCAL_TIME ( 15, 15, 53.00000000000000000, #266 ) ;
#28 = CONICAL_SURFACE ( 'NONE', #298, 6.349999999999999645, 0.7853981633974514986 ) ;
#29 = EDGE_CURVE ( 'NONE', #138, #51, #155, .T. ) ;
#30 = DIRECTION ( 'NONE',  ( 1.000000000000000000, 0.0000000000000000000, -0.0000000000000000000 ) ) ;
#31 = CC_DESIGN_DATE_AND_TIME_ASSIGNMENT ( #175, #285, ( #226 ) ) ;
#32 = DIRECTION ( 'NONE',  ( -0.0000000000000000000, 1.224646799147353454E-16, -1.000000000000000000 ) ) ;
#33 = VERTEX_POINT ( 'NONE', #58 ) ;
#34 = DIRECTION ( 'NONE',  ( -0.0000000000000000000, 1.224646799147353454E-16, -1.000000000000000000 ) ) ;
#35 = CARTESIAN_POINT ( 'NONE',  ( 0.0000000000000000000, -4.918487707075557330E-15, 26.68499999999999872 ) ) ;
#36 = CARTESIAN_POINT ( 'NONE',  ( 7.603315963338592470E-16, 6.208578643762689531, -0.6692693418086713697 ) ) ;
#37 = DIRECTION ( 'NONE',  ( 0.0000000000000000000, -1.000000000000000000, -1.057758217059028608E-16 ) ) ;
#38 = FACE_OUTER_BOUND ( 'NONE', #201, .T. ) ;
#39 = CC_DESIGN_PERSON_AND_ORGANIZATION_ASSIGNMENT ( #165, #255, ( #203 ) ) ;
#40 = CLOSED_SHELL ( 'NONE', ( #66, #244, #249, #15, #18, #218, #134, #112, #63 ) ) ;
#41 = PERSON_AND_ORGANIZATION ( #162, #210 ) ;
#42 = ORIENTED_EDGE ( 'NONE', *, *, #78, .F. ) ;
#43 = CARTESIAN_POINT ( 'NONE',  ( 0.0000000000000000000, -3.547214123366130674E-17, -0.5278479855713628099 ) ) ;
#44 = PLANE ( 'NONE',  #127 ) ;
#45 = APPROVAL ( #207, 'UNSPECIFIED' ) ;
#46 = DIRECTION ( 'NONE',  ( 1.000000000000000000, 0.0000000000000000000, 0.0000000000000000000 ) ) ;
#47 = AXIS2_PLACEMENT_3D ( 'NONE', #284, #192, #53 ) ;
#48 = CYLINDRICAL_SURFACE ( 'NONE', #239, 6.349999999999999645 ) ;
#49 = ORIENTED_EDGE ( 'NONE', *, *, #116, .F. ) ;
#50 = DIRECTION ( 'NONE',  ( -0.0000000000000000000, 1.224646799147353454E-16, -1.000000000000000000 ) ) ;
#51 = VERTEX_POINT ( 'NONE', #240 ) ;
#52 = COORDINATED_UNIVERSAL_TIME_OFFSET ( 5, 0, .BEHIND. ) ;
#53 = DIRECTION ( 'NONE',  ( 0.0000000000000000000, 1.000000000000000000, 1.236879483762429478E-16 ) ) ;
#54 = VERTEX_POINT ( 'NONE', #264 ) ;
#55 = DIRECTION ( 'NONE',  ( 0.0000000000000000000, 1.000000000000000000, 1.236879483762429478E-16 ) ) ;
#56 = EDGE_LOOP ( 'NONE', ( #144, #231, #180 ) ) ;
#57 = PERSON_AND_ORGANIZATION_ROLE ( 'design_supplier' ) ;
#58 = CARTESIAN_POINT ( 'NONE',  ( 7.654042494670957606E-16, -6.150000000000000355, 1.364999999999998881 ) ) ;
#59 = CARTESIAN_POINT ( 'NONE',  ( 0.0000000000000000000, -2.672791639139097941E-16, 1.364999999999999547 ) ) ;
#60 = ORIENTED_EDGE ( 'NONE', *, *, #29, .T. ) ;
#61 = CALENDAR_DATE ( 2020, 17, 1 ) ;
#62 = CARTESIAN_POINT ( 'NONE',  ( 7.776507174585692163E-16, -6.349999999999999645, 1.165000000000000258 ) ) ;
#63 = ADVANCED_FACE ( 'NONE', ( #259 ), #28, .T. ) ;
#64 = CARTESIAN_POINT ( 'NONE',  ( 0.0000000000000000000, -2.672791639139097941E-16, 1.364999999999999547 ) ) ;
#65 = CC_DESIGN_SECURITY_CLASSIFICATION ( #169, ( #68 ) ) ;
#66 = ADVANCED_FACE ( 'NONE', ( #152 ), #115, .T. ) ;
#67 = ORIENTED_EDGE ( 'NONE', *, *, #191, .F. ) ;
#68 = PRODUCT_DEFINITION_FORMATION_WITH_SPECIFIED_SOURCE ( 'ANY', '', #203, .NOT_KNOWN. ) ;
#69 = APPROVAL_DATE_TIME ( #209, #81 ) ;
#70 = PRODUCT_DEFINITION_SHAPE ( 'NONE', 'NONE',  #226 ) ;
#71 = EDGE_LOOP ( 'NONE', ( #248, #184, #114 ) ) ;
#72 = APPROVAL ( #117, 'UNSPECIFIED' ) ;
#73 = FACE_OUTER_BOUND ( 'NONE', #168, .T. ) ;
#74 = FACE_OUTER_BOUND ( 'NONE', #214, .T. ) ;
#75 = LOCAL_TIME ( 15, 15, 53.00000000000000000, #107 ) ;
#76 = DIRECTION ( 'NONE',  ( 0.0000000000000000000, -1.000000000000000000, -1.222407839678904298E-16 ) ) ;
#77 = CARTESIAN_POINT ( 'NONE',  ( 0.0000000000000000000, 6.349999999999999645, 1.165000000000002034 ) ) ;
#78 = EDGE_CURVE ( 'NONE', #138, #33, #85, .T. ) ;
#79 = PERSON_AND_ORGANIZATION ( #162, #210 ) ;
#80 = CARTESIAN_POINT ( 'NONE',  ( 0.0000000000000000000, -2.427862279309628828E-16, 1.165000000000001146 ) ) ;
#81 = APPROVAL ( #212, 'UNSPECIFIED' ) ;
#82 = VECTOR ( 'NONE', #197, 1000.000000000000000 ) ;
#83 = EDGE_LOOP ( 'NONE', ( #222, #20, #294, #159 ) ) ;
#84 = DIRECTION ( 'NONE',  ( -0.0000000000000000000, 1.224646799147353454E-16, -1.000000000000000000 ) ) ;
#85 = CIRCLE ( 'NONE', #108, 6.150000000000000355 ) ;
#86 = CARTESIAN_POINT ( 'NONE',  ( 0.0000000000000000000, 6.704941225331764300E-17, -1.364999999999999991 ) ) ;
#87 = CARTESIAN_POINT ( 'NONE',  ( 7.776507174585692163E-16, -6.349999999999999645, 1.165000000000000258 ) ) ;
#88 = CARTESIAN_POINT ( 'NONE',  ( 7.776507174585692163E-16, -6.349999999999999645, -0.5278479855713635871 ) ) ;
#89 = EDGE_CURVE ( 'NONE', #33, #138, #11, .T. ) ;
#90 = EDGE_LOOP ( 'NONE', ( #160, #258, #263, #289 ) ) ;
#91 = LINE ( 'NONE', #282, #135 ) ;
#92 = ORIENTED_EDGE ( 'NONE', *, *, #161, .T. ) ;
#93 = APPLICATION_PROTOCOL_DEFINITION ( 'international standard', 'config_control_design', 1994, #143 ) ;
#94 = EDGE_CURVE ( 'NONE', #228, #54, #4, .T. ) ;
#95 = CC_DESIGN_APPROVAL ( #81, ( #68 ) ) ;
#96 = APPLICATION_PROTOCOL_DEFINITION ( 'international standard', 'config_control_design', 1994, #119 ) ;
#97 = COORDINATED_UNIVERSAL_TIME_OFFSET ( 5, 0, .BEHIND. ) ;
#98 = FACE_OUTER_BOUND ( 'NONE', #71, .T. ) ;
#99 = CALENDAR_DATE ( 2020, 17, 1 ) ;
#100 = CIRCLE ( 'NONE', #300, 6.349999999999999645 ) ;
#101 = CC_DESIGN_APPROVAL ( #72, ( #226 ) ) ;
#102 = DIRECTION ( 'NONE',  ( 0.0000000000000000000, 1.000000000000000000, 1.365923996832131609E-16 ) ) ;
#103 = EDGE_LOOP ( 'NONE', ( #92, #225, #26, #221 ) ) ;
#104 = DIRECTION ( 'NONE',  ( 0.0000000000000000000, -0.7071067811865507924, 0.7071067811865441310 ) ) ;
#105 = CARTESIAN_POINT ( 'NONE',  ( 0.0000000000000000000, 6.150000000000000355, 1.365000000000000213 ) ) ;
#106 = ADVANCED_BREP_SHAPE_REPRESENTATION ( 'TTN206020-E0W', ( #250, #253 ), #276 ) ;
#107 = COORDINATED_UNIVERSAL_TIME_OFFSET ( 5, 0, .BEHIND. ) ;
#108 = AXIS2_PLACEMENT_3D ( 'NONE', #64, #217, #196 ) ;
#109 = DIRECTION ( 'NONE',  ( 8.659560562354973534E-17, 0.7071067811865506814, 0.7071067811865443531 ) ) ;
#110 = CARTESIAN_POINT ( 'NONE',  ( 0.0000000000000000000, -1.815302010895146691E-17, -0.6692693418086720358 ) ) ;
#111 = PRODUCT_RELATED_PRODUCT_CATEGORY ( 'detail', '', ( #203 ) ) ;
#112 = ADVANCED_FACE ( 'NONE', ( #74 ), #198, .T. ) ;
#113 = CC_DESIGN_PERSON_AND_ORGANIZATION_ASSIGNMENT ( #183, #190, ( #68 ) ) ;
#114 = ORIENTED_EDGE ( 'NONE', *, *, #94, .F. ) ;
#115 = CONICAL_SURFACE ( 'NONE', #219, 6.349999999999999645, 0.7853981633974514986 ) ;
#116 = EDGE_CURVE ( 'NONE', #33, #126, #150, .T. ) ;
#117 = APPROVAL_STATUS ( 'not_yet_approved' ) ;
#118 = EDGE_LOOP ( 'NONE', ( #49, #42, #60, #293 ) ) ;
#119 = APPLICATION_CONTEXT ( 'configuration controlled 3d designs of mechanical parts and assemblies' ) ;
#120 = DATE_AND_TIME ( #204, #75 ) ;
#121 = EDGE_CURVE ( 'NONE', #126, #51, #130, .T. ) ;
#122 = DIRECTION ( 'NONE',  ( 0.0000000000000000000, 1.000000000000000000, 1.365923996832131609E-16 ) ) ;
#123 = CARTESIAN_POINT ( 'NONE',  ( 0.0000000000000000000, -4.918487707075557330E-15, 26.68499999999999872 ) ) ;
#124 = DIRECTION ( 'NONE',  ( -0.0000000000000000000, 1.224646799147353454E-16, -1.000000000000000000 ) ) ;
#125 = PERSON_AND_ORGANIZATION ( #162, #210 ) ;
#126 = VERTEX_POINT ( 'NONE', #87 ) ;
#127 = AXIS2_PLACEMENT_3D ( 'NONE', #260, #147, #256 ) ;
#128 = DIRECTION ( 'NONE',  ( 0.0000000000000000000, -1.000000000000000000, -1.222407839678904298E-16 ) ) ;
#129 = CARTESIAN_POINT ( 'NONE',  ( 0.0000000000000000000, -2.427862279309628828E-16, 1.165000000000001146 ) ) ;
#130 = CIRCLE ( 'NONE', #202, 6.349999999999999645 ) ;
#131 = DIRECTION ( 'NONE',  ( 0.0000000000000000000, -1.000000000000000000, -1.365923996832131609E-16 ) ) ;
#132 = DIRECTION ( 'NONE',  ( -1.224646799147353207E-16, 1.000000000000000000, 0.0000000000000000000 ) ) ;
#133 = EDGE_CURVE ( 'NONE', #173, #164, #251, .T. ) ;
#134 = ADVANCED_FACE ( 'NONE', ( #73 ), #48, .T. ) ;
#135 = VECTOR ( 'NONE', #124, 1000.000000000000000 ) ;
#136 = ORIENTED_EDGE ( 'NONE', *, *, #133, .T. ) ;
#137 = DIRECTION ( 'NONE',  ( 0.0000000000000000000, 1.000000000000000000, 1.195183497228115281E-16 ) ) ;
#138 = VERTEX_POINT ( 'NONE', #105 ) ;
#139 = EDGE_CURVE ( 'NONE', #267, #173, #278, .T. ) ;
#140 = CC_DESIGN_APPROVAL ( #45, ( #169 ) ) ;
#141 = DIRECTION ( 'NONE',  ( 0.0000000000000000000, 1.000000000000000000, 1.222407839678904298E-16 ) ) ;
#142 = CC_DESIGN_PERSON_AND_ORGANIZATION_ASSIGNMENT ( #125, #57, ( #68 ) ) ;
#143 = APPLICATION_CONTEXT ( 'configuration controlled 3d designs of mechanical parts and assemblies' ) ;
#144 = ORIENTED_EDGE ( 'NONE', *, *, #167, .F. ) ;
#145 = VECTOR ( 'NONE', #32, 1000.000000000000000 ) ;
#146 = CARTESIAN_POINT ( 'NONE',  ( 0.0000000000000000000, -1.815302010895146691E-17, -0.6692693418086720358 ) ) ;
#147 = DIRECTION ( 'NONE',  ( 0.0000000000000000000, -1.224646799147353454E-16, 1.000000000000000000 ) ) ;
#148 = EDGE_CURVE ( 'NONE', #228, #267, #158, .T. ) ;
#149 = DIRECTION ( 'NONE',  ( -0.0000000000000000000, 1.224646799147354193E-16, -1.000000000000000000 ) ) ;
#150 = LINE ( 'NONE', #62, #82 ) ;
#151 = CARTESIAN_POINT ( 'NONE',  ( 0.0000000000000000000, -4.918487707075557330E-15, 26.68499999999999872 ) ) ;
#152 = FACE_OUTER_BOUND ( 'NONE', #90, .T. ) ;
#153 = AXIS2_PLACEMENT_3D ( 'NONE', #146, #6, #76 ) ;
#154 = APPROVAL_PERSON_ORGANIZATION ( #79, #72, #23 ) ;
#155 = LINE ( 'NONE', #77, #19 ) ;
#156 = CARTESIAN_POINT ( 'NONE',  ( 0.0000000000000000000, -6.208578643762689531, -0.6692693418086728130 ) ) ;
#157 = CC_DESIGN_PERSON_AND_ORGANIZATION_ASSIGNMENT ( #238, #5, ( #169 ) ) ;
#158 = CIRCLE ( 'NONE', #273, 6.208578643762689531 ) ;
#159 = ORIENTED_EDGE ( 'NONE', *, *, #139, .F. ) ;
#160 = ORIENTED_EDGE ( 'NONE', *, *, #89, .F. ) ;
#161 = EDGE_CURVE ( 'NONE', #51, #126, #10, .T. ) ;
#162 = PERSON ( 'UNSPECIFIED', 'UNSPECIFIED', 'UNSPECIFIED', ('UNSPECIFIED'), ('UNSPECIFIED'), ('UNSPECIFIED') ) ;
#163 = MECHANICAL_CONTEXT ( 'NONE', #119, 'mechanical' ) ;
#164 = VERTEX_POINT ( 'NONE', #171 ) ;
#165 = PERSON_AND_ORGANIZATION ( #162, #210 ) ;
#166 = ORIENTED_EDGE ( 'NONE', *, *, #241, .F. ) ;
#167 = EDGE_CURVE ( 'NONE', #267, #54, #179, .T. ) ;
#168 = EDGE_LOOP ( 'NONE', ( #166, #252, #234, #295 ) ) ;
#169 = SECURITY_CLASSIFICATION ( '', '', #213 ) ;
#170 = DIRECTION ( 'NONE',  ( -0.0000000000000000000, 1.224646799147354193E-16, -1.000000000000000000 ) ) ;
#171 = CARTESIAN_POINT ( 'NONE',  ( 0.0000000000000000000, 6.349999999999999645, -0.5278479855713620328 ) ) ;
#172 = PERSON_AND_ORGANIZATION ( #162, #210 ) ;
#173 = VERTEX_POINT ( 'NONE', #88 ) ;
#174 = CARTESIAN_POINT ( 'NONE',  ( 0.0000000000000000000, -1.815302010895146691E-17, -0.6692693418086720358 ) ) ;
#175 = DATE_AND_TIME ( #61, #27 ) ;
#176 = CARTESIAN_POINT ( 'NONE',  ( 0.0000000000000000000, -2.427862279309628828E-16, 1.165000000000001146 ) ) ;
#177 = EDGE_CURVE ( 'NONE', #164, #173, #100, .T. ) ;
#178 = CIRCLE ( 'NONE', #237, 6.208578643762689531 ) ;
#179 = CIRCLE ( 'NONE', #13, 28.04999999999999716 ) ;
#180 = ORIENTED_EDGE ( 'NONE', *, *, #94, .T. ) ;
#181 = COORDINATED_UNIVERSAL_TIME_OFFSET ( 5, 0, .BEHIND. ) ;
#182 = AXIS2_PLACEMENT_3D ( 'NONE', #123, #30, #55 ) ;
#183 = PERSON_AND_ORGANIZATION ( #162, #210 ) ;
#184 = ORIENTED_EDGE ( 'NONE', *, *, #167, .T. ) ;
#185 = AXIS2_PLACEMENT_3D ( 'NONE', #174, #270, #128 ) ;
#186 = APPROVAL_PERSON_ORGANIZATION ( #172, #45, #236 ) ;
#187 =( NAMED_UNIT ( * ) SI_UNIT ( $, .STERADIAN. ) SOLID_ANGLE_UNIT ( ) );
#188 = LOCAL_TIME ( 15, 15, 53.00000000000000000, #52 ) ;
#189 = APPROVAL_ROLE ( '' ) ;
#190 = PERSON_AND_ORGANIZATION_ROLE ( 'creator' ) ;
#191 = EDGE_CURVE ( 'NONE', #228, #164, #220, .T. ) ;
#192 = DIRECTION ( 'NONE',  ( 1.000000000000000000, 0.0000000000000000000, -0.0000000000000000000 ) ) ;
#193 = CARTESIAN_POINT ( 'NONE',  ( 0.0000000000000000000, 6.349999999999999645, -1.364999999999999103 ) ) ;
#194 = SPHERICAL_SURFACE ( 'NONE', #182, 28.04999999999999716 ) ;
#195 = CARTESIAN_POINT ( 'NONE',  ( 0.0000000000000000000, -3.547214123366130674E-17, -0.5278479855713628099 ) ) ;
#196 = DIRECTION ( 'NONE',  ( 0.0000000000000000000, -1.000000000000000000, -1.057758217059028608E-16 ) ) ;
#197 = DIRECTION ( 'NONE',  ( 8.659560562354961208E-17, -0.7071067811865496822, -0.7071067811865453523 ) ) ;
#198 = CONICAL_SURFACE ( 'NONE', #185, 6.208578643762689531, 0.7853981633974529419 ) ;
#199 = CC_DESIGN_DATE_AND_TIME_ASSIGNMENT ( #120, #25, ( #169 ) ) ;
#200 = ORIENTED_EDGE ( 'NONE', *, *, #78, .T. ) ;
#201 = EDGE_LOOP ( 'NONE', ( #200, #286 ) ) ;
#202 = AXIS2_PLACEMENT_3D ( 'NONE', #176, #170, #131 ) ;
#203 = PRODUCT ( 'TTN206020-E0W', 'TTN206020-E0W', '', ( #163 ) ) ;
#204 = CALENDAR_DATE ( 2020, 17, 1 ) ;
#205 = SPHERICAL_SURFACE ( 'NONE', #47, 28.04999999999999716 ) ;
#206 = DIRECTION ( 'NONE',  ( 0.0000000000000000000, 0.0000000000000000000, 1.000000000000000000 ) ) ;
#207 = APPROVAL_STATUS ( 'not_yet_approved' ) ;
#208 = AXIS2_PLACEMENT_3D ( 'NONE', #59, #242, #37 ) ;
#209 = DATE_AND_TIME ( #275, #188 ) ;
#210 = ORGANIZATION ( 'UNSPECIFIED', 'UNSPECIFIED', '' ) ;
#211 = ORIENTED_EDGE ( 'NONE', *, *, #281, .F. ) ;
#212 = APPROVAL_STATUS ( 'not_yet_approved' ) ;
#213 = SECURITY_CLASSIFICATION_LEVEL ( 'unclassified' ) ;
#214 = EDGE_LOOP ( 'NONE', ( #67, #211, #279, #136 ) ) ;
#215 = LINE ( 'NONE', #193, #145 ) ;
#216 = DIRECTION ( 'NONE',  ( 0.0000000000000000000, 0.0000000000000000000, 1.000000000000000000 ) ) ;
#217 = DIRECTION ( 'NONE',  ( 0.0000000000000000000, -1.224646799147353454E-16, 1.000000000000000000 ) ) ;
#218 = ADVANCED_FACE ( 'NONE', ( #38 ), #44, .T. ) ;
#219 = AXIS2_PLACEMENT_3D ( 'NONE', #261, #149, #122 ) ;
#220 = LINE ( 'NONE', #36, #271 ) ;
#221 = ORIENTED_EDGE ( 'NONE', *, *, #7, .F. ) ;
#222 = ORIENTED_EDGE ( 'NONE', *, *, #148, .F. ) ;
#223 = DIRECTION ( 'NONE',  ( -0.0000000000000000000, 1.224646799147353454E-16, -1.000000000000000000 ) ) ;
#224 = DATE_AND_TIME ( #99, #3 ) ;
#225 = ORIENTED_EDGE ( 'NONE', *, *, #241, .T. ) ;
#226 = PRODUCT_DEFINITION ( 'UNKNOWN', '', #68, #272 ) ;
#227 = CARTESIAN_POINT ( 'NONE',  ( 0.0000000000000000000, 6.704941225331764300E-17, -1.364999999999999991 ) ) ;
#228 = VERTEX_POINT ( 'NONE', #17 ) ;
#229 = APPROVAL_DATE_TIME ( #22, #72 ) ;
#230 = DIRECTION ( 'NONE',  ( -0.0000000000000000000, 1.224646799147353454E-16, -1.000000000000000000 ) ) ;
#231 = ORIENTED_EDGE ( 'NONE', *, *, #281, .T. ) ;
#232 = DIRECTION ( 'NONE',  ( 0.0000000000000000000, 1.000000000000000000, 1.365923996832131609E-16 ) ) ;
#233 = SHAPE_DEFINITION_REPRESENTATION ( #70, #106 ) ;
#234 = ORIENTED_EDGE ( 'NONE', *, *, #7, .T. ) ;
#235 = APPROVAL_PERSON_ORGANIZATION ( #297, #81, #189 ) ;
#236 = APPROVAL_ROLE ( '' ) ;
#237 = AXIS2_PLACEMENT_3D ( 'NONE', #1, #50, #141 ) ;
#238 = PERSON_AND_ORGANIZATION ( #162, #210 ) ;
#239 = AXIS2_PLACEMENT_3D ( 'NONE', #86, #84, #246 ) ;
#240 = CARTESIAN_POINT ( 'NONE',  ( 0.0000000000000000000, 6.349999999999999645, 1.165000000000002034 ) ) ;
#241 = EDGE_CURVE ( 'NONE', #126, #173, #91, .T. ) ;
#242 = DIRECTION ( 'NONE',  ( 0.0000000000000000000, -1.224646799147353454E-16, 1.000000000000000000 ) ) ;
#243 = DIRECTION ( 'NONE',  ( 0.0000000000000000000, 1.000000000000000000, 1.195183497228115281E-16 ) ) ;
#244 = ADVANCED_FACE ( 'NONE', ( #2 ), #21, .T. ) ;
#245 = AXIS2_PLACEMENT_3D ( 'NONE', #129, #287, #12 ) ;
#246 = DIRECTION ( 'NONE',  ( 0.0000000000000000000, 1.000000000000000000, 1.365923996832131609E-16 ) ) ;
#247 = APPROVAL_DATE_TIME ( #224, #45 ) ;
#248 = ORIENTED_EDGE ( 'NONE', *, *, #148, .T. ) ;
#249 = ADVANCED_FACE ( 'NONE', ( #265 ), #292, .T. ) ;
#250 = MANIFOLD_SOLID_BREP ( 'TTN206034-1-solid1', #40 ) ;
#251 = CIRCLE ( 'NONE', #283, 6.349999999999999645 ) ;
#252 = ORIENTED_EDGE ( 'NONE', *, *, #121, .T. ) ;
#253 = AXIS2_PLACEMENT_3D ( 'NONE', #257, #206, #46 ) ;
#254 = CARTESIAN_POINT ( 'NONE',  ( 7.603315963338586554E-16, -6.208578643762686866, -0.6692693418086722579 ) ) ;
#255 = PERSON_AND_ORGANIZATION_ROLE ( 'design_owner' ) ;
#256 = DIRECTION ( 'NONE',  ( 0.0000000000000000000, -1.000000000000000000, -1.224646799147353454E-16 ) ) ;
#257 = CARTESIAN_POINT ( 'NONE',  ( 0.0000000000000000000, 0.0000000000000000000, 0.0000000000000000000 ) ) ;
#258 = ORIENTED_EDGE ( 'NONE', *, *, #116, .T. ) ;
#259 = FACE_OUTER_BOUND ( 'NONE', #118, .T. ) ;
#260 = CARTESIAN_POINT ( 'NONE',  ( 0.0000000000000000000, -2.672791639139097448E-16, 1.364999999999999547 ) ) ;
#261 = CARTESIAN_POINT ( 'NONE',  ( 0.0000000000000000000, -2.427862279309628828E-16, 1.165000000000001146 ) ) ;
#262 = AXIS2_PLACEMENT_3D ( 'NONE', #227, #230, #232 ) ;
#263 = ORIENTED_EDGE ( 'NONE', *, *, #161, .F. ) ;
#264 = CARTESIAN_POINT ( 'NONE',  ( 0.0000000000000000000, 2.342137003369317005E-16, -1.364999999999998215 ) ) ;
#265 = FACE_OUTER_BOUND ( 'NONE', #103, .T. ) ;
#266 = COORDINATED_UNIVERSAL_TIME_OFFSET ( 5, 0, .BEHIND. ) ;
#267 = VERTEX_POINT ( 'NONE', #254 ) ;
#268 = DIRECTION ( 'NONE',  ( -1.000000000000000000, 0.0000000000000000000, 0.0000000000000000000 ) ) ;
#269 = DIRECTION ( 'NONE',  ( 1.000000000000000000, 1.224646799147353207E-16, 1.499759782661857882E-32 ) ) ;
#270 = DIRECTION ( 'NONE',  ( 0.0000000000000000000, -1.224646799147353454E-16, 1.000000000000000000 ) ) ;
#271 = VECTOR ( 'NONE', #109, 1000.000000000000000 ) ;
#272 = DESIGN_CONTEXT ( 'detailed design', #143, 'design' ) ;
#273 = AXIS2_PLACEMENT_3D ( 'NONE', #110, #288, #291 ) ;
#274 = FACE_OUTER_BOUND ( 'NONE', #56, .T. ) ;
#275 = CALENDAR_DATE ( 2020, 17, 1 ) ;
#276 =( GEOMETRIC_REPRESENTATION_CONTEXT ( 3 ) GLOBAL_UNCERTAINTY_ASSIGNED_CONTEXT ( ( #296 ) ) GLOBAL_UNIT_ASSIGNED_CONTEXT ( ( #299, #24, #187 ) ) REPRESENTATION_CONTEXT ( 'NONE', 'WORKASPACE' ) );
#277 = PERSON_AND_ORGANIZATION_ROLE ( 'creator' ) ;
#278 = LINE ( 'NONE', #156, #14 ) ;
#279 = ORIENTED_EDGE ( 'NONE', *, *, #139, .T. ) ;
#280 = LOCAL_TIME ( 15, 15, 53.00000000000000000, #97 ) ;
#281 = EDGE_CURVE ( 'NONE', #267, #228, #178, .T. ) ;
#282 = CARTESIAN_POINT ( 'NONE',  ( 7.776507174585692163E-16, -6.349999999999999645, -1.365000000000000657 ) ) ;
#283 = AXIS2_PLACEMENT_3D ( 'NONE', #195, #34, #243 ) ;
#284 = CARTESIAN_POINT ( 'NONE',  ( 0.0000000000000000000, -4.918487707075557330E-15, 26.68499999999999872 ) ) ;
#285 = DATE_TIME_ROLE ( 'creation_date' ) ;
#286 = ORIENTED_EDGE ( 'NONE', *, *, #89, .T. ) ;
#287 = DIRECTION ( 'NONE',  ( -0.0000000000000000000, 1.224646799147354193E-16, -1.000000000000000000 ) ) ;
#288 = DIRECTION ( 'NONE',  ( -0.0000000000000000000, 1.224646799147353454E-16, -1.000000000000000000 ) ) ;
#289 = ORIENTED_EDGE ( 'NONE', *, *, #29, .F. ) ;
#290 = AXIS2_PLACEMENT_3D ( 'NONE', #35, #268, #216 ) ;
#291 = DIRECTION ( 'NONE',  ( 0.0000000000000000000, 1.000000000000000000, 1.222407839678904298E-16 ) ) ;
#292 = CYLINDRICAL_SURFACE ( 'NONE', #262, 6.349999999999999645 ) ;
#293 = ORIENTED_EDGE ( 'NONE', *, *, #121, .F. ) ;
#294 = ORIENTED_EDGE ( 'NONE', *, *, #177, .T. ) ;
#295 = ORIENTED_EDGE ( 'NONE', *, *, #133, .F. ) ;
#296 = UNCERTAINTY_MEASURE_WITH_UNIT (LENGTH_MEASURE( 1.000000000000000082E-05 ), #299, 'distance_accuracy_value', 'NONE');
#297 = PERSON_AND_ORGANIZATION ( #162, #210 ) ;
#298 = AXIS2_PLACEMENT_3D ( 'NONE', #80, #8, #102 ) ;
#299 =( LENGTH_UNIT ( ) NAMED_UNIT ( * ) SI_UNIT ( .MILLI., .METRE. ) );
#300 = AXIS2_PLACEMENT_3D ( 'NONE', #43, #223, #137 ) ;
#301 = CALENDAR_DATE ( 2020, 17, 1 ) ;
ENDSEC;
END-ISO-10303-21;
