ISO-10303-21;
HEADER;
FILE_DESCRIPTION (( 'STEP AP203' ),
    '1' );
FILE_NAME ('ISP Wedged Parts_16813.step',
    '2021-01-07T19:41:06',
    ( '' ),
    ( '' ),
    'SwSTEP 2.0',
    'SolidWorks 2018',
    '' );
FILE_SCHEMA (( 'CONFIG_CONTROL_DESIGN' ));
ENDSEC;

DATA;
#1 = CARTESIAN_POINT ( 'NONE',  ( 25.40000000000001990, 50.79999999999999716, -0.2216624418850847988 ) ) ;
#2 = CARTESIAN_POINT ( 'NONE',  ( 25.39999999999999858, -50.79999999999999716, 0.6649873256552515377 ) ) ;
#3 = DIRECTION ( 'NONE',  ( 1.000000000000000000, 0.0000000000000000000, 0.0000000000000000000 ) ) ;
#4 = CARTESIAN_POINT ( 'NONE',  ( -25.39999999999999858, 0.0000000000000000000, 6.000000000000000000 ) ) ;
#5 =( BOUNDED_CURVE ( )  B_SPLINE_CURVE ( 3, ( #104, #39, #2, #68 ),
 .UNSPECIFIED., .F., .F. ) 
 B_SPLINE_CURVE_WITH_KNOTS ( ( 4, 4 ),
 ( 1.570796326794896558, 4.712388980384689674 ),
 .UNSPECIFIED. ) 
 CURVE ( )  GEOMETRIC_REPRESENTATION_ITEM ( )  RATIONAL_B_SPLINE_CURVE ( ( 1.000000000000000000, 0.3333333333333333703, 0.3333333333333333703, 1.000000000000000000 ) ) 
 REPRESENTATION_ITEM ( '' )  );
#6 = SECURITY_CLASSIFICATION_LEVEL ( 'unclassified' ) ;
#7 = LINE ( 'NONE', #4, #63 ) ;
#8 = CC_DESIGN_PERSON_AND_ORGANIZATION_ASSIGNMENT ( #89, #108, ( #131 ) ) ;
#9 = CALENDAR_DATE ( 2021, 7, 1 ) ;
#10 = ORIENTED_EDGE ( 'NONE', *, *, #154, .F. ) ;
#11 = CARTESIAN_POINT ( 'NONE',  ( -25.39999999999999858, 0.0000000000000000000, 6.000000000000000000 ) ) ;
#12 = ORIENTED_EDGE ( 'NONE', *, *, #31, .F. ) ;
#13 = CARTESIAN_POINT ( 'NONE',  ( 25.39999999999999858, 3.110602869834276865E-15, 6.000000000000000000 ) ) ;
#14 = DIRECTION ( 'NONE',  ( 0.0000000000000000000, 0.0000000000000000000, 1.000000000000000000 ) ) ;
#15 = VERTEX_POINT ( 'NONE', #11 ) ;
#16 =( NAMED_UNIT ( * ) SI_UNIT ( $, .STERADIAN. ) SOLID_ANGLE_UNIT ( ) );
#17 = CARTESIAN_POINT ( 'NONE',  ( 0.0000000000000000000, 0.0000000000000000000, 0.0000000000000000000 ) ) ;
#18 = DIRECTION ( 'NONE',  ( 0.0000000000000000000, 0.008726535498366490978, 0.9999619230641714207 ) ) ;
#19 = EDGE_LOOP ( 'NONE', ( #42, #145 ) ) ;
#20 = PERSON ( 'UNSPECIFIED', 'UNSPECIFIED', 'UNSPECIFIED', ('UNSPECIFIED'), ('UNSPECIFIED'), ('UNSPECIFIED') ) ;
#21 = COORDINATED_UNIVERSAL_TIME_OFFSET ( 5, 0, .BEHIND. ) ;
#22 = EDGE_LOOP ( 'NONE', ( #143, #34, #87, #95 ) ) ;
#23 = CARTESIAN_POINT ( 'NONE',  ( 0.0000000000000000000, 0.0000000000000000000, 6.000000000000000000 ) ) ;
#24 = DIRECTION ( 'NONE',  ( -1.000000000000000000, 0.0000000000000000000, 0.0000000000000000000 ) ) ;
#25 = DIRECTION ( 'NONE',  ( -0.0000000000000000000, -0.0000000000000000000, -1.000000000000000000 ) ) ;
#26 = DATE_AND_TIME ( #9, #41 ) ;
#27 = DIRECTION ( 'NONE',  ( 0.0000000000000000000, 0.0000000000000000000, 1.000000000000000000 ) ) ;
#28 = ADVANCED_BREP_SHAPE_REPRESENTATION ( 'ISP Wedged Parts_16813', ( #74, #52 ), #117 ) ;
#29 = LOCAL_TIME ( 14, 41, 6.000000000000000000, #161 ) ;
#30 = CARTESIAN_POINT ( 'NONE',  ( -25.39999999999999858, -25.39999999999999858, 0.4433248837701682099 ) ) ;
#31 = EDGE_CURVE ( 'NONE', #160, #57, #125, .T. ) ;
#32 = DATE_TIME_ROLE ( 'classification_date' ) ;
#33 = APPROVAL_PERSON_ORGANIZATION ( #67, #168, #142 ) ;
#34 = ORIENTED_EDGE ( 'NONE', *, *, #31, .T. ) ;
#35 = APPROVAL_PERSON_ORGANIZATION ( #62, #93, #79 ) ;
#36 = EDGE_CURVE ( 'NONE', #160, #15, #146, .T. ) ;
#37 = ADVANCED_FACE ( 'NONE', ( #112 ), #73, .T. ) ;
#38 = APPLICATION_CONTEXT ( 'configuration controlled 3d designs of mechanical parts and assemblies' ) ;
#39 = CARTESIAN_POINT ( 'NONE',  ( -25.40000000000000924, -50.79999999999999716, 0.6649873256552514267 ) ) ;
#40 = AXIS2_PLACEMENT_3D ( 'NONE', #90, #101, #24 ) ;
#41 = LOCAL_TIME ( 14, 41, 6.000000000000000000, #132 ) ;
#42 = ORIENTED_EDGE ( 'NONE', *, *, #70, .T. ) ;
#43 = FACE_OUTER_BOUND ( 'NONE', #128, .T. ) ;
#44 = CALENDAR_DATE ( 2021, 7, 1 ) ;
#45 = CYLINDRICAL_SURFACE ( 'NONE', #40, 25.39999999999999858 ) ;
#46 = ADVANCED_FACE ( 'NONE', ( #43 ), #45, .T. ) ;
#47 = DATE_AND_TIME ( #172, #86 ) ;
#48 = VECTOR ( 'NONE', #60, 1000.000000000000000 ) ;
#49 = CARTESIAN_POINT ( 'NONE',  ( -25.39999999999999858, 0.0000000000000000000, 0.2216624418850832723 ) ) ;
#50 = EDGE_CURVE ( 'NONE', #57, #133, #115, .T. ) ;
#51 =( NAMED_UNIT ( * ) PLANE_ANGLE_UNIT ( ) SI_UNIT ( $, .RADIAN. ) );
#52 = AXIS2_PLACEMENT_3D ( 'NONE', #17, #27, #3 ) ;
#53 = COORDINATED_UNIVERSAL_TIME_OFFSET ( 5, 0, .BEHIND. ) ;
#54 = AXIS2_PLACEMENT_3D ( 'NONE', #130, #173, #103 ) ;
#55 = UNCERTAINTY_MEASURE_WITH_UNIT (LENGTH_MEASURE( 1.000000000000000082E-05 ), #78, 'distance_accuracy_value', 'NONE');
#56 = SHAPE_DEFINITION_REPRESENTATION ( #162, #28 ) ;
#57 = VERTEX_POINT ( 'NONE', #151 ) ;
#58 = CC_DESIGN_PERSON_AND_ORGANIZATION_ASSIGNMENT ( #174, #158, ( #131 ) ) ;
#59 = APPROVAL_PERSON_ORGANIZATION ( #80, #144, #84 ) ;
#60 = DIRECTION ( 'NONE',  ( -0.0000000000000000000, -0.0000000000000000000, -1.000000000000000000 ) ) ;
#61 = DESIGN_CONTEXT ( 'detailed design', #155, 'design' ) ;
#62 = PERSON_AND_ORGANIZATION ( #20, #141 ) ;
#63 = VECTOR ( 'NONE', #96, 1000.000000000000000 ) ;
#64 = CARTESIAN_POINT ( 'NONE',  ( 25.39999999999999858, 3.110602869834276865E-15, 0.2216624418850832723 ) ) ;
#65 = AXIS2_PLACEMENT_3D ( 'NONE', #147, #25, #119 ) ;
#66 = ADVANCED_FACE ( 'NONE', ( #116 ), #118, .T. ) ;
#67 = PERSON_AND_ORGANIZATION ( #20, #141 ) ;
#68 = CARTESIAN_POINT ( 'NONE',  ( 25.39999999999999858, 3.110602869834276865E-15, 0.2216624418850832723 ) ) ;
#69 = APPLICATION_PROTOCOL_DEFINITION ( 'international standard', 'config_control_design', 1994, #155 ) ;
#70 = EDGE_CURVE ( 'NONE', #15, #160, #85, .T. ) ;
#71 = EDGE_CURVE ( 'NONE', #15, #133, #7, .T. ) ;
#72 = DATE_TIME_ROLE ( 'creation_date' ) ;
#73 = PLANE ( 'NONE',  #126 ) ;
#74 = MANIFOLD_SOLID_BREP ( 'Cut-Extrude1', #170 ) ;
#75 = AXIS2_PLACEMENT_3D ( 'NONE', #166, #14, #122 ) ;
#76 = CALENDAR_DATE ( 2021, 7, 1 ) ;
#77 = ORIENTED_EDGE ( 'NONE', *, *, #154, .T. ) ;
#78 =( LENGTH_UNIT ( ) NAMED_UNIT ( * ) SI_UNIT ( .MILLI., .METRE. ) );
#79 = APPROVAL_ROLE ( '' ) ;
#80 = PERSON_AND_ORGANIZATION ( #20, #141 ) ;
#81 = LOCAL_TIME ( 14, 41, 6.000000000000000000, #53 ) ;
#82 = PRODUCT_DEFINITION ( 'UNKNOWN', '', #131, #61 ) ;
#83 = PERSON_AND_ORGANIZATION_ROLE ( 'classification_officer' ) ;
#84 = APPROVAL_ROLE ( '' ) ;
#85 = CIRCLE ( 'NONE', #75, 25.39999999999999858 ) ;
#86 = LOCAL_TIME ( 14, 41, 6.000000000000000000, #111 ) ;
#87 = ORIENTED_EDGE ( 'NONE', *, *, #50, .T. ) ;
#88 = CC_DESIGN_APPROVAL ( #93, ( #82 ) ) ;
#89 = PERSON_AND_ORGANIZATION ( #20, #141 ) ;
#90 = CARTESIAN_POINT ( 'NONE',  ( 0.0000000000000000000, 0.0000000000000000000, 6.000000000000000000 ) ) ;
#91 = CARTESIAN_POINT ( 'NONE',  ( -25.40000000000000924, 50.79999999999999716, -0.2216624418850848821 ) ) ;
#92 = APPROVAL_DATE_TIME ( #149, #168 ) ;
#93 = APPROVAL ( #167, 'UNSPECIFIED' ) ;
#94 = APPROVAL_DATE_TIME ( #26, #144 ) ;
#95 = ORIENTED_EDGE ( 'NONE', *, *, #71, .F. ) ;
#96 = DIRECTION ( 'NONE',  ( -0.0000000000000000000, -0.0000000000000000000, -1.000000000000000000 ) ) ;
#97 = CC_DESIGN_PERSON_AND_ORGANIZATION_ASSIGNMENT ( #140, #114, ( #82 ) ) ;
#98 = DATE_AND_TIME ( #76, #156 ) ;
#99 = DATE_AND_TIME ( #137, #81 ) ;
#100 = SECURITY_CLASSIFICATION ( '', '', #6 ) ;
#101 = DIRECTION ( 'NONE',  ( -0.0000000000000000000, -0.0000000000000000000, -1.000000000000000000 ) ) ;
#102 = PERSON_AND_ORGANIZATION ( #20, #141 ) ;
#103 = DIRECTION ( 'NONE',  ( 1.000000000000000000, 0.0000000000000000000, 0.0000000000000000000 ) ) ;
#104 = CARTESIAN_POINT ( 'NONE',  ( -25.39999999999999858, 0.0000000000000000000, 0.2216624418850832723 ) ) ;
#105 = ORIENTED_EDGE ( 'NONE', *, *, #71, .T. ) ;
#106 = PLANE ( 'NONE',  #159 ) ;
#107 = EDGE_LOOP ( 'NONE', ( #10, #127 ) ) ;
#108 = PERSON_AND_ORGANIZATION_ROLE ( 'creator' ) ;
#109 = ORIENTED_EDGE ( 'NONE', *, *, #70, .F. ) ;
#110 = APPROVAL_STATUS ( 'not_yet_approved' ) ;
#111 = COORDINATED_UNIVERSAL_TIME_OFFSET ( 5, 0, .BEHIND. ) ;
#112 = FACE_OUTER_BOUND ( 'NONE', #19, .T. ) ;
#113 = CC_DESIGN_PERSON_AND_ORGANIZATION_ASSIGNMENT ( #121, #83, ( #100 ) ) ;
#114 = PERSON_AND_ORGANIZATION_ROLE ( 'creator' ) ;
#115 =( BOUNDED_CURVE ( )  B_SPLINE_CURVE ( 3, ( #64, #1, #91, #165 ),
 .UNSPECIFIED., .F., .F. ) 
 B_SPLINE_CURVE_WITH_KNOTS ( ( 4, 4 ),
 ( 4.712388980384689674, 7.853981633974482790 ),
 .UNSPECIFIED. ) 
 CURVE ( )  GEOMETRIC_REPRESENTATION_ITEM ( )  RATIONAL_B_SPLINE_CURVE ( ( 1.000000000000000000, 0.3333333333333333703, 0.3333333333333333703, 1.000000000000000000 ) ) 
 REPRESENTATION_ITEM ( '' )  );
#116 = FACE_OUTER_BOUND ( 'NONE', #22, .T. ) ;
#117 =( GEOMETRIC_REPRESENTATION_CONTEXT ( 3 ) GLOBAL_UNCERTAINTY_ASSIGNED_CONTEXT ( ( #55 ) ) GLOBAL_UNIT_ASSIGNED_CONTEXT ( ( #78, #51, #16 ) ) REPRESENTATION_CONTEXT ( 'NONE', 'WORKASPACE' ) );
#118 = CYLINDRICAL_SURFACE ( 'NONE', #65, 25.39999999999999858 ) ;
#119 = DIRECTION ( 'NONE',  ( -1.000000000000000000, 0.0000000000000000000, 0.0000000000000000000 ) ) ;
#120 = ADVANCED_FACE ( 'NONE', ( #153 ), #106, .F. ) ;
#121 = PERSON_AND_ORGANIZATION ( #20, #141 ) ;
#122 = DIRECTION ( 'NONE',  ( 1.000000000000000000, 0.0000000000000000000, 0.0000000000000000000 ) ) ;
#123 = CC_DESIGN_DATE_AND_TIME_ASSIGNMENT ( #98, #72, ( #82 ) ) ;
#124 = APPLICATION_PROTOCOL_DEFINITION ( 'international standard', 'config_control_design', 1994, #38 ) ;
#125 = LINE ( 'NONE', #13, #48 ) ;
#126 = AXIS2_PLACEMENT_3D ( 'NONE', #23, #163, #148 ) ;
#127 = ORIENTED_EDGE ( 'NONE', *, *, #50, .F. ) ;
#128 = EDGE_LOOP ( 'NONE', ( #12, #109, #105, #77 ) ) ;
#129 = APPROVAL_DATE_TIME ( #47, #93 ) ;
#130 = CARTESIAN_POINT ( 'NONE',  ( 0.0000000000000000000, 0.0000000000000000000, 6.000000000000000000 ) ) ;
#131 = PRODUCT_DEFINITION_FORMATION_WITH_SPECIFIED_SOURCE ( 'ANY', '', #169, .NOT_KNOWN. ) ;
#132 = COORDINATED_UNIVERSAL_TIME_OFFSET ( 5, 0, .BEHIND. ) ;
#133 = VERTEX_POINT ( 'NONE', #49 ) ;
#134 = CC_DESIGN_DATE_AND_TIME_ASSIGNMENT ( #99, #32, ( #100 ) ) ;
#135 = DIRECTION ( 'NONE',  ( 0.0000000000000000000, -0.9999619230641713097, 0.008726535498366489244 ) ) ;
#136 = PERSON_AND_ORGANIZATION_ROLE ( 'design_owner' ) ;
#137 = CALENDAR_DATE ( 2021, 7, 1 ) ;
#138 = MECHANICAL_CONTEXT ( 'NONE', #38, 'mechanical' ) ;
#139 = CC_DESIGN_PERSON_AND_ORGANIZATION_ASSIGNMENT ( #102, #136, ( #169 ) ) ;
#140 = PERSON_AND_ORGANIZATION ( #20, #141 ) ;
#141 = ORGANIZATION ( 'UNSPECIFIED', 'UNSPECIFIED', '' ) ;
#142 = APPROVAL_ROLE ( '' ) ;
#143 = ORIENTED_EDGE ( 'NONE', *, *, #36, .F. ) ;
#144 = APPROVAL ( #110, 'UNSPECIFIED' ) ;
#145 = ORIENTED_EDGE ( 'NONE', *, *, #36, .T. ) ;
#146 = CIRCLE ( 'NONE', #54, 25.39999999999999858 ) ;
#147 = CARTESIAN_POINT ( 'NONE',  ( 0.0000000000000000000, 0.0000000000000000000, 6.000000000000000000 ) ) ;
#148 = DIRECTION ( 'NONE',  ( 1.000000000000000000, 0.0000000000000000000, -0.0000000000000000000 ) ) ;
#149 = DATE_AND_TIME ( #44, #29 ) ;
#150 = APPROVAL_STATUS ( 'not_yet_approved' ) ;
#151 = CARTESIAN_POINT ( 'NONE',  ( 25.39999999999999858, 3.110602869834276865E-15, 0.2216624418850832723 ) ) ;
#152 = CARTESIAN_POINT ( 'NONE',  ( 25.39999999999999858, 3.110602869834276865E-15, 6.000000000000000000 ) ) ;
#153 = FACE_OUTER_BOUND ( 'NONE', #107, .T. ) ;
#154 = EDGE_CURVE ( 'NONE', #133, #57, #5, .T. ) ;
#155 = APPLICATION_CONTEXT ( 'configuration controlled 3d designs of mechanical parts and assemblies' ) ;
#156 = LOCAL_TIME ( 14, 41, 6.000000000000000000, #21 ) ;
#157 = CC_DESIGN_APPROVAL ( #144, ( #100 ) ) ;
#158 = PERSON_AND_ORGANIZATION_ROLE ( 'design_supplier' ) ;
#159 = AXIS2_PLACEMENT_3D ( 'NONE', #30, #18, #135 ) ;
#160 = VERTEX_POINT ( 'NONE', #152 ) ;
#161 = COORDINATED_UNIVERSAL_TIME_OFFSET ( 5, 0, .BEHIND. ) ;
#162 = PRODUCT_DEFINITION_SHAPE ( 'NONE', 'NONE',  #82 ) ;
#163 = DIRECTION ( 'NONE',  ( 0.0000000000000000000, 0.0000000000000000000, 1.000000000000000000 ) ) ;
#164 = CC_DESIGN_SECURITY_CLASSIFICATION ( #100, ( #131 ) ) ;
#165 = CARTESIAN_POINT ( 'NONE',  ( -25.39999999999999858, 0.0000000000000000000, 0.2216624418850832723 ) ) ;
#166 = CARTESIAN_POINT ( 'NONE',  ( 0.0000000000000000000, 0.0000000000000000000, 6.000000000000000000 ) ) ;
#167 = APPROVAL_STATUS ( 'not_yet_approved' ) ;
#168 = APPROVAL ( #150, 'UNSPECIFIED' ) ;
#169 = PRODUCT ( 'ISP Wedged Parts_16813', 'ISP Wedged Parts_16813', '', ( #138 ) ) ;
#170 = CLOSED_SHELL ( 'NONE', ( #66, #46, #37, #120 ) ) ;
#171 = PRODUCT_RELATED_PRODUCT_CATEGORY ( 'detail', '', ( #169 ) ) ;
#172 = CALENDAR_DATE ( 2021, 7, 1 ) ;
#173 = DIRECTION ( 'NONE',  ( 0.0000000000000000000, 0.0000000000000000000, 1.000000000000000000 ) ) ;
#174 = PERSON_AND_ORGANIZATION ( #20, #141 ) ;
#175 = CC_DESIGN_APPROVAL ( #168, ( #131 ) ) ;
ENDSEC;
END-ISO-10303-21;
