ISO-10303-21;
HEADER;
FILE_DESCRIPTION (( 'STEP AP203' ),
    '1' );
FILE_NAME ('Web Model ZnSe Unctd_39399.step',
    '2018-09-27T18:11:44',
    ( '' ),
    ( '' ),
    'SwSTEP 2.0',
    'SolidWorks 2016',
    '' );
FILE_SCHEMA (( 'CONFIG_CONTROL_DESIGN' ));
ENDSEC;

DATA;
#1 = CC_DESIGN_APPROVAL ( #9, ( #164 ) ) ;
#2 = DIRECTION ( 'NONE',  ( 1.000000000000000000, 0.0000000000000000000, 0.0000000000000000000 ) ) ;
#3 = EDGE_LOOP ( 'NONE', ( #91, #168, #125, #65 ) ) ;
#4 = APPROVAL_STATUS ( 'not_yet_approved' ) ;
#5 = EDGE_LOOP ( 'NONE', ( #70, #40 ) ) ;
#6 = PERSON_AND_ORGANIZATION_ROLE ( 'design_supplier' ) ;
#7 = EDGE_LOOP ( 'NONE', ( #36, #147, #134, #100 ) ) ;
#8 = COORDINATED_UNIVERSAL_TIME_OFFSET ( 5, 0, .BEHIND. ) ;
#9 = APPROVAL ( #38, 'UNSPECIFIED' ) ;
#10 = ADVANCED_FACE ( 'NONE', ( #73 ), #144, .T. ) ;
#11 = CARTESIAN_POINT ( 'NONE',  ( 0.0000000000000000000, 0.0000000000000000000, 2.500000000000000000 ) ) ;
#12 = DIRECTION ( 'NONE',  ( 1.000000000000000000, 0.0000000000000000000, -0.0000000000000000000 ) ) ;
#13 = CC_DESIGN_APPROVAL ( #68, ( #167 ) ) ;
#14 =( GEOMETRIC_REPRESENTATION_CONTEXT ( 3 ) GLOBAL_UNCERTAINTY_ASSIGNED_CONTEXT ( ( #42 ) ) GLOBAL_UNIT_ASSIGNED_CONTEXT ( ( #39, #107, #152 ) ) REPRESENTATION_CONTEXT ( 'NONE', 'WORKASPACE' ) );
#15 = ADVANCED_BREP_SHAPE_REPRESENTATION ( 'Web Model ZnSe Unctd_39399', ( #105, #87 ), #14 ) ;
#16 = SHAPE_DEFINITION_REPRESENTATION ( #83, #15 ) ;
#17 = LOCAL_TIME ( 14, 11, 44.00000000000000000, #50 ) ;
#18 = APPROVAL_ROLE ( '' ) ;
#19 = DATE_TIME_ROLE ( 'classification_date' ) ;
#20 = PERSON_AND_ORGANIZATION ( #71, #157 ) ;
#21 = COORDINATED_UNIVERSAL_TIME_OFFSET ( 5, 0, .BEHIND. ) ;
#22 = CARTESIAN_POINT ( 'NONE',  ( 0.0000000000000000000, 0.0000000000000000000, 0.0000000000000000000 ) ) ;
#23 = APPLICATION_PROTOCOL_DEFINITION ( 'international standard', 'config_control_design', 1994, #53 ) ;
#24 = AXIS2_PLACEMENT_3D ( 'NONE', #132, #160, #149 ) ;
#25 = DIRECTION ( 'NONE',  ( 1.000000000000000000, 0.0000000000000000000, -0.0000000000000000000 ) ) ;
#26 = APPROVAL_PERSON_ORGANIZATION ( #63, #9, #76 ) ;
#27 = COORDINATED_UNIVERSAL_TIME_OFFSET ( 5, 0, .BEHIND. ) ;
#28 = CC_DESIGN_PERSON_AND_ORGANIZATION_ASSIGNMENT ( #109, #133, ( #30 ) ) ;
#29 = FACE_OUTER_BOUND ( 'NONE', #7, .T. ) ;
#30 = PRODUCT ( 'Web Model ZnSe Unctd_39399', 'Web Model ZnSe Unctd_39399', '', ( #67 ) ) ;
#31 = SECURITY_CLASSIFICATION_LEVEL ( 'unclassified' ) ;
#32 = APPROVAL_STATUS ( 'not_yet_approved' ) ;
#33 = CC_DESIGN_PERSON_AND_ORGANIZATION_ASSIGNMENT ( #155, #97, ( #167 ) ) ;
#34 = EDGE_LOOP ( 'NONE', ( #69, #112 ) ) ;
#35 = PERSON_AND_ORGANIZATION ( #71, #157 ) ;
#36 = ORIENTED_EDGE ( 'NONE', *, *, #120, .F. ) ;
#37 = CC_DESIGN_SECURITY_CLASSIFICATION ( #156, ( #167 ) ) ;
#38 = APPROVAL_STATUS ( 'not_yet_approved' ) ;
#39 =( LENGTH_UNIT ( ) NAMED_UNIT ( * ) SI_UNIT ( .MILLI., .METRE. ) );
#40 = ORIENTED_EDGE ( 'NONE', *, *, #57, .F. ) ;
#41 = DATE_TIME_ROLE ( 'creation_date' ) ;
#42 = UNCERTAINTY_MEASURE_WITH_UNIT (LENGTH_MEASURE( 1.000000000000000100E-005 ), #39, 'distance_accuracy_value', 'NONE');
#43 = VERTEX_POINT ( 'NONE', #171 ) ;
#44 = EDGE_CURVE ( 'NONE', #98, #142, #172, .T. ) ;
#45 = PERSON_AND_ORGANIZATION_ROLE ( 'classification_officer' ) ;
#46 = EDGE_CURVE ( 'NONE', #43, #114, #47, .T. ) ;
#47 = LINE ( 'NONE', #146, #61 ) ;
#48 = CALENDAR_DATE ( 2018, 27, 9 ) ;
#49 = DIRECTION ( 'NONE',  ( -1.000000000000000000, 0.0000000000000000000, 0.0000000000000000000 ) ) ;
#50 = COORDINATED_UNIVERSAL_TIME_OFFSET ( 5, 0, .BEHIND. ) ;
#51 = ADVANCED_FACE ( 'NONE', ( #84 ), #173, .T. ) ;
#52 = CARTESIAN_POINT ( 'NONE',  ( 25.00000000000000000, 3.061616997868383000E-015, 2.500000000000000000 ) ) ;
#53 = APPLICATION_CONTEXT ( 'configuration controlled 3d designs of mechanical parts and assemblies' ) ;
#54 = PERSON_AND_ORGANIZATION_ROLE ( 'creator' ) ;
#55 = DIRECTION ( 'NONE',  ( 1.000000000000000000, 0.0000000000000000000, 0.0000000000000000000 ) ) ;
#56 = LOCAL_TIME ( 14, 11, 44.00000000000000000, #8 ) ;
#57 = EDGE_CURVE ( 'NONE', #142, #114, #72, .T. ) ;
#58 = PERSON_AND_ORGANIZATION ( #71, #157 ) ;
#59 = PRODUCT_RELATED_PRODUCT_CATEGORY ( 'detail', '', ( #30 ) ) ;
#60 = APPROVAL_DATE_TIME ( #94, #9 ) ;
#61 = VECTOR ( 'NONE', #148, 1000.000000000000000 ) ;
#62 = AXIS2_PLACEMENT_3D ( 'NONE', #175, #104, #153 ) ;
#63 = PERSON_AND_ORGANIZATION ( #71, #157 ) ;
#64 = DIRECTION ( 'NONE',  ( 1.000000000000000000, 0.0000000000000000000, 0.0000000000000000000 ) ) ;
#65 = ORIENTED_EDGE ( 'NONE', *, *, #124, .T. ) ;
#66 = DIRECTION ( 'NONE',  ( 0.0000000000000000000, 0.0000000000000000000, 1.000000000000000000 ) ) ;
#67 = MECHANICAL_CONTEXT ( 'NONE', #90, 'mechanical' ) ;
#68 = APPROVAL ( #4, 'UNSPECIFIED' ) ;
#69 = ORIENTED_EDGE ( 'NONE', *, *, #103, .T. ) ;
#70 = ORIENTED_EDGE ( 'NONE', *, *, #124, .F. ) ;
#71 = PERSON ( 'UNSPECIFIED', 'UNSPECIFIED', 'UNSPECIFIED', ('UNSPECIFIED'), ('UNSPECIFIED'), ('UNSPECIFIED') ) ;
#72 = CIRCLE ( 'NONE', #24, 25.00000000000000000 ) ;
#73 = FACE_OUTER_BOUND ( 'NONE', #3, .T. ) ;
#74 = CALENDAR_DATE ( 2018, 27, 9 ) ;
#75 = CLOSED_SHELL ( 'NONE', ( #145, #10, #51, #99 ) ) ;
#76 = APPROVAL_ROLE ( '' ) ;
#77 = CARTESIAN_POINT ( 'NONE',  ( 25.00000000000000000, 3.061616997868383000E-015, -2.500000000000000000 ) ) ;
#78 = CARTESIAN_POINT ( 'NONE',  ( 0.0000000000000000000, 0.0000000000000000000, 2.500000000000000000 ) ) ;
#79 = AXIS2_PLACEMENT_3D ( 'NONE', #78, #163, #137 ) ;
#80 = CC_DESIGN_PERSON_AND_ORGANIZATION_ASSIGNMENT ( #86, #45, ( #156 ) ) ;
#81 = COORDINATED_UNIVERSAL_TIME_OFFSET ( 5, 0, .BEHIND. ) ;
#82 = CC_DESIGN_PERSON_AND_ORGANIZATION_ASSIGNMENT ( #126, #6, ( #167 ) ) ;
#83 = PRODUCT_DEFINITION_SHAPE ( 'NONE', 'NONE',  #164 ) ;
#84 = FACE_OUTER_BOUND ( 'NONE', #34, .T. ) ;
#85 = CARTESIAN_POINT ( 'NONE',  ( 0.0000000000000000000, 0.0000000000000000000, 2.500000000000000000 ) ) ;
#86 = PERSON_AND_ORGANIZATION ( #71, #157 ) ;
#87 = AXIS2_PLACEMENT_3D ( 'NONE', #22, #66, #2 ) ;
#88 = DIRECTION ( 'NONE',  ( 0.0000000000000000000, 0.0000000000000000000, 1.000000000000000000 ) ) ;
#89 = APPROVAL_PERSON_ORGANIZATION ( #35, #68, #18 ) ;
#90 = APPLICATION_CONTEXT ( 'configuration controlled 3d designs of mechanical parts and assemblies' ) ;
#91 = ORIENTED_EDGE ( 'NONE', *, *, #44, .F. ) ;
#92 = DATE_AND_TIME ( #118, #135 ) ;
#93 = CARTESIAN_POINT ( 'NONE',  ( 0.0000000000000000000, 0.0000000000000000000, -2.500000000000000000 ) ) ;
#94 = DATE_AND_TIME ( #48, #158 ) ;
#95 = CIRCLE ( 'NONE', #62, 25.00000000000000000 ) ;
#96 = CC_DESIGN_PERSON_AND_ORGANIZATION_ASSIGNMENT ( #20, #54, ( #164 ) ) ;
#97 = PERSON_AND_ORGANIZATION_ROLE ( 'creator' ) ;
#98 = VERTEX_POINT ( 'NONE', #129 ) ;
#99 = ADVANCED_FACE ( 'NONE', ( #166 ), #102, .F. ) ;
#100 = ORIENTED_EDGE ( 'NONE', *, *, #46, .F. ) ;
#101 = CARTESIAN_POINT ( 'NONE',  ( -25.00000000000000000, 0.0000000000000000000, -2.500000000000000000 ) ) ;
#102 = PLANE ( 'NONE',  #170 ) ;
#103 = EDGE_CURVE ( 'NONE', #43, #98, #154, .T. ) ;
#104 = DIRECTION ( 'NONE',  ( 0.0000000000000000000, 0.0000000000000000000, 1.000000000000000000 ) ) ;
#105 = MANIFOLD_SOLID_BREP ( 'Boss-Extrude1', #75 ) ;
#106 = VECTOR ( 'NONE', #174, 1000.000000000000000 ) ;
#107 =( NAMED_UNIT ( * ) PLANE_ANGLE_UNIT ( ) SI_UNIT ( $, .RADIAN. ) );
#108 = DIRECTION ( 'NONE',  ( 0.0000000000000000000, 0.0000000000000000000, 1.000000000000000000 ) ) ;
#109 = PERSON_AND_ORGANIZATION ( #71, #157 ) ;
#110 = APPROVAL_DATE_TIME ( #131, #141 ) ;
#111 = CC_DESIGN_DATE_AND_TIME_ASSIGNMENT ( #115, #41, ( #164 ) ) ;
#112 = ORIENTED_EDGE ( 'NONE', *, *, #120, .T. ) ;
#113 = APPROVAL_ROLE ( '' ) ;
#114 = VERTEX_POINT ( 'NONE', #101 ) ;
#115 = DATE_AND_TIME ( #128, #127 ) ;
#116 = DIRECTION ( 'NONE',  ( -0.0000000000000000000, -0.0000000000000000000, -1.000000000000000000 ) ) ;
#117 = CC_DESIGN_DATE_AND_TIME_ASSIGNMENT ( #140, #19, ( #156 ) ) ;
#118 = CALENDAR_DATE ( 2018, 27, 9 ) ;
#119 = APPLICATION_PROTOCOL_DEFINITION ( 'international standard', 'config_control_design', 1994, #90 ) ;
#120 = EDGE_CURVE ( 'NONE', #98, #43, #130, .T. ) ;
#121 = CARTESIAN_POINT ( 'NONE',  ( 0.0000000000000000000, 0.0000000000000000000, 2.500000000000000000 ) ) ;
#122 = CALENDAR_DATE ( 2018, 27, 9 ) ;
#123 = CARTESIAN_POINT ( 'NONE',  ( 0.0000000000000000000, 0.0000000000000000000, 2.500000000000000000 ) ) ;
#124 = EDGE_CURVE ( 'NONE', #114, #142, #95, .T. ) ;
#125 = ORIENTED_EDGE ( 'NONE', *, *, #46, .T. ) ;
#126 = PERSON_AND_ORGANIZATION ( #71, #157 ) ;
#127 = LOCAL_TIME ( 14, 11, 44.00000000000000000, #21 ) ;
#128 = CALENDAR_DATE ( 2018, 27, 9 ) ;
#129 = CARTESIAN_POINT ( 'NONE',  ( 25.00000000000000000, 3.061616997868383000E-015, 2.500000000000000000 ) ) ;
#130 = CIRCLE ( 'NONE', #161, 25.00000000000000000 ) ;
#131 = DATE_AND_TIME ( #74, #17 ) ;
#132 = CARTESIAN_POINT ( 'NONE',  ( 0.0000000000000000000, 0.0000000000000000000, -2.500000000000000000 ) ) ;
#133 = PERSON_AND_ORGANIZATION_ROLE ( 'design_owner' ) ;
#134 = ORIENTED_EDGE ( 'NONE', *, *, #57, .T. ) ;
#135 = LOCAL_TIME ( 14, 11, 44.00000000000000000, #27 ) ;
#136 = DIRECTION ( 'NONE',  ( 0.0000000000000000000, 0.0000000000000000000, 1.000000000000000000 ) ) ;
#137 = DIRECTION ( 'NONE',  ( -1.000000000000000000, 0.0000000000000000000, 0.0000000000000000000 ) ) ;
#138 = AXIS2_PLACEMENT_3D ( 'NONE', #121, #136, #55 ) ;
#139 = CYLINDRICAL_SURFACE ( 'NONE', #79, 25.00000000000000000 ) ;
#140 = DATE_AND_TIME ( #122, #56 ) ;
#141 = APPROVAL ( #32, 'UNSPECIFIED' ) ;
#142 = VERTEX_POINT ( 'NONE', #77 ) ;
#143 = AXIS2_PLACEMENT_3D ( 'NONE', #85, #116, #49 ) ;
#144 = CYLINDRICAL_SURFACE ( 'NONE', #143, 25.00000000000000000 ) ;
#145 = ADVANCED_FACE ( 'NONE', ( #29 ), #139, .T. ) ;
#146 = CARTESIAN_POINT ( 'NONE',  ( -25.00000000000000000, 0.0000000000000000000, 2.500000000000000000 ) ) ;
#147 = ORIENTED_EDGE ( 'NONE', *, *, #44, .T. ) ;
#148 = DIRECTION ( 'NONE',  ( -0.0000000000000000000, -0.0000000000000000000, -1.000000000000000000 ) ) ;
#149 = DIRECTION ( 'NONE',  ( 1.000000000000000000, 0.0000000000000000000, 0.0000000000000000000 ) ) ;
#150 = CC_DESIGN_APPROVAL ( #141, ( #156 ) ) ;
#151 = DIRECTION ( 'NONE',  ( 0.0000000000000000000, 0.0000000000000000000, 1.000000000000000000 ) ) ;
#152 =( NAMED_UNIT ( * ) SI_UNIT ( $, .STERADIAN. ) SOLID_ANGLE_UNIT ( ) );
#153 = DIRECTION ( 'NONE',  ( 1.000000000000000000, 0.0000000000000000000, 0.0000000000000000000 ) ) ;
#154 = CIRCLE ( 'NONE', #138, 25.00000000000000000 ) ;
#155 = PERSON_AND_ORGANIZATION ( #71, #157 ) ;
#156 = SECURITY_CLASSIFICATION ( '', '', #31 ) ;
#157 = ORGANIZATION ( 'UNSPECIFIED', 'UNSPECIFIED', '' ) ;
#158 = LOCAL_TIME ( 14, 11, 44.00000000000000000, #81 ) ;
#159 = APPROVAL_DATE_TIME ( #92, #68 ) ;
#160 = DIRECTION ( 'NONE',  ( 0.0000000000000000000, 0.0000000000000000000, 1.000000000000000000 ) ) ;
#161 = AXIS2_PLACEMENT_3D ( 'NONE', #123, #151, #64 ) ;
#162 = DESIGN_CONTEXT ( 'detailed design', #53, 'design' ) ;
#163 = DIRECTION ( 'NONE',  ( -0.0000000000000000000, -0.0000000000000000000, -1.000000000000000000 ) ) ;
#164 = PRODUCT_DEFINITION ( 'UNKNOWN', '', #167, #162 ) ;
#165 = AXIS2_PLACEMENT_3D ( 'NONE', #11, #88, #12 ) ;
#166 = FACE_OUTER_BOUND ( 'NONE', #5, .T. ) ;
#167 = PRODUCT_DEFINITION_FORMATION_WITH_SPECIFIED_SOURCE ( 'ANY', '', #30, .NOT_KNOWN. ) ;
#168 = ORIENTED_EDGE ( 'NONE', *, *, #103, .F. ) ;
#169 = APPROVAL_PERSON_ORGANIZATION ( #58, #141, #113 ) ;
#170 = AXIS2_PLACEMENT_3D ( 'NONE', #93, #108, #25 ) ;
#171 = CARTESIAN_POINT ( 'NONE',  ( -25.00000000000000000, 0.0000000000000000000, 2.500000000000000000 ) ) ;
#172 = LINE ( 'NONE', #52, #106 ) ;
#173 = PLANE ( 'NONE',  #165 ) ;
#174 = DIRECTION ( 'NONE',  ( -0.0000000000000000000, -0.0000000000000000000, -1.000000000000000000 ) ) ;
#175 = CARTESIAN_POINT ( 'NONE',  ( 0.0000000000000000000, 0.0000000000000000000, -2.500000000000000000 ) ) ;
ENDSEC;
END-ISO-10303-21;
