ISO-10303-21;
HEADER;
FILE_DESCRIPTION (( 'STEP AP203' ),
    '1' );
FILE_NAME ('TTN049384-E0W.STEP',
    '2016-07-25T14:36:17',
    ( 'admin' ),
    ( '' ),
    'SwSTEP 2.0',
    'SolidWorks 2016',
    '' );
FILE_SCHEMA (( 'CONFIG_CONTROL_DESIGN' ));
ENDSEC;

DATA;
#1 = FACE_OUTER_BOUND ( 'NONE', #297, .T. ) ;
#2 = DIRECTION ( 'NONE',  ( 0.0000000000000000000, -3.061515884555943600E-016, 1.000000000000000000 ) ) ;
#3 =( CONVERSION_BASED_UNIT ( 'INCH', #169 ) LENGTH_UNIT ( ) NAMED_UNIT ( #246 ) );
#4 = VERTEX_POINT ( 'NONE', #80 ) ;
#5 = DIRECTION ( 'NONE',  ( 0.0000000000000000000, 0.6920119220186913300, -0.7218860711940609000 ) ) ;
#6 = APPROVAL_ROLE ( '' ) ;
#7 = VECTOR ( 'NONE', #208, 39.37007874015748100 ) ;
#8 = AXIS2_PLACEMENT_3D ( 'NONE', #214, #164, #52 ) ;
#9 = CIRCLE ( 'NONE', #109, 0.4921356285416524900 ) ;
#10 = CIRCLE ( 'NONE', #299, 0.5000000000000000000 ) ;
#11 = ADVANCED_FACE ( 'NONE', ( #58 ), #140, .T. ) ;
#12 = PERSON_AND_ORGANIZATION ( #71, #88 ) ;
#13 = EDGE_CURVE ( 'NONE', #77, #272, #9, .T. ) ;
#14 = CALENDAR_DATE ( 2016, 25, 7 ) ;
#15 = FACE_OUTER_BOUND ( 'NONE', #104, .T. ) ;
#16 = ORIENTED_EDGE ( 'NONE', *, *, #199, .T. ) ;
#17 = DIRECTION ( 'NONE',  ( 0.0000000000000000000, -3.061515884555751400E-016, 1.000000000000000000 ) ) ;
#18 = CC_DESIGN_PERSON_AND_ORGANIZATION_ASSIGNMENT ( #265, #211, ( #277 ) ) ;
#19 = APPROVAL_PERSON_ORGANIZATION ( #12, #293, #49 ) ;
#20 = CARTESIAN_POINT ( 'NONE',  ( 0.0000000000000000000, -2.201808970206575000E-015, 0.02519846733180984900 ) ) ;
#21 = EDGE_CURVE ( 'NONE', #77, #61, #244, .T. ) ;
#22 = VERTEX_POINT ( 'NONE', #226 ) ;
#23 = AXIS2_PLACEMENT_3D ( 'NONE', #106, #264, #122 ) ;
#24 = ORIENTED_EDGE ( 'NONE', *, *, #198, .F. ) ;
#25 = DIRECTION ( 'NONE',  ( 1.000000000000000000, 0.0000000000000000000, -0.0000000000000000000 ) ) ;
#26 = DIRECTION ( 'NONE',  ( 1.000000000000000000, 1.224646799147353200E-016, 3.749275628560214200E-032 ) ) ;
#27 = COORDINATED_UNIVERSAL_TIME_OFFSET ( 5, 0, .BEHIND. ) ;
#28 = DIRECTION ( 'NONE',  ( -0.0000000000000000000, 3.061515884555943600E-016, -1.000000000000000000 ) ) ;
#29 =( NAMED_UNIT ( * ) SI_UNIT ( $, .STERADIAN. ) SOLID_ANGLE_UNIT ( ) );
#30 = DATE_TIME_ROLE ( 'creation_date' ) ;
#31 = DIRECTION ( 'NONE',  ( -0.0000000000000000000, 3.061515884555943600E-016, -1.000000000000000000 ) ) ;
#32 = ORIENTED_EDGE ( 'NONE', *, *, #125, .F. ) ;
#33 = ORIENTED_EDGE ( 'NONE', *, *, #295, .F. ) ;
#34 = MANIFOLD_SOLID_BREP ( 'TTN049385-1-solid1', #289 ) ;
#35 = CC_DESIGN_PERSON_AND_ORGANIZATION_ASSIGNMENT ( #201, #75, ( #277 ) ) ;
#36 = EDGE_LOOP ( 'NONE', ( #249, #217, #66, #290 ) ) ;
#37 = LINE ( 'NONE', #162, #153 ) ;
#38 = AXIS2_PLACEMENT_3D ( 'NONE', #120, #144, #143 ) ;
#39 = ORIENTED_EDGE ( 'NONE', *, *, #125, .T. ) ;
#40 = FACE_OUTER_BOUND ( 'NONE', #154, .T. ) ;
#41 = APPROVAL_PERSON_ORGANIZATION ( #270, #207, #6 ) ;
#42 = CARTESIAN_POINT ( 'NONE',  ( 0.0000000000000000000, 0.4921356285416542100, 0.02519846733180992900 ) ) ;
#43 = CARTESIAN_POINT ( 'NONE',  ( 0.0000000000000000000, -1.480110512895825600E-015, 0.03543307086614220400 ) ) ;
#44 = SECURITY_CLASSIFICATION ( '', '', #237 ) ;
#45 = CARTESIAN_POINT ( 'NONE',  ( 0.0000000000000000000, 0.0000000000000000000, 0.0000000000000000000 ) ) ;
#46 = EDGE_CURVE ( 'NONE', #61, #251, #294, .T. ) ;
#47 = DIRECTION ( 'NONE',  ( 0.0000000000000000000, 1.000000000000000000, 3.073328992872296400E-016 ) ) ;
#48 = APPLICATION_PROTOCOL_DEFINITION ( 'international standard', 'config_control_design', 1994, #72 ) ;
#49 = APPROVAL_ROLE ( '' ) ;
#50 = ORIENTED_EDGE ( 'NONE', *, *, #13, .T. ) ;
#51 = CARTESIAN_POINT ( 'NONE',  ( 0.0000000000000000000, 0.5000000000000000000, -0.03543307086614157200 ) ) ;
#52 = DIRECTION ( 'NONE',  ( 0.0000000000000000000, 1.000000000000000000, 3.073328992872296400E-016 ) ) ;
#53 = ORIENTED_EDGE ( 'NONE', *, *, #301, .T. ) ;
#54 = CIRCLE ( 'NONE', #197, 0.5000000000000000000 ) ;
#55 = ADVANCED_BREP_SHAPE_REPRESENTATION ( 'TTN049384-E0W', ( #34, #156 ), #108 ) ;
#56 = AXIS2_PLACEMENT_3D ( 'NONE', #178, #282, #257 ) ;
#57 = CYLINDRICAL_SURFACE ( 'NONE', #38, 0.5000000000000000000 ) ;
#58 = FACE_OUTER_BOUND ( 'NONE', #168, .T. ) ;
#59 = ORIENTED_EDGE ( 'NONE', *, *, #225, .F. ) ;
#60 = ORIENTED_EDGE ( 'NONE', *, *, #13, .F. ) ;
#61 = VERTEX_POINT ( 'NONE', #254 ) ;
#62 = VECTOR ( 'NONE', #288, 39.37007874015748100 ) ;
#63 = CC_DESIGN_PERSON_AND_ORGANIZATION_ASSIGNMENT ( #259, #103, ( #44 ) ) ;
#64 = DIRECTION ( 'NONE',  ( 8.474701852719977500E-017, -0.6920119220186907700, -0.7218860711940612300 ) ) ;
#65 = AXIS2_PLACEMENT_3D ( 'NONE', #68, #228, #93 ) ;
#66 = ORIENTED_EDGE ( 'NONE', *, *, #225, .T. ) ;
#67 = DIRECTION ( 'NONE',  ( -0.0000000000000000000, 3.061515884555943600E-016, -1.000000000000000000 ) ) ;
#68 = CARTESIAN_POINT ( 'NONE',  ( 0.0000000000000000000, 1.419096984976687100E-015, -11.80196850393700800 ) ) ;
#69 = CARTESIAN_POINT ( 'NONE',  ( 0.0000000000000000000, 1.419096984976687100E-015, -11.80196850393700800 ) ) ;
#70 = CARTESIAN_POINT ( 'NONE',  ( 0.0000000000000000000, -1.123359371813435900E-017, -0.02755905511811041600 ) ) ;
#71 = PERSON ( 'UNSPECIFIED', 'UNSPECIFIED', 'UNSPECIFIED', ('UNSPECIFIED'), ('UNSPECIFIED'), ('UNSPECIFIED') ) ;
#72 = APPLICATION_CONTEXT ( 'configuration controlled 3d designs of mechanical parts and assemblies' ) ;
#73 = APPROVAL_DATE_TIME ( #195, #293 ) ;
#74 = CARTESIAN_POINT ( 'NONE',  ( 0.0000000000000000000, -8.822951289350187200E-018, -0.03543307086614180100 ) ) ;
#75 = PERSON_AND_ORGANIZATION_ROLE ( 'design_supplier' ) ;
#76 = DIRECTION ( 'NONE',  ( -0.0000000000000000000, 3.061515884555751400E-016, -1.000000000000000000 ) ) ;
#77 = VERTEX_POINT ( 'NONE', #302 ) ;
#78 = ORIENTED_EDGE ( 'NONE', *, *, #221, .F. ) ;
#79 = CARTESIAN_POINT ( 'NONE',  ( 6.123233995736766000E-017, -0.5000000000000000000, -0.03543307086614187800 ) ) ;
#80 = CARTESIAN_POINT ( 'NONE',  ( 0.0000000000000000000, 0.5000000000000000000, 0.01699459102008850000 ) ) ;
#81 = CONICAL_SURFACE ( 'NONE', #280, 0.4921259842519686800, 0.7853981633974437300 ) ;
#82 = CIRCLE ( 'NONE', #151, 11.83740157480314900 ) ;
#83 = CC_DESIGN_DATE_AND_TIME_ASSIGNMENT ( #196, #261, ( #44 ) ) ;
#84 = LOCAL_TIME ( 10, 36, 17.00000000000000000, #134 ) ;
#85 = COORDINATED_UNIVERSAL_TIME_OFFSET ( 5, 0, .BEHIND. ) ;
#86 = DATE_AND_TIME ( #273, #84 ) ;
#87 = AXIS2_PLACEMENT_3D ( 'NONE', #70, #231, #97 ) ;
#88 = ORGANIZATION ( 'UNSPECIFIED', 'UNSPECIFIED', '' ) ;
#89 = APPROVAL_DATE_TIME ( #188, #96 ) ;
#90 = DIRECTION ( 'NONE',  ( -0.0000000000000000000, 3.061515884555943600E-016, -1.000000000000000000 ) ) ;
#91 = EDGE_CURVE ( 'NONE', #22, #174, #135, .T. ) ;
#92 = DIRECTION ( 'NONE',  ( 0.0000000000000000000, 1.000000000000000000, 3.692496839143102500E-016 ) ) ;
#93 = DIRECTION ( 'NONE',  ( 0.0000000000000000000, 1.000000000000000000, 3.692496839143102500E-016 ) ) ;
#94 = PERSON_AND_ORGANIZATION ( #71, #88 ) ;
#95 = DIRECTION ( 'NONE',  ( 0.0000000000000000000, 0.0000000000000000000, 1.000000000000000000 ) ) ;
#96 = APPROVAL ( #119, 'UNSPECIFIED' ) ;
#97 = DIRECTION ( 'NONE',  ( 0.0000000000000000000, 1.000000000000000000, 3.073328992872296400E-016 ) ) ;
#98 = DIRECTION ( 'NONE',  ( -0.0000000000000000000, 3.061515884555943600E-016, -1.000000000000000000 ) ) ;
#99 = DESIGN_CONTEXT ( 'detailed design', #117, 'design' ) ;
#100 = MECHANICAL_CONTEXT ( 'NONE', #72, 'mechanical' ) ;
#101 = PERSON_AND_ORGANIZATION ( #71, #88 ) ;
#102 = DIRECTION ( 'NONE',  ( 0.0000000000000000000, 1.000000000000000000, 3.035766082959411400E-016 ) ) ;
#103 = PERSON_AND_ORGANIZATION_ROLE ( 'classification_officer' ) ;
#104 = EDGE_LOOP ( 'NONE', ( #60, #105, #171, #152 ) ) ;
#105 = ORIENTED_EDGE ( 'NONE', *, *, #21, .T. ) ;
#106 = CARTESIAN_POINT ( 'NONE',  ( 0.0000000000000000000, -2.201808970206575000E-015, 0.02519846733180984900 ) ) ;
#107 = FACE_OUTER_BOUND ( 'NONE', #173, .T. ) ;
#108 =( GEOMETRIC_REPRESENTATION_CONTEXT ( 3 ) GLOBAL_UNCERTAINTY_ASSIGNED_CONTEXT ( ( #155 ) ) GLOBAL_UNIT_ASSIGNED_CONTEXT ( ( #3, #161, #29 ) ) REPRESENTATION_CONTEXT ( 'NONE', 'WORKASPACE' ) );
#109 = AXIS2_PLACEMENT_3D ( 'NONE', #20, #17, #204 ) ;
#110 = LINE ( 'NONE', #181, #7 ) ;
#111 = APPROVAL_DATE_TIME ( #130, #207 ) ;
#112 = CC_DESIGN_APPROVAL ( #96, ( #44 ) ) ;
#113 = CARTESIAN_POINT ( 'NONE',  ( 0.0000000000000000000, -8.822951289350187200E-018, -0.03543307086614180100 ) ) ;
#114 = DIRECTION ( 'NONE',  ( 0.0000000000000000000, 0.0000000000000000000, 1.000000000000000000 ) ) ;
#115 = CIRCLE ( 'NONE', #266, 0.4921259842519686800 ) ;
#116 = CARTESIAN_POINT ( 'NONE',  ( 0.0000000000000000000, -2.487376325483236500E-017, 0.01699459102008834800 ) ) ;
#117 = APPLICATION_CONTEXT ( 'configuration controlled 3d designs of mechanical parts and assemblies' ) ;
#118 = ORIENTED_EDGE ( 'NONE', *, *, #158, .T. ) ;
#119 = APPROVAL_STATUS ( 'not_yet_approved' ) ;
#120 = CARTESIAN_POINT ( 'NONE',  ( 0.0000000000000000000, -8.822951289350208800E-018, -0.03543307086614172500 ) ) ;
#121 = AXIS2_PLACEMENT_3D ( 'NONE', #113, #98, #200 ) ;
#122 = DIRECTION ( 'NONE',  ( 0.0000000000000000000, 1.000000000000000000, 3.035706591620401500E-016 ) ) ;
#123 = ADVANCED_FACE ( 'NONE', ( #253 ), #223, .T. ) ;
#124 = CYLINDRICAL_SURFACE ( 'NONE', #245, 0.5000000000000000000 ) ;
#125 = EDGE_CURVE ( 'NONE', #165, #77, #82, .T. ) ;
#126 = LINE ( 'NONE', #262, #62 ) ;
#127 = CC_DESIGN_SECURITY_CLASSIFICATION ( #44, ( #277 ) ) ;
#128 = LOCAL_TIME ( 10, 36, 17.00000000000000000, #85 ) ;
#129 = FACE_OUTER_BOUND ( 'NONE', #36, .T. ) ;
#130 = DATE_AND_TIME ( #194, #177 ) ;
#131 = PERSON_AND_ORGANIZATION ( #71, #88 ) ;
#132 = AXIS2_PLACEMENT_3D ( 'NONE', #206, #67, #227 ) ;
#133 = ORIENTED_EDGE ( 'NONE', *, *, #148, .F. ) ;
#134 = COORDINATED_UNIVERSAL_TIME_OFFSET ( 5, 0, .BEHIND. ) ;
#135 = CIRCLE ( 'NONE', #132, 0.4921259842519686800 ) ;
#136 = CARTESIAN_POINT ( 'NONE',  ( 0.0000000000000000000, 1.419096984976687100E-015, -11.80196850393700800 ) ) ;
#137 = CARTESIAN_POINT ( 'NONE',  ( 0.0000000000000000000, -1.123359371813435900E-017, -0.02755905511811041600 ) ) ;
#138 = PRODUCT_RELATED_PRODUCT_CATEGORY ( 'detail', '', ( #157 ) ) ;
#139 =( LENGTH_UNIT ( ) NAMED_UNIT ( * ) SI_UNIT ( $, .METRE. ) );
#140 = PLANE ( 'NONE',  #121 ) ;
#141 = DIRECTION ( 'NONE',  ( 0.0000000000000000000, -1.000000000000000000, -3.073328992872296400E-016 ) ) ;
#142 = APPROVAL_STATUS ( 'not_yet_approved' ) ;
#143 = DIRECTION ( 'NONE',  ( 0.0000000000000000000, 1.000000000000000000, 3.073328992872296400E-016 ) ) ;
#144 = DIRECTION ( 'NONE',  ( -0.0000000000000000000, 3.061515884555943600E-016, -1.000000000000000000 ) ) ;
#145 = ORIENTED_EDGE ( 'NONE', *, *, #229, .F. ) ;
#146 = LOCAL_TIME ( 10, 36, 17.00000000000000000, #248 ) ;
#147 = ORIENTED_EDGE ( 'NONE', *, *, #21, .F. ) ;
#148 = EDGE_CURVE ( 'NONE', #165, #272, #296, .T. ) ;
#149 = COORDINATED_UNIVERSAL_TIME_OFFSET ( 5, 0, .BEHIND. ) ;
#150 = VERTEX_POINT ( 'NONE', #281 ) ;
#151 = AXIS2_PLACEMENT_3D ( 'NONE', #159, #26, #180 ) ;
#152 = ORIENTED_EDGE ( 'NONE', *, *, #199, .F. ) ;
#153 = VECTOR ( 'NONE', #5, 39.37007874015748100 ) ;
#154 = EDGE_LOOP ( 'NONE', ( #133, #39, #50 ) ) ;
#155 = UNCERTAINTY_MEASURE_WITH_UNIT (LENGTH_MEASURE( 1.000000000000000100E-005 ), #3, 'distance_accuracy_value', 'NONE');
#156 = AXIS2_PLACEMENT_3D ( 'NONE', #45, #114, #233 ) ;
#157 = PRODUCT ( 'TTN049384-E0W', 'TTN049384-E0W', '', ( #100 ) ) ;
#158 = EDGE_CURVE ( 'NONE', #251, #150, #54, .T. ) ;
#159 = CARTESIAN_POINT ( 'NONE',  ( 0.0000000000000000000, 1.419096984976687100E-015, -11.80196850393700800 ) ) ;
#160 = DIRECTION ( 'NONE',  ( 0.0000000000000000000, 1.000000000000000000, 3.073328992872296400E-016 ) ) ;
#161 =( NAMED_UNIT ( * ) PLANE_ANGLE_UNIT ( ) SI_UNIT ( $, .RADIAN. ) );
#162 = CARTESIAN_POINT ( 'NONE',  ( 0.0000000000000000000, 0.5000000000000000000, 0.01699459102008850000 ) ) ;
#163 = PERSON_AND_ORGANIZATION_ROLE ( 'creator' ) ;
#164 = DIRECTION ( 'NONE',  ( -0.0000000000000000000, 3.061515884555751400E-016, -1.000000000000000000 ) ) ;
#165 = VERTEX_POINT ( 'NONE', #43 ) ;
#166 = AXIS2_PLACEMENT_3D ( 'NONE', #136, #25, #92 ) ;
#167 = LOCAL_TIME ( 10, 36, 17.00000000000000000, #149 ) ;
#168 = EDGE_LOOP ( 'NONE', ( #243, #268 ) ) ;
#169 = LENGTH_MEASURE_WITH_UNIT ( LENGTH_MEASURE( 0.02539999999999999900 ), #139 );
#170 = CC_DESIGN_PERSON_AND_ORGANIZATION_ASSIGNMENT ( #94, #260, ( #157 ) ) ;
#171 = ORIENTED_EDGE ( 'NONE', *, *, #192, .F. ) ;
#172 = VECTOR ( 'NONE', #31, 39.37007874015748100 ) ;
#173 = EDGE_LOOP ( 'NONE', ( #147, #203, #16, #78 ) ) ;
#174 = VERTEX_POINT ( 'NONE', #258 ) ;
#175 = CALENDAR_DATE ( 2016, 25, 7 ) ;
#176 = AXIS2_PLACEMENT_3D ( 'NONE', #69, #230, #95 ) ;
#177 = LOCAL_TIME ( 10, 36, 17.00000000000000000, #27 ) ;
#178 = CARTESIAN_POINT ( 'NONE',  ( 0.0000000000000000000, -8.822951289350187200E-018, -0.03543307086614180100 ) ) ;
#179 = FACE_OUTER_BOUND ( 'NONE', #263, .T. ) ;
#180 = DIRECTION ( 'NONE',  ( -1.224646799147353500E-016, 1.000000000000000000, 0.0000000000000000000 ) ) ;
#181 = CARTESIAN_POINT ( 'NONE',  ( 6.026805113914142300E-017, 0.4921259842519686800, -0.03543307086614164900 ) ) ;
#182 = DIRECTION ( 'NONE',  ( 0.0000000000000000000, 1.000000000000000000, 3.073328992872296400E-016 ) ) ;
#183 = CALENDAR_DATE ( 2016, 25, 7 ) ;
#184 = CARTESIAN_POINT ( 'NONE',  ( 0.0000000000000000000, -8.822951289350187200E-018, -0.03543307086614180100 ) ) ;
#185 = APPROVAL_STATUS ( 'not_yet_approved' ) ;
#186 = VECTOR ( 'NONE', #64, 39.37007874015748900 ) ;
#187 = CARTESIAN_POINT ( 'NONE',  ( 6.123233995736766000E-017, -0.5000000000000000000, -0.02755905511811056900 ) ) ;
#188 = DATE_AND_TIME ( #175, #128 ) ;
#189 = ADVANCED_FACE ( 'NONE', ( #1 ), #124, .T. ) ;
#190 = VECTOR ( 'NONE', #90, 39.37007874015748100 ) ;
#191 = PRODUCT_DEFINITION ( 'UNKNOWN', '', #277, #99 ) ;
#192 = EDGE_CURVE ( 'NONE', #4, #61, #222, .T. ) ;
#193 = ADVANCED_FACE ( 'NONE', ( #15 ), #269, .T. ) ;
#194 = CALENDAR_DATE ( 2016, 25, 7 ) ;
#195 = DATE_AND_TIME ( #183, #146 ) ;
#196 = DATE_AND_TIME ( #14, #167 ) ;
#197 = AXIS2_PLACEMENT_3D ( 'NONE', #137, #2, #160 ) ;
#198 = EDGE_CURVE ( 'NONE', #174, #22, #115, .T. ) ;
#199 = EDGE_CURVE ( 'NONE', #272, #4, #37, .T. ) ;
#200 = DIRECTION ( 'NONE',  ( 0.0000000000000000000, 1.000000000000000000, 3.061515884555943600E-016 ) ) ;
#201 = PERSON_AND_ORGANIZATION ( #71, #88 ) ;
#202 = EDGE_LOOP ( 'NONE', ( #241, #24, #235, #33 ) ) ;
#203 = ORIENTED_EDGE ( 'NONE', *, *, #252, .F. ) ;
#204 = DIRECTION ( 'NONE',  ( 0.0000000000000000000, 1.000000000000000000, 3.035706591620401500E-016 ) ) ;
#205 = CIRCLE ( 'NONE', #87, 0.5000000000000000000 ) ;
#206 = CARTESIAN_POINT ( 'NONE',  ( 0.0000000000000000000, -8.822951289350187200E-018, -0.03543307086614180100 ) ) ;
#207 = APPROVAL ( #142, 'UNSPECIFIED' ) ;
#208 = DIRECTION ( 'NONE',  ( 8.659560562354893400E-017, 0.7071067811865440200, 0.7071067811865510100 ) ) ;
#209 = CARTESIAN_POINT ( 'NONE',  ( 0.0000000000000000000, -2.487376325483283700E-017, 0.01699459102008834800 ) ) ;
#210 = DIRECTION ( 'NONE',  ( 0.0000000000000000000, -1.000000000000000000, -3.035766082959411400E-016 ) ) ;
#211 = PERSON_AND_ORGANIZATION_ROLE ( 'creator' ) ;
#212 = APPROVAL_PERSON_ORGANIZATION ( #101, #96, #287 ) ;
#213 = CARTESIAN_POINT ( 'NONE',  ( 0.0000000000000000000, -2.487376325483236500E-017, 0.01699459102008834800 ) ) ;
#214 = CARTESIAN_POINT ( 'NONE',  ( 0.0000000000000000000, -2.487376325483283700E-017, 0.01699459102008834800 ) ) ;
#215 = ADVANCED_FACE ( 'NONE', ( #179 ), #81, .T. ) ;
#216 = AXIS2_PLACEMENT_3D ( 'NONE', #209, #232, #47 ) ;
#217 = ORIENTED_EDGE ( 'NONE', *, *, #221, .T. ) ;
#218 = ORIENTED_EDGE ( 'NONE', *, *, #158, .F. ) ;
#219 = CIRCLE ( 'NONE', #23, 0.4921356285416524900 ) ;
#220 = CC_DESIGN_APPROVAL ( #207, ( #191 ) ) ;
#221 = EDGE_CURVE ( 'NONE', #61, #4, #10, .T. ) ;
#222 = CIRCLE ( 'NONE', #224, 0.5000000000000000000 ) ;
#223 = SPHERICAL_SURFACE ( 'NONE', #166, 11.83740157480314900 ) ;
#224 = AXIS2_PLACEMENT_3D ( 'NONE', #116, #284, #141 ) ;
#225 = EDGE_CURVE ( 'NONE', #4, #150, #304, .T. ) ;
#226 = CARTESIAN_POINT ( 'NONE',  ( 6.075019554825453600E-017, 0.4921259842519686800, -0.03543307086614164900 ) ) ;
#227 = DIRECTION ( 'NONE',  ( 0.0000000000000000000, 1.000000000000000000, 3.035766082959411400E-016 ) ) ;
#228 = DIRECTION ( 'NONE',  ( 1.000000000000000000, 0.0000000000000000000, -0.0000000000000000000 ) ) ;
#229 = EDGE_CURVE ( 'NONE', #174, #251, #126, .T. ) ;
#230 = DIRECTION ( 'NONE',  ( -1.000000000000000000, 0.0000000000000000000, 0.0000000000000000000 ) ) ;
#231 = DIRECTION ( 'NONE',  ( 0.0000000000000000000, -3.061515884555943600E-016, 1.000000000000000000 ) ) ;
#232 = DIRECTION ( 'NONE',  ( -0.0000000000000000000, 3.061515884555751400E-016, -1.000000000000000000 ) ) ;
#233 = DIRECTION ( 'NONE',  ( 1.000000000000000000, 0.0000000000000000000, 0.0000000000000000000 ) ) ;
#234 = EDGE_LOOP ( 'NONE', ( #32, #274, #298 ) ) ;
#235 = ORIENTED_EDGE ( 'NONE', *, *, #229, .T. ) ;
#236 = DIRECTION ( 'NONE',  ( -0.0000000000000000000, 3.061515884555943600E-016, -1.000000000000000000 ) ) ;
#237 = SECURITY_CLASSIFICATION_LEVEL ( 'unclassified' ) ;
#238 = DIRECTION ( 'NONE',  ( 0.0000000000000000000, -1.000000000000000000, -3.073328992872296400E-016 ) ) ;
#239 = ORIENTED_EDGE ( 'NONE', *, *, #91, .F. ) ;
#240 = ADVANCED_FACE ( 'NONE', ( #129 ), #57, .T. ) ;
#241 = ORIENTED_EDGE ( 'NONE', *, *, #301, .F. ) ;
#242 = CC_DESIGN_PERSON_AND_ORGANIZATION_ASSIGNMENT ( #131, #163, ( #191 ) ) ;
#243 = ORIENTED_EDGE ( 'NONE', *, *, #198, .T. ) ;
#244 = LINE ( 'NONE', #250, #186 ) ;
#245 = AXIS2_PLACEMENT_3D ( 'NONE', #283, #28, #182 ) ;
#246 = DIMENSIONAL_EXPONENTS ( 1.000000000000000000, 0.0000000000000000000, 0.0000000000000000000, 0.0000000000000000000, 0.0000000000000000000, 0.0000000000000000000, 0.0000000000000000000 ) ;
#247 = CONICAL_SURFACE ( 'NONE', #56, 0.4921259842519686800, 0.7853981633974437300 ) ;
#248 = COORDINATED_UNIVERSAL_TIME_OFFSET ( 5, 0, .BEHIND. ) ;
#249 = ORIENTED_EDGE ( 'NONE', *, *, #46, .F. ) ;
#250 = CARTESIAN_POINT ( 'NONE',  ( 6.123233995736766000E-017, -0.5000000000000000000, 0.01699459102008819500 ) ) ;
#251 = VERTEX_POINT ( 'NONE', #187 ) ;
#252 = EDGE_CURVE ( 'NONE', #272, #77, #219, .T. ) ;
#253 = FACE_OUTER_BOUND ( 'NONE', #234, .T. ) ;
#254 = CARTESIAN_POINT ( 'NONE',  ( 6.123233995736766000E-017, -0.5000000000000000000, 0.01699459102008819500 ) ) ;
#255 = FACE_OUTER_BOUND ( 'NONE', #202, .T. ) ;
#256 = CC_DESIGN_DATE_AND_TIME_ASSIGNMENT ( #86, #30, ( #191 ) ) ;
#257 = DIRECTION ( 'NONE',  ( 0.0000000000000000000, -1.000000000000000000, -3.035766082959411400E-016 ) ) ;
#258 = CARTESIAN_POINT ( 'NONE',  ( 0.0000000000000000000, -0.4921259842519686800, -0.03543307086614194700 ) ) ;
#259 = PERSON_AND_ORGANIZATION ( #71, #88 ) ;
#260 = PERSON_AND_ORGANIZATION_ROLE ( 'design_owner' ) ;
#261 = DATE_TIME_ROLE ( 'classification_date' ) ;
#262 = CARTESIAN_POINT ( 'NONE',  ( 0.0000000000000000000, -0.4921259842519686800, -0.03543307086614194700 ) ) ;
#263 = EDGE_LOOP ( 'NONE', ( #239, #53, #218, #145 ) ) ;
#264 = DIRECTION ( 'NONE',  ( 0.0000000000000000000, -3.061515884555751400E-016, 1.000000000000000000 ) ) ;
#265 = PERSON_AND_ORGANIZATION ( #71, #88 ) ;
#266 = AXIS2_PLACEMENT_3D ( 'NONE', #74, #236, #102 ) ;
#267 = ADVANCED_FACE ( 'NONE', ( #107 ), #291, .T. ) ;
#268 = ORIENTED_EDGE ( 'NONE', *, *, #91, .T. ) ;
#269 = CONICAL_SURFACE ( 'NONE', #216, 0.5000000000000000000, 0.7642723785664149400 ) ;
#270 = PERSON_AND_ORGANIZATION ( #71, #88 ) ;
#271 = PRODUCT_DEFINITION_SHAPE ( 'NONE', 'NONE',  #191 ) ;
#272 = VERTEX_POINT ( 'NONE', #42 ) ;
#273 = CALENDAR_DATE ( 2016, 25, 7 ) ;
#274 = ORIENTED_EDGE ( 'NONE', *, *, #148, .T. ) ;
#275 = SPHERICAL_SURFACE ( 'NONE', #65, 11.83740157480314900 ) ;
#276 = SHAPE_DEFINITION_REPRESENTATION ( #271, #55 ) ;
#277 = PRODUCT_DEFINITION_FORMATION_WITH_SPECIFIED_SOURCE ( 'ANY', '', #157, .NOT_KNOWN. ) ;
#278 = ADVANCED_FACE ( 'NONE', ( #40 ), #275, .T. ) ;
#279 = ORIENTED_EDGE ( 'NONE', *, *, #46, .T. ) ;
#280 = AXIS2_PLACEMENT_3D ( 'NONE', #184, #286, #210 ) ;
#281 = CARTESIAN_POINT ( 'NONE',  ( 0.0000000000000000000, 0.5000000000000000000, -0.02755905511811026400 ) ) ;
#282 = DIRECTION ( 'NONE',  ( 0.0000000000000000000, -3.061515884555943600E-016, 1.000000000000000000 ) ) ;
#283 = CARTESIAN_POINT ( 'NONE',  ( 0.0000000000000000000, -8.822951289350208800E-018, -0.03543307086614172500 ) ) ;
#284 = DIRECTION ( 'NONE',  ( -0.0000000000000000000, 3.061515884555751400E-016, -1.000000000000000000 ) ) ;
#285 = APPLICATION_PROTOCOL_DEFINITION ( 'international standard', 'config_control_design', 1994, #117 ) ;
#286 = DIRECTION ( 'NONE',  ( 0.0000000000000000000, -3.061515884555943600E-016, 1.000000000000000000 ) ) ;
#287 = APPROVAL_ROLE ( '' ) ;
#288 = DIRECTION ( 'NONE',  ( 0.0000000000000000000, -0.7071067811865444600, 0.7071067811865505700 ) ) ;
#289 = CLOSED_SHELL ( 'NONE', ( #193, #215, #189, #278, #11, #123, #240, #292, #267 ) ) ;
#290 = ORIENTED_EDGE ( 'NONE', *, *, #295, .T. ) ;
#291 = CONICAL_SURFACE ( 'NONE', #8, 0.5000000000000000000, 0.7642723785664149400 ) ;
#292 = ADVANCED_FACE ( 'NONE', ( #255 ), #247, .T. ) ;
#293 = APPROVAL ( #185, 'UNSPECIFIED' ) ;
#294 = LINE ( 'NONE', #79, #190 ) ;
#295 = EDGE_CURVE ( 'NONE', #150, #251, #205, .T. ) ;
#296 = CIRCLE ( 'NONE', #176, 11.83740157480314900 ) ;
#297 = EDGE_LOOP ( 'NONE', ( #300, #279, #118, #59 ) ) ;
#298 = ORIENTED_EDGE ( 'NONE', *, *, #252, .T. ) ;
#299 = AXIS2_PLACEMENT_3D ( 'NONE', #213, #76, #238 ) ;
#300 = ORIENTED_EDGE ( 'NONE', *, *, #192, .T. ) ;
#301 = EDGE_CURVE ( 'NONE', #22, #150, #110, .T. ) ;
#302 = CARTESIAN_POINT ( 'NONE',  ( 6.026923222399104800E-017, -0.4921356285416586000, 0.02519846733180977300 ) ) ;
#303 = CC_DESIGN_APPROVAL ( #293, ( #277 ) ) ;
#304 = LINE ( 'NONE', #51, #172 ) ;
ENDSEC;
END-ISO-10303-21;
