ISO-10303-21;
HEADER;
FILE_DESCRIPTION (( 'STEP AP203' ),
    '1' );
FILE_NAME ('Web Model 64397MX_64398.step',
    '2017-10-30T13:02:23',
    ( '' ),
    ( '' ),
    'SwSTEP 2.0',
    'SolidWorks 2016',
    '' );
FILE_SCHEMA (( 'CONFIG_CONTROL_DESIGN' ));
ENDSEC;

DATA;
#1 = LOCAL_TIME ( 9, 2, 23.00000000000000000, #130 ) ;
#2 = CARTESIAN_POINT ( 'NONE',  ( 6.349999999999998800, -6.349999999999998800, -3.000000000000000000 ) ) ;
#3 = SECURITY_CLASSIFICATION_LEVEL ( 'unclassified' ) ;
#4 = APPROVAL ( #153, 'UNSPECIFIED' ) ;
#5 = ORIENTED_EDGE ( 'NONE', *, *, #188, .F. ) ;
#6 = DIRECTION ( 'NONE',  ( -0.0000000000000000000, -0.0000000000000000000, -1.000000000000000000 ) ) ;
#7 = APPROVAL_DATE_TIME ( #159, #4 ) ;
#8 = APPROVAL_ROLE ( '' ) ;
#9 = PERSON_AND_ORGANIZATION ( #214, #235 ) ;
#10 = DIRECTION ( 'NONE',  ( 1.000000000000000000, 0.0000000000000000000, 0.0000000000000000000 ) ) ;
#11 = EDGE_CURVE ( 'NONE', #100, #112, #216, .T. ) ;
#12 = DATE_AND_TIME ( #215, #22 ) ;
#13 = DIRECTION ( 'NONE',  ( 1.000000000000000000, 1.365923996832131600E-016, -0.0000000000000000000 ) ) ;
#14 = ADVANCED_FACE ( 'NONE', ( #225 ), #234, .F. ) ;
#15 = AXIS2_PLACEMENT_3D ( 'NONE', #53, #142, #164 ) ;
#16 = CARTESIAN_POINT ( 'NONE',  ( -6.350000000000000500, -6.350000000000000500, 3.000000000000000000 ) ) ;
#17 = AXIS2_PLACEMENT_3D ( 'NONE', #18, #55, #174 ) ;
#18 = CARTESIAN_POINT ( 'NONE',  ( 6.349999999999998800, 6.350000000000000500, 3.000000000000000000 ) ) ;
#19 = EDGE_LOOP ( 'NONE', ( #208, #71, #230, #52 ) ) ;
#20 = CARTESIAN_POINT ( 'NONE',  ( 6.349999999999998800, -6.349999999999998800, 3.000000000000000000 ) ) ;
#21 = DIRECTION ( 'NONE',  ( -0.0000000000000000000, -1.000000000000000000, -0.0000000000000000000 ) ) ;
#22 = LOCAL_TIME ( 9, 2, 23.00000000000000000, #151 ) ;
#23 = VECTOR ( 'NONE', #104, 1000.000000000000000 ) ;
#24 = PERSON_AND_ORGANIZATION_ROLE ( 'design_owner' ) ;
#25 = ORIENTED_EDGE ( 'NONE', *, *, #102, .T. ) ;
#26 = EDGE_CURVE ( 'NONE', #44, #175, #70, .T. ) ;
#27 = CARTESIAN_POINT ( 'NONE',  ( 0.0000000000000000000, 0.0000000000000000000, 0.0000000000000000000 ) ) ;
#28 =( GEOMETRIC_REPRESENTATION_CONTEXT ( 3 ) GLOBAL_UNCERTAINTY_ASSIGNED_CONTEXT ( ( #46 ) ) GLOBAL_UNIT_ASSIGNED_CONTEXT ( ( #108, #41, #152 ) ) REPRESENTATION_CONTEXT ( 'NONE', 'WORKASPACE' ) );
#29 = ORIENTED_EDGE ( 'NONE', *, *, #11, .T. ) ;
#30 = LINE ( 'NONE', #16, #232 ) ;
#31 = COORDINATED_UNIVERSAL_TIME_OFFSET ( 5, 0, .BEHIND. ) ;
#32 = ORIENTED_EDGE ( 'NONE', *, *, #26, .T. ) ;
#33 = CC_DESIGN_PERSON_AND_ORGANIZATION_ASSIGNMENT ( #146, #81, ( #66 ) ) ;
#34 = LINE ( 'NONE', #107, #72 ) ;
#35 = PLANE ( 'NONE',  #17 ) ;
#36 = CARTESIAN_POINT ( 'NONE',  ( 6.349999999999998800, 6.350000000000000500, 3.000000000000000000 ) ) ;
#37 = CALENDAR_DATE ( 2017, 30, 10 ) ;
#38 = EDGE_CURVE ( 'NONE', #58, #100, #114, .T. ) ;
#39 = APPLICATION_PROTOCOL_DEFINITION ( 'international standard', 'config_control_design', 1994, #132 ) ;
#40 = PRODUCT_DEFINITION_FORMATION_WITH_SPECIFIED_SOURCE ( 'ANY', '', #163, .NOT_KNOWN. ) ;
#41 =( NAMED_UNIT ( * ) PLANE_ANGLE_UNIT ( ) SI_UNIT ( $, .RADIAN. ) );
#42 = VECTOR ( 'NONE', #129, 1000.000000000000000 ) ;
#43 = APPLICATION_PROTOCOL_DEFINITION ( 'international standard', 'config_control_design', 1994, #61 ) ;
#44 = VERTEX_POINT ( 'NONE', #170 ) ;
#45 = ADVANCED_FACE ( 'NONE', ( #158 ), #125, .F. ) ;
#46 = UNCERTAINTY_MEASURE_WITH_UNIT (LENGTH_MEASURE( 1.000000000000000100E-005 ), #108, 'distance_accuracy_value', 'NONE');
#47 = VERTEX_POINT ( 'NONE', #205 ) ;
#48 = COORDINATED_UNIVERSAL_TIME_OFFSET ( 5, 0, .BEHIND. ) ;
#49 = DIRECTION ( 'NONE',  ( 1.000000000000000000, 0.0000000000000000000, 0.0000000000000000000 ) ) ;
#50 = LOCAL_TIME ( 9, 2, 23.00000000000000000, #95 ) ;
#51 = DIRECTION ( 'NONE',  ( 1.000000000000000000, 0.0000000000000000000, -0.0000000000000000000 ) ) ;
#52 = ORIENTED_EDGE ( 'NONE', *, *, #209, .F. ) ;
#53 = CARTESIAN_POINT ( 'NONE',  ( 0.0000000000000000000, 0.0000000000000000000, 3.000000000000000000 ) ) ;
#54 = CC_DESIGN_PERSON_AND_ORGANIZATION_ASSIGNMENT ( #219, #24, ( #163 ) ) ;
#55 = DIRECTION ( 'NONE',  ( 1.365923996832131600E-016, -1.000000000000000000, 0.0000000000000000000 ) ) ;
#56 = DIRECTION ( 'NONE',  ( -1.000000000000000000, -1.365923996832131600E-016, 0.0000000000000000000 ) ) ;
#57 = PERSON_AND_ORGANIZATION_ROLE ( 'creator' ) ;
#58 = VERTEX_POINT ( 'NONE', #184 ) ;
#59 = DATE_TIME_ROLE ( 'creation_date' ) ;
#60 = CALENDAR_DATE ( 2017, 30, 10 ) ;
#61 = APPLICATION_CONTEXT ( 'configuration controlled 3d designs of mechanical parts and assemblies' ) ;
#62 = AXIS2_PLACEMENT_3D ( 'NONE', #204, #124, #51 ) ;
#63 = ORIENTED_EDGE ( 'NONE', *, *, #229, .F. ) ;
#64 = VECTOR ( 'NONE', #145, 1000.000000000000000 ) ;
#65 = VECTOR ( 'NONE', #101, 1000.000000000000000 ) ;
#66 = SECURITY_CLASSIFICATION ( '', '', #3 ) ;
#67 = EDGE_LOOP ( 'NONE', ( #32, #149, #156, #182 ) ) ;
#68 = DATE_AND_TIME ( #195, #177 ) ;
#69 = PLANE ( 'NONE',  #62 ) ;
#70 = LINE ( 'NONE', #183, #23 ) ;
#71 = ORIENTED_EDGE ( 'NONE', *, *, #26, .F. ) ;
#72 = VECTOR ( 'NONE', #56, 1000.000000000000000 ) ;
#73 = CARTESIAN_POINT ( 'NONE',  ( -6.350000000000000500, -6.350000000000000500, 3.000000000000000000 ) ) ;
#74 = DIRECTION ( 'NONE',  ( -0.0000000000000000000, -1.000000000000000000, -0.0000000000000000000 ) ) ;
#75 = ORIENTED_EDGE ( 'NONE', *, *, #96, .T. ) ;
#76 = ORIENTED_EDGE ( 'NONE', *, *, #148, .T. ) ;
#77 = PERSON_AND_ORGANIZATION_ROLE ( 'design_supplier' ) ;
#78 = FACE_OUTER_BOUND ( 'NONE', #67, .T. ) ;
#79 = DIRECTION ( 'NONE',  ( 0.0000000000000000000, 0.0000000000000000000, 1.000000000000000000 ) ) ;
#80 = APPROVAL_STATUS ( 'not_yet_approved' ) ;
#81 = PERSON_AND_ORGANIZATION_ROLE ( 'classification_officer' ) ;
#82 = EDGE_LOOP ( 'NONE', ( #25, #5, #92, #75 ) ) ;
#83 = PERSON_AND_ORGANIZATION ( #214, #235 ) ;
#84 = ORIENTED_EDGE ( 'NONE', *, *, #11, .F. ) ;
#85 = ADVANCED_FACE ( 'NONE', ( #166 ), #139, .T. ) ;
#86 = CARTESIAN_POINT ( 'NONE',  ( -6.350000000000000500, -6.350000000000000500, -3.000000000000000000 ) ) ;
#87 = AXIS2_PLACEMENT_3D ( 'NONE', #27, #79, #10 ) ;
#88 = ADVANCED_FACE ( 'NONE', ( #109 ), #69, .F. ) ;
#89 = SHAPE_DEFINITION_REPRESENTATION ( #150, #178 ) ;
#90 = PERSON_AND_ORGANIZATION_ROLE ( 'creator' ) ;
#91 = DATE_TIME_ROLE ( 'classification_date' ) ;
#92 = ORIENTED_EDGE ( 'NONE', *, *, #113, .F. ) ;
#93 = APPROVAL_PERSON_ORGANIZATION ( #116, #161, #212 ) ;
#94 = CARTESIAN_POINT ( 'NONE',  ( 6.349999999999998800, -6.349999999999998800, -3.000000000000000000 ) ) ;
#95 = COORDINATED_UNIVERSAL_TIME_OFFSET ( 5, 0, .BEHIND. ) ;
#96 = EDGE_CURVE ( 'NONE', #144, #175, #210, .T. ) ;
#97 = ORIENTED_EDGE ( 'NONE', *, *, #188, .T. ) ;
#98 = CC_DESIGN_DATE_AND_TIME_ASSIGNMENT ( #126, #91, ( #66 ) ) ;
#99 = CC_DESIGN_PERSON_AND_ORGANIZATION_ASSIGNMENT ( #202, #77, ( #40 ) ) ;
#100 = VERTEX_POINT ( 'NONE', #20 ) ;
#101 = DIRECTION ( 'NONE',  ( 0.0000000000000000000, 1.000000000000000000, 0.0000000000000000000 ) ) ;
#102 = EDGE_CURVE ( 'NONE', #175, #47, #157, .T. ) ;
#103 = VECTOR ( 'NONE', #13, 1000.000000000000000 ) ;
#104 = DIRECTION ( 'NONE',  ( -1.000000000000000000, -1.365923996832131600E-016, 0.0000000000000000000 ) ) ;
#105 = CARTESIAN_POINT ( 'NONE',  ( 6.349999999999998800, -6.349999999999998800, 3.000000000000000000 ) ) ;
#106 = DIRECTION ( 'NONE',  ( 1.000000000000000000, 1.365923996832131600E-016, -0.0000000000000000000 ) ) ;
#107 = CARTESIAN_POINT ( 'NONE',  ( 6.349999999999998800, 6.350000000000000500, 3.000000000000000000 ) ) ;
#108 =( LENGTH_UNIT ( ) NAMED_UNIT ( * ) SI_UNIT ( .MILLI., .METRE. ) );
#109 = FACE_OUTER_BOUND ( 'NONE', #19, .T. ) ;
#110 = DIRECTION ( 'NONE',  ( -1.365923996832131600E-016, 1.000000000000000000, 0.0000000000000000000 ) ) ;
#111 = CARTESIAN_POINT ( 'NONE',  ( 6.349999999999998800, -6.349999999999998800, 3.000000000000000000 ) ) ;
#112 = VERTEX_POINT ( 'NONE', #36 ) ;
#113 = EDGE_CURVE ( 'NONE', #144, #58, #180, .T. ) ;
#114 = LINE ( 'NONE', #165, #103 ) ;
#115 = VECTOR ( 'NONE', #74, 1000.000000000000000 ) ;
#116 = PERSON_AND_ORGANIZATION ( #214, #235 ) ;
#117 = DESIGN_CONTEXT ( 'detailed design', #61, 'design' ) ;
#118 = CLOSED_SHELL ( 'NONE', ( #45, #227, #14, #162, #85, #88 ) ) ;
#119 = EDGE_LOOP ( 'NONE', ( #224, #220, #29, #76 ) ) ;
#120 = CC_DESIGN_APPROVAL ( #218, ( #187 ) ) ;
#121 = VECTOR ( 'NONE', #6, 1000.000000000000000 ) ;
#122 = CARTESIAN_POINT ( 'NONE',  ( -6.350000000000000500, 6.349999999999998800, 3.000000000000000000 ) ) ;
#123 = VECTOR ( 'NONE', #167, 1000.000000000000000 ) ;
#124 = DIRECTION ( 'NONE',  ( 0.0000000000000000000, -0.0000000000000000000, 1.000000000000000000 ) ) ;
#125 = PLANE ( 'NONE',  #221 ) ;
#126 = DATE_AND_TIME ( #181, #226 ) ;
#127 = ORIENTED_EDGE ( 'NONE', *, *, #201, .T. ) ;
#128 = VECTOR ( 'NONE', #106, 1000.000000000000000 ) ;
#129 = DIRECTION ( 'NONE',  ( -0.0000000000000000000, -0.0000000000000000000, -1.000000000000000000 ) ) ;
#130 = COORDINATED_UNIVERSAL_TIME_OFFSET ( 5, 0, .BEHIND. ) ;
#131 = CC_DESIGN_APPROVAL ( #161, ( #66 ) ) ;
#132 = APPLICATION_CONTEXT ( 'configuration controlled 3d designs of mechanical parts and assemblies' ) ;
#133 = ORIENTED_EDGE ( 'NONE', *, *, #229, .T. ) ;
#134 = APPROVAL_STATUS ( 'not_yet_approved' ) ;
#135 = LINE ( 'NONE', #2, #64 ) ;
#136 = AXIS2_PLACEMENT_3D ( 'NONE', #228, #110, #194 ) ;
#137 = LINE ( 'NONE', #111, #121 ) ;
#138 = EDGE_CURVE ( 'NONE', #112, #44, #168, .T. ) ;
#139 = PLANE ( 'NONE',  #15 ) ;
#140 = AXIS2_PLACEMENT_3D ( 'NONE', #105, #233, #143 ) ;
#141 = PERSON_AND_ORGANIZATION ( #214, #235 ) ;
#142 = DIRECTION ( 'NONE',  ( 0.0000000000000000000, -0.0000000000000000000, 1.000000000000000000 ) ) ;
#143 = DIRECTION ( 'NONE',  ( 0.0000000000000000000, 0.0000000000000000000, 1.000000000000000000 ) ) ;
#144 = VERTEX_POINT ( 'NONE', #206 ) ;
#145 = DIRECTION ( 'NONE',  ( 0.0000000000000000000, 1.000000000000000000, 0.0000000000000000000 ) ) ;
#146 = PERSON_AND_ORGANIZATION ( #214, #235 ) ;
#147 = CC_DESIGN_DATE_AND_TIME_ASSIGNMENT ( #237, #59, ( #187 ) ) ;
#148 = EDGE_CURVE ( 'NONE', #112, #144, #34, .T. ) ;
#149 = ORIENTED_EDGE ( 'NONE', *, *, #96, .F. ) ;
#150 = PRODUCT_DEFINITION_SHAPE ( 'NONE', 'NONE',  #187 ) ;
#151 = COORDINATED_UNIVERSAL_TIME_OFFSET ( 5, 0, .BEHIND. ) ;
#152 =( NAMED_UNIT ( * ) SI_UNIT ( $, .STERADIAN. ) SOLID_ANGLE_UNIT ( ) );
#153 = APPROVAL_STATUS ( 'not_yet_approved' ) ;
#154 = PLANE ( 'NONE',  #136 ) ;
#155 = CC_DESIGN_SECURITY_CLASSIFICATION ( #66, ( #40 ) ) ;
#156 = ORIENTED_EDGE ( 'NONE', *, *, #148, .F. ) ;
#157 = LINE ( 'NONE', #86, #197 ) ;
#158 = FACE_OUTER_BOUND ( 'NONE', #82, .T. ) ;
#159 = DATE_AND_TIME ( #37, #1 ) ;
#160 = EDGE_LOOP ( 'NONE', ( #211, #63, #190, #97 ) ) ;
#161 = APPROVAL ( #80, 'UNSPECIFIED' ) ;
#162 = ADVANCED_FACE ( 'NONE', ( #78 ), #35, .F. ) ;
#163 = PRODUCT ( 'Web Model 64397MX_64398', 'Web Model 64397MX_64398', '', ( #176 ) ) ;
#164 = DIRECTION ( 'NONE',  ( 1.000000000000000000, 0.0000000000000000000, -0.0000000000000000000 ) ) ;
#165 = CARTESIAN_POINT ( 'NONE',  ( 6.349999999999998800, -6.349999999999998800, 3.000000000000000000 ) ) ;
#166 = FACE_OUTER_BOUND ( 'NONE', #119, .T. ) ;
#167 = DIRECTION ( 'NONE',  ( -0.0000000000000000000, -0.0000000000000000000, -1.000000000000000000 ) ) ;
#168 = LINE ( 'NONE', #223, #42 ) ;
#169 = APPROVAL_DATE_TIME ( #68, #161 ) ;
#170 = CARTESIAN_POINT ( 'NONE',  ( 6.349999999999998800, 6.350000000000000500, -3.000000000000000000 ) ) ;
#171 = MANIFOLD_SOLID_BREP ( 'Boss-Extrude1', #118 ) ;
#172 = EDGE_LOOP ( 'NONE', ( #127, #198, #84, #133 ) ) ;
#173 = APPROVAL_PERSON_ORGANIZATION ( #9, #218, #8 ) ;
#174 = DIRECTION ( 'NONE',  ( 1.000000000000000000, 1.365923996832131600E-016, 0.0000000000000000000 ) ) ;
#175 = VERTEX_POINT ( 'NONE', #191 ) ;
#176 = MECHANICAL_CONTEXT ( 'NONE', #132, 'mechanical' ) ;
#177 = LOCAL_TIME ( 9, 2, 23.00000000000000000, #48 ) ;
#178 = ADVANCED_BREP_SHAPE_REPRESENTATION ( 'Web Model 64397MX_64398', ( #171, #87 ), #28 ) ;
#179 = LINE ( 'NONE', #192, #128 ) ;
#180 = LINE ( 'NONE', #222, #115 ) ;
#181 = CALENDAR_DATE ( 2017, 30, 10 ) ;
#182 = ORIENTED_EDGE ( 'NONE', *, *, #138, .T. ) ;
#183 = CARTESIAN_POINT ( 'NONE',  ( 6.349999999999998800, 6.350000000000000500, -3.000000000000000000 ) ) ;
#184 = CARTESIAN_POINT ( 'NONE',  ( -6.350000000000000500, -6.350000000000000500, 3.000000000000000000 ) ) ;
#185 = PERSON_AND_ORGANIZATION ( #214, #235 ) ;
#186 = CARTESIAN_POINT ( 'NONE',  ( 6.349999999999998800, -6.349999999999998800, 3.000000000000000000 ) ) ;
#187 = PRODUCT_DEFINITION ( 'UNKNOWN', '', #40, #117 ) ;
#188 = EDGE_CURVE ( 'NONE', #58, #47, #30, .T. ) ;
#189 = DIRECTION ( 'NONE',  ( -0.0000000000000000000, -0.0000000000000000000, -1.000000000000000000 ) ) ;
#190 = ORIENTED_EDGE ( 'NONE', *, *, #38, .F. ) ;
#191 = CARTESIAN_POINT ( 'NONE',  ( -6.350000000000000500, 6.349999999999998800, -3.000000000000000000 ) ) ;
#192 = CARTESIAN_POINT ( 'NONE',  ( 6.349999999999998800, -6.349999999999998800, -3.000000000000000000 ) ) ;
#193 = FACE_OUTER_BOUND ( 'NONE', #160, .T. ) ;
#194 = DIRECTION ( 'NONE',  ( -1.000000000000000000, -1.365923996832131600E-016, 0.0000000000000000000 ) ) ;
#195 = CALENDAR_DATE ( 2017, 30, 10 ) ;
#196 = APPROVAL_ROLE ( '' ) ;
#197 = VECTOR ( 'NONE', #21, 1000.000000000000000 ) ;
#198 = ORIENTED_EDGE ( 'NONE', *, *, #138, .F. ) ;
#199 = CC_DESIGN_PERSON_AND_ORGANIZATION_ASSIGNMENT ( #83, #57, ( #40 ) ) ;
#200 = CC_DESIGN_APPROVAL ( #4, ( #40 ) ) ;
#201 = EDGE_CURVE ( 'NONE', #213, #44, #135, .T. ) ;
#202 = PERSON_AND_ORGANIZATION ( #214, #235 ) ;
#203 = APPROVAL_DATE_TIME ( #12, #218 ) ;
#204 = CARTESIAN_POINT ( 'NONE',  ( 0.0000000000000000000, 0.0000000000000000000, -3.000000000000000000 ) ) ;
#205 = CARTESIAN_POINT ( 'NONE',  ( -6.350000000000000500, -6.350000000000000500, -3.000000000000000000 ) ) ;
#206 = CARTESIAN_POINT ( 'NONE',  ( -6.350000000000000500, 6.349999999999998800, 3.000000000000000000 ) ) ;
#207 = PRODUCT_RELATED_PRODUCT_CATEGORY ( 'detail', '', ( #163 ) ) ;
#208 = ORIENTED_EDGE ( 'NONE', *, *, #102, .F. ) ;
#209 = EDGE_CURVE ( 'NONE', #47, #213, #179, .T. ) ;
#210 = LINE ( 'NONE', #122, #123 ) ;
#211 = ORIENTED_EDGE ( 'NONE', *, *, #209, .T. ) ;
#212 = APPROVAL_ROLE ( '' ) ;
#213 = VERTEX_POINT ( 'NONE', #94 ) ;
#214 = PERSON ( 'UNSPECIFIED', 'UNSPECIFIED', 'UNSPECIFIED', ('UNSPECIFIED'), ('UNSPECIFIED'), ('UNSPECIFIED') ) ;
#215 = CALENDAR_DATE ( 2017, 30, 10 ) ;
#216 = LINE ( 'NONE', #186, #65 ) ;
#217 = APPROVAL_PERSON_ORGANIZATION ( #185, #4, #196 ) ;
#218 = APPROVAL ( #134, 'UNSPECIFIED' ) ;
#219 = PERSON_AND_ORGANIZATION ( #214, #235 ) ;
#220 = ORIENTED_EDGE ( 'NONE', *, *, #38, .T. ) ;
#221 = AXIS2_PLACEMENT_3D ( 'NONE', #73, #49, #236 ) ;
#222 = CARTESIAN_POINT ( 'NONE',  ( -6.350000000000000500, -6.350000000000000500, 3.000000000000000000 ) ) ;
#223 = CARTESIAN_POINT ( 'NONE',  ( 6.349999999999998800, 6.350000000000000500, 3.000000000000000000 ) ) ;
#224 = ORIENTED_EDGE ( 'NONE', *, *, #113, .T. ) ;
#225 = FACE_OUTER_BOUND ( 'NONE', #172, .T. ) ;
#226 = LOCAL_TIME ( 9, 2, 23.00000000000000000, #31 ) ;
#227 = ADVANCED_FACE ( 'NONE', ( #193 ), #154, .F. ) ;
#228 = CARTESIAN_POINT ( 'NONE',  ( 6.349999999999998800, -6.349999999999998800, 3.000000000000000000 ) ) ;
#229 = EDGE_CURVE ( 'NONE', #100, #213, #137, .T. ) ;
#230 = ORIENTED_EDGE ( 'NONE', *, *, #201, .F. ) ;
#231 = CC_DESIGN_PERSON_AND_ORGANIZATION_ASSIGNMENT ( #141, #90, ( #187 ) ) ;
#232 = VECTOR ( 'NONE', #189, 1000.000000000000000 ) ;
#233 = DIRECTION ( 'NONE',  ( -1.000000000000000000, 0.0000000000000000000, 0.0000000000000000000 ) ) ;
#234 = PLANE ( 'NONE',  #140 ) ;
#235 = ORGANIZATION ( 'UNSPECIFIED', 'UNSPECIFIED', '' ) ;
#236 = DIRECTION ( 'NONE',  ( 0.0000000000000000000, 0.0000000000000000000, -1.000000000000000000 ) ) ;
#237 = DATE_AND_TIME ( #60, #50 ) ;
ENDSEC;
END-ISO-10303-21;
