ISO-10303-21;
HEADER;
FILE_DESCRIPTION (( 'STEP AP203' ),
    '1' );
FILE_NAME ('Web Model 48854_14815.step',
    '2020-10-07T17:32:28',
    ( '' ),
    ( '' ),
    'SwSTEP 2.0',
    'SolidWorks 2018',
    '' );
FILE_SCHEMA (( 'CONFIG_CONTROL_DESIGN' ));
ENDSEC;

DATA;
#1 = DIRECTION ( 'NONE',  ( 0.0000000000000000000, 0.0000000000000000000, 1.000000000000000000 ) ) ;
#2 = APPLICATION_CONTEXT ( 'configuration controlled 3d designs of mechanical parts and assemblies' ) ;
#3 = DIRECTION ( 'NONE',  ( 0.0000000000000000000, 0.0000000000000000000, 1.000000000000000000 ) ) ;
#4 = PLANE ( 'NONE',  #158 ) ;
#5 = APPROVAL_STATUS ( 'not_yet_approved' ) ;
#6 = APPROVAL_DATE_TIME ( #12, #85 ) ;
#7 = CLOSED_SHELL ( 'NONE', ( #110, #46, #161, #18 ) ) ;
#8 = VECTOR ( 'NONE', #135, 1000.000000000000000 ) ;
#9 = LOCAL_TIME ( 13, 32, 28.00000000000000000, #152 ) ;
#10 = SECURITY_CLASSIFICATION ( '', '', #153 ) ;
#11 = CYLINDRICAL_SURFACE ( 'NONE', #42, 7.500000000000000000 ) ;
#12 = DATE_AND_TIME ( #124, #88 ) ;
#13 = APPROVAL_PERSON_ORGANIZATION ( #107, #94, #149 ) ;
#14 = EDGE_CURVE ( 'NONE', #145, #75, #41, .T. ) ;
#15 = COORDINATED_UNIVERSAL_TIME_OFFSET ( 5, 0, .BEHIND. ) ;
#16 = CARTESIAN_POINT ( 'NONE',  ( 0.0000000000000000000, 0.0000000000000000000, 1.000000000000000000 ) ) ;
#17 = DIRECTION ( 'NONE',  ( 1.000000000000000000, 0.0000000000000000000, 0.0000000000000000000 ) ) ;
#18 = ADVANCED_FACE ( 'NONE', ( #22 ), #43, .F. ) ;
#19 = DIRECTION ( 'NONE',  ( 1.000000000000000000, 0.0000000000000000000, -0.0000000000000000000 ) ) ;
#20 = APPROVAL_ROLE ( '' ) ;
#21 = VECTOR ( 'NONE', #116, 1000.000000000000000 ) ;
#22 = FACE_OUTER_BOUND ( 'NONE', #25, .T. ) ;
#23 = AXIS2_PLACEMENT_3D ( 'NONE', #126, #52, #139 ) ;
#24 = PERSON_AND_ORGANIZATION ( #28, #119 ) ;
#25 = EDGE_LOOP ( 'NONE', ( #131, #69 ) ) ;
#26 = PERSON_AND_ORGANIZATION ( #28, #119 ) ;
#27 = LINE ( 'NONE', #45, #8 ) ;
#28 = PERSON ( 'UNSPECIFIED', 'UNSPECIFIED', 'UNSPECIFIED', ('UNSPECIFIED'), ('UNSPECIFIED'), ('UNSPECIFIED') ) ;
#29 = EDGE_LOOP ( 'NONE', ( #92, #155, #148, #138 ) ) ;
#30 = CARTESIAN_POINT ( 'NONE',  ( 7.500000000000000000, 9.184850993605147944E-16, 1.000000000000000000 ) ) ;
#31 = EDGE_LOOP ( 'NONE', ( #172, #105 ) ) ;
#32 = DIRECTION ( 'NONE',  ( 1.000000000000000000, 0.0000000000000000000, 0.0000000000000000000 ) ) ;
#33 = CC_DESIGN_DATE_AND_TIME_ASSIGNMENT ( #156, #36, ( #157 ) ) ;
#34 = PERSON_AND_ORGANIZATION_ROLE ( 'creator' ) ;
#35 =( NAMED_UNIT ( * ) SI_UNIT ( $, .STERADIAN. ) SOLID_ANGLE_UNIT ( ) );
#36 = DATE_TIME_ROLE ( 'creation_date' ) ;
#37 = CIRCLE ( 'NONE', #150, 7.500000000000000000 ) ;
#38 = LINE ( 'NONE', #51, #21 ) ;
#39 = ORIENTED_EDGE ( 'NONE', *, *, #120, .F. ) ;
#40 = APPROVAL_PERSON_ORGANIZATION ( #87, #85, #20 ) ;
#41 = CIRCLE ( 'NONE', #96, 7.500000000000000000 ) ;
#42 = AXIS2_PLACEMENT_3D ( 'NONE', #16, #141, #93 ) ;
#43 = PLANE ( 'NONE',  #171 ) ;
#44 = CARTESIAN_POINT ( 'NONE',  ( 0.0000000000000000000, 0.0000000000000000000, -1.000000000000000000 ) ) ;
#45 = CARTESIAN_POINT ( 'NONE',  ( -7.500000000000000000, 0.0000000000000000000, 1.000000000000000000 ) ) ;
#46 = ADVANCED_FACE ( 'NONE', ( #109 ), #84, .T. ) ;
#47 = AXIS2_PLACEMENT_3D ( 'NONE', #122, #160, #108 ) ;
#48 = CIRCLE ( 'NONE', #168, 7.500000000000000000 ) ;
#49 = MANIFOLD_SOLID_BREP ( 'Boss-Extrude1', #7 ) ;
#50 = VERTEX_POINT ( 'NONE', #132 ) ;
#51 = CARTESIAN_POINT ( 'NONE',  ( 7.500000000000000000, 9.184850993605147944E-16, 1.000000000000000000 ) ) ;
#52 = DIRECTION ( 'NONE',  ( 0.0000000000000000000, 0.0000000000000000000, 1.000000000000000000 ) ) ;
#53 = COORDINATED_UNIVERSAL_TIME_OFFSET ( 5, 0, .BEHIND. ) ;
#54 = APPROVAL_STATUS ( 'not_yet_approved' ) ;
#55 = PERSON_AND_ORGANIZATION ( #28, #119 ) ;
#56 = PRODUCT_RELATED_PRODUCT_CATEGORY ( 'detail', '', ( #74 ) ) ;
#57 = FACE_OUTER_BOUND ( 'NONE', #31, .T. ) ;
#58 = EDGE_CURVE ( 'NONE', #75, #145, #48, .T. ) ;
#59 = CARTESIAN_POINT ( 'NONE',  ( 0.0000000000000000000, 0.0000000000000000000, -1.000000000000000000 ) ) ;
#60 = CARTESIAN_POINT ( 'NONE',  ( 0.0000000000000000000, 0.0000000000000000000, -1.000000000000000000 ) ) ;
#61 = CARTESIAN_POINT ( 'NONE',  ( 0.0000000000000000000, 0.0000000000000000000, 1.000000000000000000 ) ) ;
#62 = APPLICATION_PROTOCOL_DEFINITION ( 'international standard', 'config_control_design', 1994, #101 ) ;
#63 = LOCAL_TIME ( 13, 32, 28.00000000000000000, #163 ) ;
#64 = APPLICATION_PROTOCOL_DEFINITION ( 'international standard', 'config_control_design', 1994, #2 ) ;
#65 = DIRECTION ( 'NONE',  ( 0.0000000000000000000, 0.0000000000000000000, 1.000000000000000000 ) ) ;
#66 = APPROVAL_DATE_TIME ( #70, #130 ) ;
#67 = CC_DESIGN_APPROVAL ( #85, ( #157 ) ) ;
#68 = PERSON_AND_ORGANIZATION ( #28, #119 ) ;
#69 = ORIENTED_EDGE ( 'NONE', *, *, #58, .F. ) ;
#70 = DATE_AND_TIME ( #103, #133 ) ;
#71 = UNCERTAINTY_MEASURE_WITH_UNIT (LENGTH_MEASURE( 1.000000000000000082E-05 ), #113, 'distance_accuracy_value', 'NONE');
#72 = APPROVAL_DATE_TIME ( #144, #94 ) ;
#73 = AXIS2_PLACEMENT_3D ( 'NONE', #127, #65, #140 ) ;
#74 = PRODUCT ( 'Web Model 48854_14815', 'Web Model 48854_14815', '', ( #82 ) ) ;
#75 = VERTEX_POINT ( 'NONE', #78 ) ;
#76 = COORDINATED_UNIVERSAL_TIME_OFFSET ( 5, 0, .BEHIND. ) ;
#77 = CIRCLE ( 'NONE', #73, 7.500000000000000000 ) ;
#78 = CARTESIAN_POINT ( 'NONE',  ( 7.500000000000000000, 9.184850993605147944E-16, -1.000000000000000000 ) ) ;
#79 = CC_DESIGN_DATE_AND_TIME_ASSIGNMENT ( #170, #154, ( #10 ) ) ;
#80 = FACE_OUTER_BOUND ( 'NONE', #100, .T. ) ;
#81 = PERSON_AND_ORGANIZATION_ROLE ( 'design_owner' ) ;
#82 = MECHANICAL_CONTEXT ( 'NONE', #2, 'mechanical' ) ;
#83 = CC_DESIGN_PERSON_AND_ORGANIZATION_ASSIGNMENT ( #68, #112, ( #10 ) ) ;
#84 = CYLINDRICAL_SURFACE ( 'NONE', #47, 7.500000000000000000 ) ;
#85 = APPROVAL ( #5, 'UNSPECIFIED' ) ;
#86 = EDGE_CURVE ( 'NONE', #50, #99, #77, .T. ) ;
#87 = PERSON_AND_ORGANIZATION ( #28, #119 ) ;
#88 = LOCAL_TIME ( 13, 32, 28.00000000000000000, #15 ) ;
#89 = PERSON_AND_ORGANIZATION_ROLE ( 'design_supplier' ) ;
#90 = CARTESIAN_POINT ( 'NONE',  ( 0.0000000000000000000, 0.0000000000000000000, 1.000000000000000000 ) ) ;
#91 = CC_DESIGN_PERSON_AND_ORGANIZATION_ASSIGNMENT ( #55, #81, ( #74 ) ) ;
#92 = ORIENTED_EDGE ( 'NONE', *, *, #142, .F. ) ;
#93 = DIRECTION ( 'NONE',  ( -1.000000000000000000, 0.0000000000000000000, 0.0000000000000000000 ) ) ;
#94 = APPROVAL ( #54, 'UNSPECIFIED' ) ;
#95 = ORIENTED_EDGE ( 'NONE', *, *, #98, .F. ) ;
#96 = AXIS2_PLACEMENT_3D ( 'NONE', #59, #175, #97 ) ;
#97 = DIRECTION ( 'NONE',  ( 1.000000000000000000, 0.0000000000000000000, 0.0000000000000000000 ) ) ;
#98 = EDGE_CURVE ( 'NONE', #50, #145, #27, .T. ) ;
#99 = VERTEX_POINT ( 'NONE', #30 ) ;
#100 = EDGE_LOOP ( 'NONE', ( #39, #143, #129, #95 ) ) ;
#101 = APPLICATION_CONTEXT ( 'configuration controlled 3d designs of mechanical parts and assemblies' ) ;
#102 = DIRECTION ( 'NONE',  ( 0.0000000000000000000, 0.0000000000000000000, 1.000000000000000000 ) ) ;
#103 = CALENDAR_DATE ( 2020, 7, 10 ) ;
#104 = PERSON_AND_ORGANIZATION ( #28, #119 ) ;
#105 = ORIENTED_EDGE ( 'NONE', *, *, #120, .T. ) ;
#106 = CC_DESIGN_PERSON_AND_ORGANIZATION_ASSIGNMENT ( #26, #34, ( #165 ) ) ;
#107 = PERSON_AND_ORGANIZATION ( #28, #119 ) ;
#108 = DIRECTION ( 'NONE',  ( -1.000000000000000000, 0.0000000000000000000, 0.0000000000000000000 ) ) ;
#109 = FACE_OUTER_BOUND ( 'NONE', #29, .T. ) ;
#110 = ADVANCED_FACE ( 'NONE', ( #80 ), #11, .T. ) ;
#111 = CALENDAR_DATE ( 2020, 7, 10 ) ;
#112 = PERSON_AND_ORGANIZATION_ROLE ( 'classification_officer' ) ;
#113 =( LENGTH_UNIT ( ) NAMED_UNIT ( * ) SI_UNIT ( .MILLI., .METRE. ) );
#114 = CC_DESIGN_APPROVAL ( #94, ( #10 ) ) ;
#115 = APPROVAL_PERSON_ORGANIZATION ( #24, #130, #164 ) ;
#116 = DIRECTION ( 'NONE',  ( -0.0000000000000000000, -0.0000000000000000000, -1.000000000000000000 ) ) ;
#117 = CC_DESIGN_SECURITY_CLASSIFICATION ( #10, ( #165 ) ) ;
#118 = LOCAL_TIME ( 13, 32, 28.00000000000000000, #53 ) ;
#119 = ORGANIZATION ( 'UNSPECIFIED', 'UNSPECIFIED', '' ) ;
#120 = EDGE_CURVE ( 'NONE', #99, #50, #37, .T. ) ;
#121 = PRODUCT_DEFINITION_SHAPE ( 'NONE', 'NONE',  #157 ) ;
#122 = CARTESIAN_POINT ( 'NONE',  ( 0.0000000000000000000, 0.0000000000000000000, 1.000000000000000000 ) ) ;
#123 = CC_DESIGN_APPROVAL ( #130, ( #165 ) ) ;
#124 = CALENDAR_DATE ( 2020, 7, 10 ) ;
#125 = ADVANCED_BREP_SHAPE_REPRESENTATION ( 'Web Model 48854_14815', ( #49, #23 ), #147 ) ;
#126 = CARTESIAN_POINT ( 'NONE',  ( 0.0000000000000000000, 0.0000000000000000000, 0.0000000000000000000 ) ) ;
#127 = CARTESIAN_POINT ( 'NONE',  ( 0.0000000000000000000, 0.0000000000000000000, 1.000000000000000000 ) ) ;
#128 = CC_DESIGN_PERSON_AND_ORGANIZATION_ASSIGNMENT ( #104, #151, ( #157 ) ) ;
#129 = ORIENTED_EDGE ( 'NONE', *, *, #58, .T. ) ;
#130 = APPROVAL ( #162, 'UNSPECIFIED' ) ;
#131 = ORIENTED_EDGE ( 'NONE', *, *, #14, .F. ) ;
#132 = CARTESIAN_POINT ( 'NONE',  ( -7.500000000000000000, 0.0000000000000000000, 1.000000000000000000 ) ) ;
#133 = LOCAL_TIME ( 13, 32, 28.00000000000000000, #76 ) ;
#134 = DIRECTION ( 'NONE',  ( 0.0000000000000000000, 0.0000000000000000000, 1.000000000000000000 ) ) ;
#135 = DIRECTION ( 'NONE',  ( -0.0000000000000000000, -0.0000000000000000000, -1.000000000000000000 ) ) ;
#136 = DIRECTION ( 'NONE',  ( 1.000000000000000000, 0.0000000000000000000, -0.0000000000000000000 ) ) ;
#137 = CARTESIAN_POINT ( 'NONE',  ( -7.500000000000000000, 0.0000000000000000000, -1.000000000000000000 ) ) ;
#138 = ORIENTED_EDGE ( 'NONE', *, *, #14, .T. ) ;
#139 = DIRECTION ( 'NONE',  ( 1.000000000000000000, 0.0000000000000000000, 0.0000000000000000000 ) ) ;
#140 = DIRECTION ( 'NONE',  ( 1.000000000000000000, 0.0000000000000000000, 0.0000000000000000000 ) ) ;
#141 = DIRECTION ( 'NONE',  ( -0.0000000000000000000, -0.0000000000000000000, -1.000000000000000000 ) ) ;
#142 = EDGE_CURVE ( 'NONE', #99, #75, #38, .T. ) ;
#143 = ORIENTED_EDGE ( 'NONE', *, *, #142, .T. ) ;
#144 = DATE_AND_TIME ( #167, #9 ) ;
#145 = VERTEX_POINT ( 'NONE', #137 ) ;
#146 = DESIGN_CONTEXT ( 'detailed design', #101, 'design' ) ;
#147 =( GEOMETRIC_REPRESENTATION_CONTEXT ( 3 ) GLOBAL_UNCERTAINTY_ASSIGNED_CONTEXT ( ( #71 ) ) GLOBAL_UNIT_ASSIGNED_CONTEXT ( ( #113, #166, #35 ) ) REPRESENTATION_CONTEXT ( 'NONE', 'WORKASPACE' ) );
#148 = ORIENTED_EDGE ( 'NONE', *, *, #98, .T. ) ;
#149 = APPROVAL_ROLE ( '' ) ;
#150 = AXIS2_PLACEMENT_3D ( 'NONE', #90, #3, #32 ) ;
#151 = PERSON_AND_ORGANIZATION_ROLE ( 'creator' ) ;
#152 = COORDINATED_UNIVERSAL_TIME_OFFSET ( 5, 0, .BEHIND. ) ;
#153 = SECURITY_CLASSIFICATION_LEVEL ( 'unclassified' ) ;
#154 = DATE_TIME_ROLE ( 'classification_date' ) ;
#155 = ORIENTED_EDGE ( 'NONE', *, *, #86, .F. ) ;
#156 = DATE_AND_TIME ( #173, #63 ) ;
#157 = PRODUCT_DEFINITION ( 'UNKNOWN', '', #165, #146 ) ;
#158 = AXIS2_PLACEMENT_3D ( 'NONE', #61, #102, #19 ) ;
#159 = PERSON_AND_ORGANIZATION ( #28, #119 ) ;
#160 = DIRECTION ( 'NONE',  ( -0.0000000000000000000, -0.0000000000000000000, -1.000000000000000000 ) ) ;
#161 = ADVANCED_FACE ( 'NONE', ( #57 ), #4, .T. ) ;
#162 = APPROVAL_STATUS ( 'not_yet_approved' ) ;
#163 = COORDINATED_UNIVERSAL_TIME_OFFSET ( 5, 0, .BEHIND. ) ;
#164 = APPROVAL_ROLE ( '' ) ;
#165 = PRODUCT_DEFINITION_FORMATION_WITH_SPECIFIED_SOURCE ( 'ANY', '', #74, .NOT_KNOWN. ) ;
#166 =( NAMED_UNIT ( * ) PLANE_ANGLE_UNIT ( ) SI_UNIT ( $, .RADIAN. ) );
#167 = CALENDAR_DATE ( 2020, 7, 10 ) ;
#168 = AXIS2_PLACEMENT_3D ( 'NONE', #60, #1, #17 ) ;
#169 = SHAPE_DEFINITION_REPRESENTATION ( #121, #125 ) ;
#170 = DATE_AND_TIME ( #111, #118 ) ;
#171 = AXIS2_PLACEMENT_3D ( 'NONE', #44, #134, #136 ) ;
#172 = ORIENTED_EDGE ( 'NONE', *, *, #86, .T. ) ;
#173 = CALENDAR_DATE ( 2020, 7, 10 ) ;
#174 = CC_DESIGN_PERSON_AND_ORGANIZATION_ASSIGNMENT ( #159, #89, ( #165 ) ) ;
#175 = DIRECTION ( 'NONE',  ( 0.0000000000000000000, 0.0000000000000000000, 1.000000000000000000 ) ) ;
ENDSEC;
END-ISO-10303-21;
