ISO-10303-21;
HEADER;
FILE_DESCRIPTION (( 'STEP AP203' ),
    '1' );
FILE_NAME ('Web Model 43368_20941.step',
    '2022-03-16T14:23:16',
    ( '' ),
    ( '' ),
    'SwSTEP 2.0',
    'SolidWorks 2021',
    '' );
FILE_SCHEMA (( 'CONFIG_CONTROL_DESIGN' ));
ENDSEC;

DATA;
#1 = PRODUCT_DEFINITION_FORMATION_WITH_SPECIFIED_SOURCE ( 'ANY', '', #115, .NOT_KNOWN. ) ;
#2 = PERSON_AND_ORGANIZATION_ROLE ( 'design_supplier' ) ;
#3 = SECURITY_CLASSIFICATION_LEVEL ( 'unclassified' ) ;
#4 = PRODUCT_DEFINITION ( 'UNKNOWN', '', #1, #123 ) ;
#5 = LOCAL_TIME ( 10, 23, 16.00000000000000000, #40 ) ;
#6 = ORIENTED_EDGE ( 'NONE', *, *, #128, .T. ) ;
#7 = CC_DESIGN_DATE_AND_TIME_ASSIGNMENT ( #17, #124, ( #90 ) ) ;
#8 = CIRCLE ( 'NONE', #105, 10.00000000000000000 ) ;
#9 = DIRECTION ( 'NONE',  ( -0.000000000000000000, -0.000000000000000000, -1.000000000000000000 ) ) ;
#10 = DIRECTION ( 'NONE',  ( 1.000000000000000000, 0.000000000000000000, 0.000000000000000000 ) ) ;
#11 = CIRCLE ( 'NONE', #131, 10.00000000000000000 ) ;
#12 = DIRECTION ( 'NONE',  ( -1.000000000000000000, 0.000000000000000000, 0.000000000000000000 ) ) ;
#13 = AXIS2_PLACEMENT_3D ( 'NONE', #60, #21, #77 ) ;
#14 = CARTESIAN_POINT ( 'NONE',  ( 0.000000000000000000, 0.000000000000000000, 0.000000000000000000 ) ) ;
#15 = APPROVAL_DATE_TIME ( #82, #20 ) ;
#16 = CC_DESIGN_SECURITY_CLASSIFICATION ( #90, ( #1 ) ) ;
#17 = DATE_AND_TIME ( #88, #43 ) ;
#18 = EDGE_LOOP ( 'NONE', ( #154, #116, #165, #34 ) ) ;
#19 = EDGE_LOOP ( 'NONE', ( #143, #35 ) ) ;
#20 = APPROVAL ( #155, 'UNSPECIFIED' ) ;
#21 = DIRECTION ( 'NONE',  ( 0.000000000000000000, 0.000000000000000000, 1.000000000000000000 ) ) ;
#22 = FACE_OUTER_BOUND ( 'NONE', #140, .T. ) ;
#23 = AXIS2_PLACEMENT_3D ( 'NONE', #144, #91, #153 ) ;
#24 = APPROVAL_PERSON_ORGANIZATION ( #52, #20, #29 ) ;
#25 = DIRECTION ( 'NONE',  ( -0.000000000000000000, -0.000000000000000000, -1.000000000000000000 ) ) ;
#26 = LINE ( 'NONE', #118, #164 ) ;
#27 = DIRECTION ( 'NONE',  ( 1.000000000000000000, 0.000000000000000000, 0.000000000000000000 ) ) ;
#28 = LOCAL_TIME ( 10, 23, 16.00000000000000000, #56 ) ;
#29 = APPROVAL_ROLE ( '' ) ;
#30 = SHAPE_DEFINITION_REPRESENTATION ( #33, #89 ) ;
#31 = CC_DESIGN_DATE_AND_TIME_ASSIGNMENT ( #42, #86, ( #4 ) ) ;
#32 = PERSON ( 'UNSPECIFIED', 'UNSPECIFIED', 'UNSPECIFIED', ('UNSPECIFIED'), ('UNSPECIFIED'), ('UNSPECIFIED') ) ;
#33 = PRODUCT_DEFINITION_SHAPE ( 'NONE', 'NONE',  #4 ) ;
#34 = ORIENTED_EDGE ( 'NONE', *, *, #69, .T. ) ;
#35 = ORIENTED_EDGE ( 'NONE', *, *, #160, .F. ) ;
#36 = CC_DESIGN_PERSON_AND_ORGANIZATION_ASSIGNMENT ( #108, #38, ( #115 ) ) ;
#37 = CC_DESIGN_PERSON_AND_ORGANIZATION_ASSIGNMENT ( #97, #111, ( #1 ) ) ;
#38 = PERSON_AND_ORGANIZATION_ROLE ( 'design_owner' ) ;
#39 = CARTESIAN_POINT ( 'NONE',  ( 0.000000000000000000, 0.000000000000000000, 0.000000000000000000 ) ) ;
#40 = COORDINATED_UNIVERSAL_TIME_OFFSET ( 5, 0, .BEHIND. ) ;
#41 = CIRCLE ( 'NONE', #73, 10.00000000000000000 ) ;
#42 = DATE_AND_TIME ( #161, #5 ) ;
#43 = LOCAL_TIME ( 10, 23, 16.00000000000000000, #134 ) ;
#44 = PLANE ( 'NONE',  #23 ) ;
#45 = ORIENTED_EDGE ( 'NONE', *, *, #87, .T. ) ;
#46 = ADVANCED_FACE ( 'NONE', ( #22 ), #44, .T. ) ;
#47 = CARTESIAN_POINT ( 'NONE',  ( 0.000000000000000000, 0.000000000000000000, 0.000000000000000000 ) ) ;
#48 = CARTESIAN_POINT ( 'NONE',  ( 0.000000000000000000, 0.000000000000000000, 0.5000000000000000000 ) ) ;
#49 = ADVANCED_FACE ( 'NONE', ( #141 ), #101, .F. ) ;
#50 = CARTESIAN_POINT ( 'NONE',  ( -10.00000000000000000, 0.000000000000000000, 0.5000000000000000000 ) ) ;
#51 = APPLICATION_PROTOCOL_DEFINITION ( 'international standard', 'config_control_design', 1994, #142 ) ;
#52 = PERSON_AND_ORGANIZATION ( #32, #145 ) ;
#53 = APPROVAL_ROLE ( '' ) ;
#54 = CC_DESIGN_PERSON_AND_ORGANIZATION_ASSIGNMENT ( #67, #110, ( #4 ) ) ;
#55 = AXIS2_PLACEMENT_3D ( 'NONE', #14, #106, #27 ) ;
#56 = COORDINATED_UNIVERSAL_TIME_OFFSET ( 5, 0, .BEHIND. ) ;
#57 = PERSON_AND_ORGANIZATION ( #32, #145 ) ;
#58 = AXIS2_PLACEMENT_3D ( 'NONE', #66, #25, #173 ) ;
#59 = EDGE_CURVE ( 'NONE', #152, #114, #11, .T. ) ;
#60 = CARTESIAN_POINT ( 'NONE',  ( 0.000000000000000000, 0.000000000000000000, 0.000000000000000000 ) ) ;
#61 = VERTEX_POINT ( 'NONE', #64 ) ;
#62 = CLOSED_SHELL ( 'NONE', ( #100, #102, #46, #49 ) ) ;
#63 = MANIFOLD_SOLID_BREP ( 'Boss-Extrude1', #62 ) ;
#64 = CARTESIAN_POINT ( 'NONE',  ( -10.00000000000000000, 0.000000000000000000, 0.000000000000000000 ) ) ;
#65 = PRODUCT_RELATED_PRODUCT_CATEGORY ( 'detail', '', ( #115 ) ) ;
#66 = CARTESIAN_POINT ( 'NONE',  ( 0.000000000000000000, 0.000000000000000000, 0.5000000000000000000 ) ) ;
#67 = PERSON_AND_ORGANIZATION ( #32, #145 ) ;
#68 = APPROVAL_DATE_TIME ( #137, #136 ) ;
#69 = EDGE_CURVE ( 'NONE', #61, #126, #166, .T. ) ;
#70 = DATE_AND_TIME ( #148, #28 ) ;
#71 = CC_DESIGN_PERSON_AND_ORGANIZATION_ASSIGNMENT ( #147, #135, ( #90 ) ) ;
#72 = COORDINATED_UNIVERSAL_TIME_OFFSET ( 5, 0, .BEHIND. ) ;
#73 = AXIS2_PLACEMENT_3D ( 'NONE', #94, #133, #175 ) ;
#74 = ORIENTED_EDGE ( 'NONE', *, *, #113, .F. ) ;
#75 = EDGE_LOOP ( 'NONE', ( #112, #45, #104, #74 ) ) ;
#76 = ORIENTED_EDGE ( 'NONE', *, *, #59, .T. ) ;
#77 = DIRECTION ( 'NONE',  ( 1.000000000000000000, 0.000000000000000000, -0.000000000000000000 ) ) ;
#78 = DIRECTION ( 'NONE',  ( 1.000000000000000000, 0.000000000000000000, 0.000000000000000000 ) ) ;
#79 = LINE ( 'NONE', #132, #151 ) ;
#80 = CC_DESIGN_APPROVAL ( #136, ( #90 ) ) ;
#81 = DIRECTION ( 'NONE',  ( -0.000000000000000000, -0.000000000000000000, -1.000000000000000000 ) ) ;
#82 = DATE_AND_TIME ( #171, #98 ) ;
#83 = APPROVAL_DATE_TIME ( #70, #170 ) ;
#84 = AXIS2_PLACEMENT_3D ( 'NONE', #47, #120, #174 ) ;
#85 = UNCERTAINTY_MEASURE_WITH_UNIT (LENGTH_MEASURE( 1.000000000000000082E-05 ), #158, 'distance_accuracy_value', 'NONE');
#86 = DATE_TIME_ROLE ( 'creation_date' ) ;
#87 = EDGE_CURVE ( 'NONE', #114, #126, #79, .T. ) ;
#88 = CALENDAR_DATE ( 2022, 16, 3 ) ;
#89 = ADVANCED_BREP_SHAPE_REPRESENTATION ( 'Web Model 43368_20941', ( #63, #84 ), #172 ) ;
#90 = SECURITY_CLASSIFICATION ( '', '', #3 ) ;
#91 = DIRECTION ( 'NONE',  ( 0.000000000000000000, 0.000000000000000000, 1.000000000000000000 ) ) ;
#92 = CC_DESIGN_APPROVAL ( #170, ( #1 ) ) ;
#93 =( NAMED_UNIT ( * ) PLANE_ANGLE_UNIT ( ) SI_UNIT ( $, .RADIAN. ) );
#94 = CARTESIAN_POINT ( 'NONE',  ( 0.000000000000000000, 0.000000000000000000, 0.5000000000000000000 ) ) ;
#95 = LOCAL_TIME ( 10, 23, 16.00000000000000000, #72 ) ;
#96 = MECHANICAL_CONTEXT ( 'NONE', #142, 'mechanical' ) ;
#97 = PERSON_AND_ORGANIZATION ( #32, #145 ) ;
#98 = LOCAL_TIME ( 10, 23, 16.00000000000000000, #109 ) ;
#99 = PERSON_AND_ORGANIZATION ( #32, #145 ) ;
#100 = ADVANCED_FACE ( 'NONE', ( #130 ), #157, .T. ) ;
#101 = PLANE ( 'NONE',  #13 ) ;
#102 = ADVANCED_FACE ( 'NONE', ( #127 ), #119, .T. ) ;
#103 = DIRECTION ( 'NONE',  ( 0.000000000000000000, 0.000000000000000000, 1.000000000000000000 ) ) ;
#104 = ORIENTED_EDGE ( 'NONE', *, *, #160, .T. ) ;
#105 = AXIS2_PLACEMENT_3D ( 'NONE', #39, #107, #10 ) ;
#106 = DIRECTION ( 'NONE',  ( 0.000000000000000000, 0.000000000000000000, 1.000000000000000000 ) ) ;
#107 = DIRECTION ( 'NONE',  ( 0.000000000000000000, 0.000000000000000000, 1.000000000000000000 ) ) ;
#108 = PERSON_AND_ORGANIZATION ( #32, #145 ) ;
#109 = COORDINATED_UNIVERSAL_TIME_OFFSET ( 5, 0, .BEHIND. ) ;
#110 = PERSON_AND_ORGANIZATION_ROLE ( 'creator' ) ;
#111 = PERSON_AND_ORGANIZATION_ROLE ( 'creator' ) ;
#112 = ORIENTED_EDGE ( 'NONE', *, *, #128, .F. ) ;
#113 = EDGE_CURVE ( 'NONE', #152, #61, #26, .T. ) ;
#114 = VERTEX_POINT ( 'NONE', #159 ) ;
#115 = PRODUCT ( 'Web Model 43368_20941', 'Web Model 43368_20941', '', ( #96 ) ) ;
#116 = ORIENTED_EDGE ( 'NONE', *, *, #59, .F. ) ;
#117 = DIRECTION ( 'NONE',  ( -0.000000000000000000, -0.000000000000000000, -1.000000000000000000 ) ) ;
#118 = CARTESIAN_POINT ( 'NONE',  ( -10.00000000000000000, 0.000000000000000000, 0.5000000000000000000 ) ) ;
#119 = CYLINDRICAL_SURFACE ( 'NONE', #58, 10.00000000000000000 ) ;
#120 = DIRECTION ( 'NONE',  ( 0.000000000000000000, 0.000000000000000000, 1.000000000000000000 ) ) ;
#121 = AXIS2_PLACEMENT_3D ( 'NONE', #48, #9, #12 ) ;
#122 = APPLICATION_CONTEXT ( 'configuration controlled 3d designs of mechanical parts and assemblies' ) ;
#123 = DESIGN_CONTEXT ( 'detailed design', #122, 'design' ) ;
#124 = DATE_TIME_ROLE ( 'classification_date' ) ;
#125 = PERSON_AND_ORGANIZATION ( #32, #145 ) ;
#126 = VERTEX_POINT ( 'NONE', #169 ) ;
#127 = FACE_OUTER_BOUND ( 'NONE', #18, .T. ) ;
#128 = EDGE_CURVE ( 'NONE', #114, #152, #41, .T. ) ;
#129 =( NAMED_UNIT ( * ) SI_UNIT ( $, .STERADIAN. ) SOLID_ANGLE_UNIT ( ) );
#130 = FACE_OUTER_BOUND ( 'NONE', #75, .T. ) ;
#131 = AXIS2_PLACEMENT_3D ( 'NONE', #168, #103, #78 ) ;
#132 = CARTESIAN_POINT ( 'NONE',  ( 10.00000000000000000, 1.224646799147353256E-15, 0.5000000000000000000 ) ) ;
#133 = DIRECTION ( 'NONE',  ( 0.000000000000000000, 0.000000000000000000, 1.000000000000000000 ) ) ;
#134 = COORDINATED_UNIVERSAL_TIME_OFFSET ( 5, 0, .BEHIND. ) ;
#135 = PERSON_AND_ORGANIZATION_ROLE ( 'classification_officer' ) ;
#136 = APPROVAL ( #162, 'UNSPECIFIED' ) ;
#137 = DATE_AND_TIME ( #149, #95 ) ;
#138 = APPROVAL_STATUS ( 'not_yet_approved' ) ;
#139 = APPROVAL_ROLE ( '' ) ;
#140 = EDGE_LOOP ( 'NONE', ( #76, #6 ) ) ;
#141 = FACE_OUTER_BOUND ( 'NONE', #19, .T. ) ;
#142 = APPLICATION_CONTEXT ( 'configuration controlled 3d designs of mechanical parts and assemblies' ) ;
#143 = ORIENTED_EDGE ( 'NONE', *, *, #69, .F. ) ;
#144 = CARTESIAN_POINT ( 'NONE',  ( 0.000000000000000000, 0.000000000000000000, 0.5000000000000000000 ) ) ;
#145 = ORGANIZATION ( 'UNSPECIFIED', 'UNSPECIFIED', '' ) ;
#146 = APPLICATION_PROTOCOL_DEFINITION ( 'international standard', 'config_control_design', 1994, #122 ) ;
#147 = PERSON_AND_ORGANIZATION ( #32, #145 ) ;
#148 = CALENDAR_DATE ( 2022, 16, 3 ) ;
#149 = CALENDAR_DATE ( 2022, 16, 3 ) ;
#150 = APPROVAL_PERSON_ORGANIZATION ( #125, #170, #53 ) ;
#151 = VECTOR ( 'NONE', #117, 1000.000000000000000 ) ;
#152 = VERTEX_POINT ( 'NONE', #50 ) ;
#153 = DIRECTION ( 'NONE',  ( 1.000000000000000000, 0.000000000000000000, -0.000000000000000000 ) ) ;
#154 = ORIENTED_EDGE ( 'NONE', *, *, #87, .F. ) ;
#155 = APPROVAL_STATUS ( 'not_yet_approved' ) ;
#156 = CC_DESIGN_APPROVAL ( #20, ( #4 ) ) ;
#157 = CYLINDRICAL_SURFACE ( 'NONE', #121, 10.00000000000000000 ) ;
#158 =( LENGTH_UNIT ( ) NAMED_UNIT ( * ) SI_UNIT ( .MILLI., .METRE. ) );
#159 = CARTESIAN_POINT ( 'NONE',  ( 10.00000000000000000, 1.224646799147353256E-15, 0.5000000000000000000 ) ) ;
#160 = EDGE_CURVE ( 'NONE', #126, #61, #8, .T. ) ;
#161 = CALENDAR_DATE ( 2022, 16, 3 ) ;
#162 = APPROVAL_STATUS ( 'not_yet_approved' ) ;
#163 = CC_DESIGN_PERSON_AND_ORGANIZATION_ASSIGNMENT ( #57, #2, ( #1 ) ) ;
#164 = VECTOR ( 'NONE', #81, 1000.000000000000000 ) ;
#165 = ORIENTED_EDGE ( 'NONE', *, *, #113, .T. ) ;
#166 = CIRCLE ( 'NONE', #55, 10.00000000000000000 ) ;
#167 = APPROVAL_PERSON_ORGANIZATION ( #99, #136, #139 ) ;
#168 = CARTESIAN_POINT ( 'NONE',  ( 0.000000000000000000, 0.000000000000000000, 0.5000000000000000000 ) ) ;
#169 = CARTESIAN_POINT ( 'NONE',  ( 10.00000000000000000, 1.224646799147353256E-15, 0.000000000000000000 ) ) ;
#170 = APPROVAL ( #138, 'UNSPECIFIED' ) ;
#171 = CALENDAR_DATE ( 2022, 16, 3 ) ;
#172 =( GEOMETRIC_REPRESENTATION_CONTEXT ( 3 ) GLOBAL_UNCERTAINTY_ASSIGNED_CONTEXT ( ( #85 ) ) GLOBAL_UNIT_ASSIGNED_CONTEXT ( ( #158, #93, #129 ) ) REPRESENTATION_CONTEXT ( 'NONE', 'WORKASPACE' ) );
#173 = DIRECTION ( 'NONE',  ( -1.000000000000000000, 0.000000000000000000, 0.000000000000000000 ) ) ;
#174 = DIRECTION ( 'NONE',  ( 1.000000000000000000, 0.000000000000000000, 0.000000000000000000 ) ) ;
#175 = DIRECTION ( 'NONE',  ( 1.000000000000000000, 0.000000000000000000, 0.000000000000000000 ) ) ;
ENDSEC;
END-ISO-10303-21;
