  0
SECTION
  2
HEADER
  9
$ACADVER
  1
AC1014
  9
$ACADMAINTVER
 70
     0
  9
$DWGCODEPAGE
  3
ANSI_1252
  9
$INSBASE
 10
0.0
 20
0.0
 30
0.0
  9
$EXTMIN
 10
0.250984
 20
0.266871
 30
-0.000014
  9
$EXTMAX
 10
11.281864
 20
8.797887
 30
0.232934
  9
$LIMMIN
 10
0.0
 20
0.0
  9
$LIMMAX
 10
11.266175
 20
8.78235
  9
$ORTHOMODE
 70
     1
  9
$REGENMODE
 70
     1
  9
$FILLMODE
 70
     1
  9
$QTEXTMODE
 70
     0
  9
$MIRRTEXT
 70
     0
  9
$DRAGMODE
 70
     2
  9
$LTSCALE
 40
0.35
  9
$OSMODE
 70
    39
  9
$ATTMODE
 70
     1
  9
$TEXTSIZE
 40
0.08
  9
$TRACEWID
 40
0.05
  9
$TEXTSTYLE
  7
STANDARD
  9
$CLAYER
  8
S1
  9
$CELTYPE
  6
BYLAYER
  9
$CECOLOR
 62
   256
  9
$CELTSCALE
 40
1.0
  9
$DELOBJ
 70
     1
  9
$DISPSILH
 70
     0
  9
$DIMSCALE
 40
1.0
  9
$DIMASZ
 40
0.18
  9
$DIMEXO
 40
0.04
  9
$DIMDLI
 40
0.4
  9
$DIMRND
 40
0.0
  9
$DIMDLE
 40
0.0
  9
$DIMEXE
 40
0.04
  9
$DIMTP
 40
0.0
  9
$DIMTM
 40
0.0
  9
$DIMTXT
 40
0.08
  9
$DIMCEN
 40
0.07
  9
$DIMTSZ
 40
0.0
  9
$DIMTOL
 70
     0
  9
$DIMLIM
 70
     0
  9
$DIMTIH
 70
     1
  9
$DIMTOH
 70
     1
  9
$DIMSE1
 70
     0
  9
$DIMSE2
 70
     0
  9
$DIMTAD
 70
     0
  9
$DIMZIN
 70
     0
  9
$DIMBLK
  1

  9
$DIMASO
 70
     0
  9
$DIMSHO
 70
     1
  9
$DIMPOST
  1

  9
$DIMAPOST
  1

  9
$DIMALT
 70
     0
  9
$DIMALTD
 70
     2
  9
$DIMALTF
 40
25.4
  9
$DIMLFAC
 40
1.0
  9
$DIMTOFL
 70
     0
  9
$DIMTVP
 40
0.0
  9
$DIMTIX
 70
     0
  9
$DIMSOXD
 70
     0
  9
$DIMSAH
 70
     0
  9
$DIMBLK1
  1

  9
$DIMBLK2
  1

  9
$DIMSTYLE
  2
STANDARD
  9
$DIMCLRD
 70
     0
  9
$DIMCLRE
 70
     0
  9
$DIMCLRT
 70
   256
  9
$DIMTFAC
 40
1.0
  9
$DIMGAP
 40
0.05
  9
$DIMJUST
 70
     0
  9
$DIMSD1
 70
     0
  9
$DIMSD2
 70
     0
  9
$DIMTOLJ
 70
     1
  9
$DIMTZIN
 70
     0
  9
$DIMALTZ
 70
     0
  9
$DIMALTTZ
 70
     0
  9
$DIMFIT
 70
     0
  9
$DIMUPT
 70
     1
  9
$DIMUNIT
 70
     2
  9
$DIMDEC
 70
     3
  9
$DIMTDEC
 70
     3
  9
$DIMALTU
 70
     2
  9
$DIMALTTD
 70
     2
  9
$DIMTXSTY
  7
STANDARD
  9
$DIMAUNIT
 70
     0
  9
$LUNITS
 70
     2
  9
$LUPREC
 70
     8
  9
$SKETCHINC
 40
0.1
  9
$FILLETRAD
 40
0.0
  9
$AUNITS
 70
     0
  9
$AUPREC
 70
     8
  9
$MENU
  1
C:\R13\WIN\SUPPORT\ACAD
  9
$ELEVATION
 40
0.0
  9
$PELEVATION
 40
0.0
  9
$THICKNESS
 40
0.0
  9
$LIMCHECK
 70
     1
  9
$BLIPMODE
 70
     1
  9
$CHAMFERA
 40
0.0
  9
$CHAMFERB
 40
0.0
  9
$CHAMFERC
 40
0.0
  9
$CHAMFERD
 40
0.0
  9
$SKPOLY
 70
     0
  9
$TDCREATE
 40
2450199.469447569
  9
$TDUPDATE
 40
2451894.477491609
  9
$TDINDWG
 40
0.2183555440
  9
$TDUSRTIMER
 40
0.2183555440
  9
$USRTIMER
 70
     1
  9
$ANGBASE
 50
0.0
  9
$ANGDIR
 70
     0
  9
$PDMODE
 70
     0
  9
$PDSIZE
 40
0.0
  9
$PLINEWID
 40
0.01
  9
$COORDS
 70
     2
  9
$SPLFRAME
 70
     0
  9
$SPLINETYPE
 70
     6
  9
$SPLINESEGS
 70
     8
  9
$ATTDIA
 70
     0
  9
$ATTREQ
 70
     1
  9
$HANDLING
 70
     1
  9
$HANDSEED
  5
37E1
  9
$SURFTAB1
 70
     6
  9
$SURFTAB2
 70
     6
  9
$SURFTYPE
 70
     6
  9
$SURFU
 70
     6
  9
$SURFV
 70
     6
  9
$UCSNAME
  2

  9
$UCSORG
 10
0.2661750000000005
 20
0.2823500000000001
 30
0.0
  9
$UCSXDIR
 10
1.0
 20
0.0
 30
0.0
  9
$UCSYDIR
 10
0.0
 20
1.0
 30
0.0
  9
$PUCSNAME
  2

  9
$PUCSORG
 10
0.0
 20
0.0
 30
0.0
  9
$PUCSXDIR
 10
1.0
 20
0.0
 30
0.0
  9
$PUCSYDIR
 10
0.0
 20
1.0
 30
0.0
  9
$USERI1
 70
     0
  9
$USERI2
 70
     0
  9
$USERI3
 70
     0
  9
$USERI4
 70
     0
  9
$USERI5
 70
     0
  9
$USERR1
 40
0.0
  9
$USERR2
 40
0.0
  9
$USERR3
 40
0.0
  9
$USERR4
 40
0.0
  9
$USERR5
 40
0.0
  9
$WORLDVIEW
 70
     1
  9
$SHADEDGE
 70
     3
  9
$SHADEDIF
 70
    70
  9
$TILEMODE
 70
     1
  9
$MAXACTVP
 70
    16
  9
$PINSBASE
 10
0.0
 20
0.0
 30
0.0
  9
$PLIMCHECK
 70
     0
  9
$PEXTMIN
 10
1.000000E+20
 20
1.000000E+20
 30
1.000000E+20
  9
$PEXTMAX
 10
-1.000000E+20
 20
-1.000000E+20
 30
-1.000000E+20
  9
$PLIMMIN
 10
0.0
 20
0.0
  9
$PLIMMAX
 10
12.0
 20
9.0
  9
$UNITMODE
 70
     0
  9
$VISRETAIN
 70
     0
  9
$PLINEGEN
 70
     0
  9
$PSLTSCALE
 70
     1
  9
$TREEDEPTH
 70
  3020
  9
$PICKSTYLE
 70
     1
  9
$CMLSTYLE
  2
STANDARD
  9
$CMLJUST
 70
     0
  9
$CMLSCALE
 40
1.0
  9
$PROXYGRAPHICS
 70
     1
  9
$MEASUREMENT
 70
     0
  0
ENDSEC
  0
SECTION
  2
CLASSES
  0
CLASS
  1
LWPOLYLINE
  2
AcDbPolyline
  3
"AutoCAD"
 90
        0
280
     0
281
     1
  0
ENDSEC
  0
SECTION
  2
TABLES
  0
TABLE
  2
VPORT
  5
8
100
AcDbSymbolTable
 70
     2
  0
VPORT
  5
37E0
100
AcDbSymbolTableRecord
100
AcDbViewportTableRecord
  2
*ACTIVE
 70
     0
 10
0.0
 20
0.0
 11
1.0
 21
1.0
 12
5.766424
 22
4.532379
 13
0.0
 23
0.0
 14
0.005
 24
0.005
 15
0.25
 25
0.25
 16
0.0
 26
0.0
 36
1.0
 17
0.0
 27
0.0
 37
0.0
 40
8.622747
 41
1.660682
 42
50.0
 43
0.0
 44
0.0
 50
0.0
 51
0.0
 71
     0
 72
 20000
 73
     1
 74
     2
 75
     0
 76
     0
 77
     0
 78
     0
  0
ENDTAB
  0
TABLE
  2
LTYPE
  5
5
100
AcDbSymbolTable
 70
     3
  0
LTYPE
  5
14
100
AcDbSymbolTableRecord
100
AcDbLinetypeTableRecord
  2
BYBLOCK
 70
     0
  3

 72
    65
 73
     0
 40
0.0
  0
LTYPE
  5
15
100
AcDbSymbolTableRecord
100
AcDbLinetypeTableRecord
  2
BYLAYER
 70
     0
  3

 72
    65
 73
     0
 40
0.0
  0
LTYPE
  5
16
100
AcDbSymbolTableRecord
100
AcDbLinetypeTableRecord
  2
CONTINUOUS
 70
     0
  3
Solid line
 72
    65
 73
     0
 40
0.0
  0
LTYPE
  5
34AB
100
AcDbSymbolTableRecord
100
AcDbLinetypeTableRecord
  2
CENTER
 70
     0
  3
Center ____ _ ____ _ ____ _ ____ _ ____ _ ____
 72
    65
 73
     4
 40
2.0
 49
1.25
 74
     0
 49
-0.25
 74
     0
 49
0.25
 74
     0
 49
-0.25
 74
     0
  0
LTYPE
  5
34AC
100
AcDbSymbolTableRecord
100
AcDbLinetypeTableRecord
  2
HIDDEN
 70
     0
  3
Hidden __ __ __ __ __ __ __ __ __ __ __ __ __ _
 72
    65
 73
     2
 40
0.375
 49
0.25
 74
     0
 49
-0.125
 74
     0
  0
ENDTAB
  0
TABLE
  2
LAYER
  5
2
100
AcDbSymbolTable
 70
     9
  0
LAYER
  5
F
100
AcDbSymbolTableRecord
100
AcDbLayerTableRecord
  2
0
 70
     0
 62
     7
  6
CONTINUOUS
  0
LAYER
  5
28
100
AcDbSymbolTableRecord
100
AcDbLayerTableRecord
  2
BORDER
 70
     0
 62
     7
  6
CONTINUOUS
  0
LAYER
  5
2A
100
AcDbSymbolTableRecord
100
AcDbLayerTableRecord
  2
D1
 70
     0
 62
     7
  6
CONTINUOUS
  0
LAYER
  5
3327
100
AcDbSymbolTableRecord
100
AcDbLayerTableRecord
  2
S1
 70
     0
 62
     7
  6
CONTINUOUS
  0
LAYER
  5
348B
100
AcDbSymbolTableRecord
100
AcDbLayerTableRecord
  2
S2
 70
     0
 62
     7
  6
CONTINUOUS
  0
LAYER
  5
348C
100
AcDbSymbolTableRecord
100
AcDbLayerTableRecord
  2
S3
 70
     0
 62
     7
  6
CONTINUOUS
  0
LAYER
  5
3633
100
AcDbSymbolTableRecord
100
AcDbLayerTableRecord
  2
DIM1
 70
     0
 62
     7
  6
CONTINUOUS
  0
LAYER
  5
3634
100
AcDbSymbolTableRecord
100
AcDbLayerTableRecord
  2
BODY
 70
     0
 62
     7
  6
CONTINUOUS
  0
LAYER
  5
3635
100
AcDbSymbolTableRecord
100
AcDbLayerTableRecord
  2
SILK-SCREEN
 70
     0
 62
     7
  6
CONTINUOUS
  0
ENDTAB
  0
TABLE
  2
STYLE
  5
3
100
AcDbSymbolTable
 70
     3
  0
STYLE
  5
10
100
AcDbSymbolTableRecord
100
AcDbTextStyleTableRecord
  2
STANDARD
 70
     0
 40
0.0
 41
1.0
 50
0.0
 71
     0
 42
0.08
  3
txt
  4

  0
STYLE
  5
34AA
100
AcDbSymbolTableRecord
100
AcDbTextStyleTableRecord
  2

 70
     1
 40
0.0
 41
1.0
 50
0.0
 71
     0
 42
0.08
  3
ltypeshp.shx
  4

  0
STYLE
  5
3636
100
AcDbSymbolTableRecord
100
AcDbTextStyleTableRecord
  2
HL-HD
 70
     0
 40
0.0
 41
1.0
 50
0.0
 71
     0
 42
0.1
  3
S:\dwgs\hl-hd.shx
  4

  0
ENDTAB
  0
TABLE
  2
VIEW
  5
6
100
AcDbSymbolTable
 70
     0
  0
ENDTAB
  0
TABLE
  2
UCS
  5
7
100
AcDbSymbolTable
 70
     0
  0
ENDTAB
  0
TABLE
  2
APPID
  5
9
100
AcDbSymbolTable
 70
     6
  0
APPID
  5
11
100
AcDbSymbolTableRecord
100
AcDbRegAppTableRecord
  2
ACAD
 70
     0
  0
APPID
  5
3317
100
AcDbSymbolTableRecord
100
AcDbRegAppTableRecord
  2
CONTENTTABDATA
 70
     0
  0
APPID
  5
3318
100
AcDbSymbolTableRecord
100
AcDbRegAppTableRecord
  2
CONTENTCURRENTTAB
 70
     0
  0
APPID
  5
3328
100
AcDbSymbolTableRecord
100
AcDbRegAppTableRecord
  2
CONTENTBLOCKDESCRIPTION
 70
     0
  0
APPID
  5
3342
100
AcDbSymbolTableRecord
100
AcDbRegAppTableRecord
  2
CONTENTLONGBLOCKNAME
 70
     0
  0
APPID
  5
3343
100
AcDbSymbolTableRecord
100
AcDbRegAppTableRecord
  2
CONTENTBLOCKICON
 70
     0
  0
ENDTAB
  0
TABLE
  2
DIMSTYLE
  5
A
100
AcDbSymbolTable
 70
     1
  0
DIMSTYLE
105
1D
100
AcDbSymbolTableRecord
100
AcDbDimStyleTableRecord
  2
STANDARD
 70
     0
  3

  4

  5

  6

  7

 40
1.0
 41
0.18
 42
0.04
 43
0.4
 44
0.04
 45
0.0
 46
0.0
 47
0.0
 48
0.0
140
0.08
141
0.07
142
0.0
143
25.4
144
1.0
145
0.0
146
1.0
147
0.05
 71
     0
 72
     0
 73
     1
 74
     1
 75
     0
 76
     0
 77
     0
 78
     0
170
     0
171
     2
172
     0
173
     0
174
     0
175
     0
176
     0
177
     0
178
   256
270
     2
271
     3
272
     3
273
     2
274
     2
340
10
275
     0
280
     0
281
     0
282
     0
283
     1
284
     0
285
     0
286
     0
287
     3
288
     1
  0
ENDTAB
  0
TABLE
  2
BLOCK_RECORD
  5
1
100
AcDbSymbolTable
 70
    14
  0
BLOCK_RECORD
  5
1A
100
AcDbSymbolTableRecord
100
AcDbBlockTableRecord
  2
*MODEL_SPACE
  0
BLOCK_RECORD
  5
17
100
AcDbSymbolTableRecord
100
AcDbBlockTableRecord
  2
*PAPER_SPACE
  0
BLOCK_RECORD
  5
343D
100
AcDbSymbolTableRecord
100
AcDbBlockTableRecord
  2
COPYRIGHT
1001
CONTENTBLOCKDESCRIPTION
1071
        0
1000
copy right symbol for upper left hand corner of screen
1001
CONTENTBLOCKICON
1071
        0
1004
2800000020000000200000000100040000000000000200000000000000000000000000000000000000000000000080000080000000808000800000008000800080800000C0C0C000808080000000FF0000FF000000FFFF00FF000000FF00FF00FFFF0000FFFFFF00FFFFFFFFFFFFFFFFFFFFFFFFFFFFFFFF
1004
FFFFFFFFFFFFFFFFFFFFFFFFFFFFFFFFFFFFFFFFFFFFFFFFFFFFFFFFFFFFFFFFFFFFFFFFFFFFFFFFFFFFFFFFFFFFFFFFFFFFFFFFFFFFFFFFFFFFFFFFFFFFFFFFFFFFFFFFFFFFFFFFFFFFFFFFFFFFFFFFFFFFFFFFFFFFFFFFFFFFFFFFFFFFFFFFFFFFFFFFFFFFFFFFFFFFFFFFFFFFFFFFFFFFFFFFFFFFFFFF
1004
FFFFFFFFFFFFFFFFFFFFFFFFFFFFFFFFFFFFFFFFFFFFFFFFFFFFFFFFFFFFFFFFFFFFFFFFFFFFFFFFFFFFFFFFFFFFFFFFFFFFFFFFFFFFFFFFFFFFFFFFFFFFFFFFFFFFFFFFFFFFFFFFFFFFFFFFFFFFFFFFFFFFFFFFFFFFFFFFFFFFFFFFFFFFFFFFFFFFFFFFFFFFFFFFFFFFFFFFFFFFFFFFFFFFFFFFFFFFFFFF
1004
999999999999999999999999FFFFFFFF999999999999999999999999FFFFFFFFFFFFFFFFFFFFFFFFFFFFFFFFFFFFFFFFFFFFFFFFFFFFFFFFFFFFFFFFFFFFFFFFFFFFFFFFFFFFFFFFFFFFFFFFFFFFFFFFFFFFFFFFFFFFFFFFFFFFFFFFFFFFFFFFFFFFFFFFFFFFFFFFFFFFFFFFFFFFFFFFFFFFFFFFFFFFFFFF
1004
FFFFFFFFFFFFFFFFFFFFFFFFFFFFFFFFFFFFFFFFFFFFFFFFFFFFFFFFFFFFFFFFFFFFFFFFFFFFFFFFFFFFFFFFFFFFFFFFFFFFFFFFFFFFFFFFFFFFFFFFFFFFFFFFFFFFFFFFFFFFFFFFFFFFFFFFFFFFFFFFFFFFFFFFFFFFFFFFFFFFFFFFFFFFFFFFFFFFFFFFFFFFFFFFFFFFFFFFFFFFFFFFFFFFFFFFFFFFFFFF
1004
FFFFFFFFFFFFFFFFFFFFFFFFFFFFFFFF
  0
BLOCK_RECORD
  5
34D6
100
AcDbSymbolTableRecord
100
AcDbBlockTableRecord
  2
BNC-SIDE
  0
BLOCK_RECORD
  5
34F7
100
AcDbSymbolTableRecord
100
AcDbBlockTableRecord
  2
TOGGLE-SIDE
  0
BLOCK_RECORD
  5
3513
100
AcDbSymbolTableRecord
100
AcDbBlockTableRecord
  2
BNC
  0
BLOCK_RECORD
  5
3521
100
AcDbSymbolTableRecord
100
AcDbBlockTableRecord
  2
LOGO
  0
BLOCK_RECORD
  5
3587
100
AcDbSymbolTableRecord
100
AcDbBlockTableRecord
  2
TOGGLE-TOP
  0
BLOCK_RECORD
  5
3597
100
AcDbSymbolTableRecord
100
AcDbBlockTableRecord
  2
CE-MARK
  0
BLOCK_RECORD
  5
359D
100
AcDbSymbolTableRecord
100
AcDbBlockTableRecord
  2
*X7
  0
BLOCK_RECORD
  5
35C1
100
AcDbSymbolTableRecord
100
AcDbBlockTableRecord
  2
*X8
  0
BLOCK_RECORD
  5
35D4
100
AcDbSymbolTableRecord
100
AcDbBlockTableRecord
  2
*X9
  0
BLOCK_RECORD
  5
35FF
100
AcDbSymbolTableRecord
100
AcDbBlockTableRecord
  2
*X10
  0
BLOCK_RECORD
  5
361B
100
AcDbSymbolTableRecord
100
AcDbBlockTableRecord
  2
*X11
  0
BLOCK_RECORD
  5
3637
100
AcDbSymbolTableRecord
100
AcDbBlockTableRecord
  2
A$C1BEC697A
  0
BLOCK_RECORD
  5
37D2
100
AcDbSymbolTableRecord
100
AcDbBlockTableRecord
  2
ESDINF_101
1001
CONTENTLONGBLOCKNAME
1000
Esdinf~1
1001
CONTENTBLOCKDESCRIPTION
1071
        0
1000
INFORMATION ONLY, NOT FOR MANUFACTURING
1001
CONTENTBLOCKICON
1071
        0
1004
280000002000000020000000010004000000000000020000000000000000000000000000000000000000000000008000008000000080800080000000800080008080000080808000C0C0C0000000FF0000FF000000FFFF00FF000000FF00FF00FFFF0000FFFFFF00FFFFFFFFFFFFFFFFFFFFFFFFFFFFFFFF
1004
FFFFFFFFFFFFFFFFFFFFFFFFFFFFFFFFFFFFFFFFFFFFFFFFFFFFFFFFFFFFFFFFFFFFFFFFFFFFFFFFFFFFFFFFFFFFFFFFFFFFFFFFFFFFFFFFFFFFFFFFFFFFFFFFFFFFFFFFFFFFFFFFFFFFFFFFFFFFFFFFFFFFFFFFFFFFFFFFFFFFFFFFFFFFFFFFFFFFFFFFFFFFFFFFFFFFFFFFFFFFFFFFFFFFFFFFFFFFFFFF
1004
FFFFFFFFFFFFFFFFFFFFFFFFFFFFFFFFFFFFFFFFFFFFFFFFFFFFFFFFFFFFFFFFFFFFFFFFFFFFFFFFFFFFFFFFFFFFFFFFFFFFFFFFFFFFFFFFFFFFFFFFFFFFFFFFFFFFFFFFFFFFFFFFFFFFFFFFFFFFFFFFFFFFFFFFFFFFFFFFFFFFFFFFFFFFFFFFFFFFFFFFFFFFFFFFFDDDDDDDDDDDDDDDDDDDDDDDDDDDDDDD
1004
FDDDDDDDDDDDDDDDDDDDDDDDDDDDDDDFFFFFFFFFFFFFFFFFFFFFFFFFFFFFFFFFFFFFFFFFFFFFFFFFFFFFFFFFFFFFFFFFFFFFFFFFFFFFFFFFFFFFFFFFFFFFFFFFFFFFFFFFFFFFFFFFFFFFFFFFFFFFFFFFFFFFFFFFFFFFFFFFFFFFFFFFFFFFFFFFFFFFFFFFFFFFFFFFFFFFFFFFFFFFFFFFFFFFFFFFFFFFFFFF
1004
FFFFFFFFFFFFFFFFFFFFFFFFFFFFFFFFFFFFFFFFFFFFFFFFFFFFFFFFFFFFFFFFFFFFFFFFFFFFFFFFFFFFFFFFFFFFFFFFFFFFFFFFFFFFFFFFFFFFFFFFFFFFFFFFFFFFFFFFFFFFFFFFFFFFFFFFFFFFFFFFFFFFFFFFFFFFFFFFFFFFFFFFFFFFFFFFFFFFFFFFFFFFFFFFFFFFFFFFFFFFFFFFFFFFFFFFFFFFFFFF
1004
FFFFFFFFFFFFFFFFFFFFFFFFFFFFFFFF
  0
ENDTAB
  0
ENDSEC
  0
SECTION
  2
BLOCKS
  0
BLOCK
  5
1B
100
AcDbEntity
  8
0
100
AcDbBlockBegin
  2
*MODEL_SPACE
 70
     0
 10
0.0
 20
0.0
 30
0.0
  3
*MODEL_SPACE
  1

  0
ENDBLK
  5
1C
100
AcDbEntity
  8
0
100
AcDbBlockEnd
  0
BLOCK
  5
18
100
AcDbEntity
 67
     1
  8
0
100
AcDbBlockBegin
  2
*PAPER_SPACE
 70
     0
 10
0.0
 20
0.0
 30
0.0
  3
*PAPER_SPACE
  1

  0
ENDBLK
  5
19
100
AcDbEntity
 67
     1
  8
0
100
AcDbBlockEnd
  0
BLOCK
  5
343F
100
AcDbEntity
  8
0
100
AcDbBlockBegin
  2
COPYRIGHT
 70
     0
 10
0.0
 20
0.0
 30
0.0
  3
COPYRIGHT
  1

  0
MTEXT
  5
343E
100
AcDbEntity
  8
BORDER
100
AcDbMText
 10
0.025873
 20
0.323045
 30
0.0
 40
0.25
 41
9.341
 71
     1
 72
     5
  1
\fVerdana|b0|i0|c0|p34;COPYRIGHT \fSymbol|b0|i0|c2|p18;\H0.3;Ó\fVerdana|b0|i0|c0|p34;\H0.25; 1998 by THORLABS INC.
  0
ENDBLK
  5
3440
100
AcDbEntity
  8
0
100
AcDbBlockEnd
  0
BLOCK
  5
34F5
100
AcDbEntity
  8
0
100
AcDbBlockBegin
  2
BNC-SIDE
 70
     0
 10
0.0
 20
0.0
 30
0.0
  3
BNC-SIDE
  1

  0
LINE
  5
34D7
100
AcDbEntity
  8
0
100
AcDbLine
 10
-0.032
 20
0.219
 30
0.0
 11
0.0
 21
0.219
 31
0.0
  0
LINE
  5
34D8
100
AcDbEntity
  8
0
100
AcDbLine
 10
-0.032
 20
-0.219
 30
0.0
 11
0.0
 21
-0.219
 31
0.0
  0
LINE
  5
34D9
100
AcDbEntity
  8
0
100
AcDbLine
 10
-0.561
 20
-0.043
 30
0.0
 11
-0.408
 21
-0.043
 31
0.0
  0
LINE
  5
34DA
100
AcDbEntity
  8
0
100
AcDbLine
 10
-0.561
 20
0.043
 30
0.0
 11
-0.408
 21
0.043
 31
0.0
  0
LINE
  5
34DB
100
AcDbEntity
  8
0
100
AcDbLine
 10
-0.561
 20
-0.043
 30
0.0
 11
-0.561
 21
0.043
 31
0.0
  0
LINE
  5
34DC
100
AcDbEntity
  8
0
100
AcDbLine
 10
-0.309202
 20
-0.181539
 30
0.0
 11
-0.283789
 21
0.1875
 31
0.0
  0
LINE
  5
34DD
100
AcDbEntity
  8
0
100
AcDbLine
 10
-0.408
 20
-0.075
 30
0.0
 11
-0.408
 21
0.075
 31
0.0
  0
LINE
  5
34DE
100
AcDbEntity
  8
0
100
AcDbLine
 10
-0.318
 20
-0.1625
 30
0.0
 11
-0.318
 21
0.1625
 31
0.0
  0
LINE
  5
34DF
100
AcDbEntity
  8
0
100
AcDbLine
 10
-0.109139
 20
-0.1875
 30
0.0
 11
-0.083315
 21
0.1875
 31
0.0
  0
LINE
  5
34E0
100
AcDbEntity
  8
0
100
AcDbLine
 10
-0.149234
 20
-0.1875
 30
0.0
 11
-0.12341
 21
0.1875
 31
0.0
  0
LINE
  5
34E1
100
AcDbEntity
  8
0
100
AcDbLine
 10
-0.189329
 20
-0.1875
 30
0.0
 11
-0.163505
 21
0.1875
 31
0.0
  0
LINE
  5
34E2
100
AcDbEntity
  8
0
100
AcDbLine
 10
-0.229423
 20
-0.1875
 30
0.0
 11
-0.2036
 21
0.1875
 31
0.0
  0
LINE
  5
34E3
100
AcDbEntity
  8
0
100
AcDbLine
 10
-0.269518
 20
-0.1875
 30
0.0
 11
-0.243694
 21
0.1875
 31
0.0
  0
LINE
  5
34E4
100
AcDbEntity
  8
0
100
AcDbLine
 10
-0.032
 20
-0.219
 30
0.0
 11
-0.032
 21
0.219
 31
0.0
  0
LINE
  5
34E5
100
AcDbEntity
  8
0
100
AcDbLine
 10
-0.293
 20
-0.1875
 30
0.0
 11
-0.032
 21
-0.1875
 31
0.0
  0
ARC
  5
34E6
100
AcDbEntity
  8
0
100
AcDbCircle
 10
-0.293
 20
-0.1625
 30
0.0
 40
0.025
100
AcDbArc
 50
180.0
 51
270.0
  0
LINE
  5
34E7
100
AcDbEntity
  8
0
100
AcDbLine
 10
-0.383
 20
-0.1
 30
0.0
 11
-0.318
 21
-0.1
 31
0.0
  0
ARC
  5
34E8
100
AcDbEntity
  8
0
100
AcDbCircle
 10
-0.383
 20
-0.075
 30
0.0
 40
0.025
100
AcDbArc
 50
180.0
 51
270.0
  0
LINE
  5
34E9
100
AcDbEntity
  8
0
100
AcDbLine
 10
-0.293
 20
0.1875
 30
0.0
 11
-0.032
 21
0.1875
 31
0.0
  0
LINE
  5
34EA
100
AcDbEntity
  8
0
100
AcDbLine
 10
-0.383
 20
0.1
 30
0.0
 11
-0.318
 21
0.1
 31
0.0
  0
ARC
  5
34EB
100
AcDbEntity
  8
0
100
AcDbCircle
 10
-0.383
 20
0.075
 30
0.0
 40
0.025
100
AcDbArc
 50
90.0
 51
180.0
  0
ARC
  5
34EC
100
AcDbEntity
  8
0
100
AcDbCircle
 10
-0.293
 20
0.1625
 30
0.0
 40
0.025
100
AcDbArc
 50
90.0
 51
180.0
  0
CIRCLE
  5
34ED
100
AcDbEntity
  8
0
100
AcDbCircle
 10
0.29
 20
0.0
 30
0.0
 40
0.04
  0
LINE
  5
34EE
100
AcDbEntity
  8
0
100
AcDbLine
 10
0.0
 20
-0.24475
 30
0.0
 11
0.0
 21
0.24475
 31
0.0
  0
LINE
  5
34EF
100
AcDbEntity
  8
0
100
AcDbLine
 10
0.045
 20
-0.24475
 30
0.0
 11
0.045
 21
0.24475
 31
0.0
  0
LINE
  5
34F0
100
AcDbEntity
  8
0
100
AcDbLine
 10
0.465
 20
-0.18775
 30
0.0
 11
0.465
 21
0.18775
 31
0.0
  0
LINE
  5
34F1
100
AcDbEntity
  8
0
100
AcDbLine
 10
0.465
 20
-0.18775
 30
0.0
 11
0.045
 21
-0.18775
 31
0.0
  0
LINE
  5
34F2
100
AcDbEntity
  8
0
100
AcDbLine
 10
0.0
 20
-0.24475
 30
0.0
 11
0.045
 21
-0.24475
 31
0.0
  0
LINE
  5
34F3
100
AcDbEntity
  8
0
100
AcDbLine
 10
0.465
 20
0.18775
 30
0.0
 11
0.045
 21
0.18775
 31
0.0
  0
LINE
  5
34F4
100
AcDbEntity
  8
0
100
AcDbLine
 10
0.0
 20
0.24475
 30
0.0
 11
0.045
 21
0.24475
 31
0.0
  0
ENDBLK
  5
34F6
100
AcDbEntity
  8
0
100
AcDbBlockEnd
  0
BLOCK
  5
3511
100
AcDbEntity
  8
0
100
AcDbBlockBegin
  2
TOGGLE-SIDE
 70
     0
 10
0.0
 20
0.0
 30
0.0
  3
TOGGLE-SIDE
  1

  0
LINE
  5
34F8
100
AcDbEntity
  8
DIM1
100
AcDbLine
 10
-0.22
 20
0.051214
 30
0.0
 11
-0.543212
 21
-0.02044
 31
0.0
  0
LINE
  5
34F9
100
AcDbEntity
  8
DIM1
100
AcDbLine
 10
-0.22
 20
-0.051214
 30
0.0
 11
-0.521568
 21
-0.11807
 31
0.0
  0
LWPOLYLINE
  5
34FA
100
AcDbEntity
  8
DIM1
100
AcDbPolyline
 90
        4
 70
     1
 43
0.0
 10
0.0
 20
-0.16
 10
0.0
 20
0.16
 10
0.34
 20
0.16
 10
0.34
 20
-0.16
  0
LWPOLYLINE
  5
34FB
100
AcDbEntity
  8
DIM1
100
AcDbPolyline
 90
        4
 70
     1
 43
0.0
 10
-0.22
 20
-0.0875
 10
-0.22
 20
0.0875
 10
0.0
 20
0.0875
 10
0.0
 20
-0.0875
  0
LINE
  5
34FC
100
AcDbEntity
  8
DIM1
100
AcDbLine
 10
-0.22
 20
0.0875
 30
0.0
 11
-0.203719
 21
-0.0875
 31
0.0
  0
LINE
  5
34FD
100
AcDbEntity
  8
DIM1
100
AcDbLine
 10
-0.2
 20
0.0875
 30
0.0
 11
-0.183719
 21
-0.0875
 31
0.0
  0
LINE
  5
34FE
100
AcDbEntity
  8
DIM1
100
AcDbLine
 10
-0.14
 20
0.0875
 30
0.0
 11
-0.123719
 21
-0.0875
 31
0.0
  0
LINE
  5
34FF
100
AcDbEntity
  8
DIM1
100
AcDbLine
 10
-0.12
 20
0.0875
 30
0.0
 11
-0.103719
 21
-0.0875
 31
0.0
  0
LINE
  5
3500
100
AcDbEntity
  8
DIM1
100
AcDbLine
 10
-0.1
 20
0.0875
 30
0.0
 11
-0.083719
 21
-0.0875
 31
0.0
  0
LINE
  5
3501
100
AcDbEntity
  8
DIM1
100
AcDbLine
 10
-0.08
 20
0.0875
 30
0.0
 11
-0.063719
 21
-0.0875
 31
0.0
  0
LINE
  5
3502
100
AcDbEntity
  8
DIM1
100
AcDbLine
 10
-0.06
 20
0.0875
 30
0.0
 11
-0.043719
 21
-0.0875
 31
0.0
  0
LINE
  5
3503
100
AcDbEntity
  8
DIM1
100
AcDbLine
 10
-0.04
 20
0.0875
 30
0.0
 11
-0.023719
 21
-0.0875
 31
0.0
  0
LINE
  5
3504
100
AcDbEntity
  8
DIM1
100
AcDbLine
 10
-0.02
 20
0.0875
 30
0.0
 11
-0.003719
 21
-0.0875
 31
0.0
  0
LINE
  5
3505
100
AcDbEntity
  8
DIM1
100
AcDbLine
 10
-0.18
 20
0.0875
 30
0.0
 11
-0.163719
 21
-0.0875
 31
0.0
  0
LINE
  5
3506
100
AcDbEntity
  8
DIM1
100
AcDbLine
 10
-0.16
 20
0.0875
 30
0.0
 11
-0.143719
 21
-0.0875
 31
0.0
  0
LINE
  5
3507
100
AcDbEntity
  8
DIM1
100
AcDbLine
 10
0.47
 20
0.015
 30
0.0
 11
0.47
 21
-0.015
 31
0.0
  0
LINE
  5
3508
100
AcDbEntity
  8
DIM1
100
AcDbLine
 10
0.34
 20
-0.085
 30
0.0
 11
0.47
 21
-0.085
 31
0.0
  0
LINE
  5
3509
100
AcDbEntity
  8
DIM1
100
AcDbLine
 10
0.34
 20
-0.115
 30
0.0
 11
0.47
 21
-0.115
 31
0.0
  0
LINE
  5
350A
100
AcDbEntity
  8
DIM1
100
AcDbLine
 10
0.47
 20
-0.085
 30
0.0
 11
0.47
 21
-0.115
 31
0.0
  0
LINE
  5
350B
100
AcDbEntity
  8
DIM1
100
AcDbLine
 10
0.34
 20
-0.015
 30
0.0
 11
0.47
 21
-0.015
 31
0.0
  0
LINE
  5
350C
100
AcDbEntity
  8
DIM1
100
AcDbLine
 10
0.34
 20
0.115
 30
0.0
 11
0.47
 21
0.115
 31
0.0
  0
LINE
  5
350D
100
AcDbEntity
  8
DIM1
100
AcDbLine
 10
0.34
 20
0.085
 30
0.0
 11
0.47
 21
0.085
 31
0.0
  0
LINE
  5
350E
100
AcDbEntity
  8
DIM1
100
AcDbLine
 10
0.47
 20
0.115
 30
0.0
 11
0.47
 21
0.085
 31
0.0
  0
LINE
  5
350F
100
AcDbEntity
  8
DIM1
100
AcDbLine
 10
0.34
 20
0.015
 30
0.0
 11
0.47
 21
0.015
 31
0.0
  0
ARC
  5
3510
100
AcDbEntity
  8
DIM1
100
AcDbCircle
 10
-0.530835
 20
-0.06891
 30
0.0
 40
0.050025
100
AcDbArc
 50
104.324647
 51
280.675353
  0
ENDBLK
  5
3512
100
AcDbEntity
  8
0
100
AcDbBlockEnd
  0
BLOCK
  5
351F
100
AcDbEntity
  8
0
100
AcDbBlockBegin
  2
BNC
 70
     0
 10
0.0
 20
0.0
 30
0.0
  3
BNC
  1

  0
CIRCLE
  5
3514
100
AcDbEntity
  8
0
100
AcDbCircle
 10
0.0
 20
0.0
 30
0.0
 40
0.2445
  0
CIRCLE
  5
3515
100
AcDbEntity
  8
0
100
AcDbCircle
 10
0.0
 20
0.0
 30
0.0
 40
0.16925
  0
CIRCLE
  5
3516
100
AcDbEntity
  8
0
100
AcDbCircle
 10
0.0
 20
0.0
 30
0.0
 40
0.18925
  0
CIRCLE
  5
3517
100
AcDbEntity
  8
0
100
AcDbCircle
 10
0.0
 20
0.0
 30
0.0
 40
0.0875
  0
CIRCLE
  5
3518
100
AcDbEntity
  8
0
100
AcDbCircle
 10
0.0
 20
0.0
 30
0.0
 40
0.0335
  0
ARC
  5
3519
100
AcDbEntity
  8
0
100
AcDbCircle
 10
0.0
 20
0.0
 30
0.0
 40
0.2175
100
AcDbArc
 50
169.804264
 51
190.195736
  0
LINE
  5
351A
100
AcDbEntity
  8
0
100
AcDbLine
 10
-0.214065
 20
-0.0385
 30
0.0
 11
-0.185293
 21
-0.0385
 31
0.0
  0
LINE
  5
351B
100
AcDbEntity
  8
0
100
AcDbLine
 10
-0.214065
 20
0.0385
 30
0.0
 11
-0.185293
 21
0.0385
 31
0.0
  0
ARC
  5
351C
100
AcDbEntity
  8
0
100
AcDbCircle
 10
0.0
 20
0.0
 30
0.0
 40
0.2175
100
AcDbArc
 50
349.804264
 51
10.195736
  0
LINE
  5
351D
100
AcDbEntity
  8
0
100
AcDbLine
 10
0.185293
 20
-0.0385
 30
0.0
 11
0.214065
 21
-0.0385
 31
0.0
  0
LINE
  5
351E
100
AcDbEntity
  8
0
100
AcDbLine
 10
0.185293
 20
0.0385
 30
0.0
 11
0.214065
 21
0.0385
 31
0.0
  0
ENDBLK
  5
3520
100
AcDbEntity
  8
0
100
AcDbBlockEnd
  0
BLOCK
  5
3585
100
AcDbEntity
  8
0
100
AcDbBlockBegin
  2
LOGO
 70
     0
 10
0.0
 20
0.0
 30
0.0
  3
LOGO
  1

  0
SOLID
  5
3522
100
AcDbEntity
  8
0
100
AcDbTrace
 10
0.3969
 20
0.168869
 30
0.34938
 11
0.283625
 21
0.168869
 31
0.34938
 12
0.3969
 22
0.122467
 32
0.34938
 13
0.283625
 23
0.122467
 33
0.34938
  0
SOLID
  5
3523
100
AcDbEntity
  8
0
100
AcDbTrace
 10
-0.000246
 20
0.275321
 30
0.34938
 11
0.229034
 21
0.275321
 31
0.34938
 12
-0.000246
 22
0.230284
 32
0.34938
 13
0.229034
 23
0.230284
 33
0.34938
  0
SOLID
  5
3524
100
AcDbEntity
  8
0
100
AcDbTrace
 10
0.229034
 20
0.275321
 30
0.34938
 11
0.283625
 21
0.275321
 31
0.34938
 12
0.229034
 22
0.002368
 32
0.34938
 13
0.283625
 23
0.002368
 33
0.34938
  0
SOLID
  5
3525
100
AcDbEntity
  8
0
100
AcDbTrace
 10
0.087099
 20
0.002368
 30
0.34938
 11
0.141689
 21
0.002368
 31
0.34938
 12
0.087099
 22
0.230284
 32
0.34938
 13
0.141689
 23
0.230284
 33
0.34938
  0
LWPOLYLINE
  5
3526
100
AcDbEntity
  8
0
100
AcDbPolyline
 90
        7
 70
     0
 43
0.0
 38
0.34938
 10
1.654341
 20
0.173622
 42
0.001957
 10
1.732505
 20
0.157697
 42
-0.213696
 10
1.785667
 20
0.120541
 42
-0.207559
 10
1.793018
 20
0.06449
 42
-0.231198
 10
1.741309
 20
0.007092
 42
-0.176336
 10
1.633376
 20
0.003421
 42
-0.211591
 10
1.575984
 20
0.055002
  0
LWPOLYLINE
  5
3527
100
AcDbEntity
  8
0
100
AcDbPolyline
 90
       14
 70
     0
 43
0.0
 38
0.34938
 10
1.5793
 20
0.084397
 10
1.623066
 20
0.084397
 42
0.302044
 10
1.651056
 20
0.043161
 42
0.26537
 10
1.726099
 20
0.053047
 42
0.635606
 10
1.713987
 20
0.109502
 42
-0.000944
 10
1.624514
 20
0.130353
 42
-0.344245
 10
1.571718
 20
0.196061
 42
-0.322222
 10
1.625865
 20
0.273592
 42
-0.141736
 10
1.718419
 20
0.278792
 42
-0.333774
 10
1.784829
 20
0.200112
 10
1.730856
 20
0.200112
 42
0.301979
 10
1.705072
 20
0.235944
 42
0.197288
 10
1.647834
 20
0.23428
 42
0.728374
 10
1.654341
 20
0.173622
 42
0.001957
  0
LINE
  5
3528
100
AcDbEntity
  8
0
100
AcDbLine
 10
0.990573
 20
0.275321
 30
0.34938
 11
0.933253
 21
0.275321
 31
0.34938
  0
LINE
  5
3529
100
AcDbEntity
  8
0
100
AcDbLine
 10
0.933253
 20
0.002368
 30
0.34938
 11
1.12705
 21
0.002368
 31
0.34938
  0
SOLID
  5
352A
100
AcDbEntity
  8
0
100
AcDbTrace
 10
0.581308
 20
0.001222
 30
0.34938
 11
0.581308
 21
0.03571
 31
0.34938
 12
0.652536
 22
0.025747
 32
0.34938
 13
0.633389
 23
0.051805
 33
0.34938
  0
LWPOLYLINE
  5
352B
100
AcDbEntity
  8
0
100
AcDbPolyline
 90
        2
 70
     0
 43
0.010918
 38
0.34938
 10
0.463009
 20
0.092598
 42
0.761639
 10
0.700334
 20
0.095097
 42
0.761639
  0
LWPOLYLINE
  5
352C
100
AcDbEntity
  8
0
100
AcDbPolyline
 90
        2
 70
     0
 43
0.010918
 38
0.34938
 10
0.698301
 20
0.191392
 42
0.741471
 10
0.463464
 20
0.190005
 42
0.741471
  0
LWPOLYLINE
  5
352D
100
AcDbEntity
  8
0
100
AcDbPolyline
 90
        4
 70
     1
 43
0.010918
 38
0.34938
 10
0.514044
 20
0.199799
 42
0.228527
 10
0.515319
 20
0.075867
 42
0.623004
 10
0.64663
 20
0.076281
 42
0.229006
 10
0.647011
 20
0.20034
 42
0.632312
  0
SOLID
  5
352E
100
AcDbEntity
  8
0
100
AcDbTrace
 10
0.684704
 20
0.227311
 30
0.34938
 11
0.644111
 21
0.208151
 31
0.34938
 12
0.630325
 22
0.27023
 32
0.34938
 13
0.616539
 23
0.231143
 33
0.34938
  0
SOLID
  5
352F
100
AcDbEntity
  8
0
100
AcDbTrace
 10
0.652536
 20
0.025747
 30
0.34938
 11
0.633389
 21
0.051805
 31
0.34938
 12
0.690831
 22
0.068666
 32
0.34938
 13
0.658663
 23
0.102387
 33
0.34938
  0
SOLID
  5
3530
100
AcDbEntity
  8
0
100
AcDbTrace
 10
0.630325
 20
0.27023
 30
0.34938
 11
0.616539
 21
0.231143
 31
0.34938
 12
0.580302
 22
0.280859
 32
0.34938
 13
0.579149
 23
0.24163
 33
0.34938
  0
SOLID
  5
3531
100
AcDbEntity
  8
0
100
AcDbTrace
 10
0.470766
 20
0.21394
 30
0.34938
 11
0.509968
 21
0.186249
 31
0.34938
 12
0.454935
 22
0.138408
 32
0.34938
 13
0.499357
 23
0.134576
 33
0.34938
  0
SOLID
  5
3532
100
AcDbEntity
  8
0
100
AcDbTrace
 10
0.507662
 20
0.255476
 30
0.34938
 11
0.528417
 21
0.224324
 31
0.34938
 12
0.470766
 22
0.21394
 32
0.34938
 13
0.509968
 23
0.186249
 33
0.34938
  0
SOLID
  5
3533
100
AcDbEntity
  8
0
100
AcDbTrace
 10
0.474849
 20
0.060235
 30
0.34938
 11
0.513909
 21
0.074797
 31
0.34938
 12
0.532291
 22
0.010419
 32
0.34938
 13
0.552204
 23
0.038776
 33
0.34938
  0
SOLID
  5
3534
100
AcDbEntity
  8
0
100
AcDbTrace
 10
0.3969
 20
0.275321
 30
0.34938
 11
0.451491
 21
0.275321
 31
0.34938
 12
0.3969
 22
0.002368
 32
0.34938
 13
0.451491
 23
0.002368
 33
0.34938
  0
SOLID
  5
3535
100
AcDbEntity
  8
0
100
AcDbTrace
 10
0.454935
 20
0.138408
 30
0.34938
 11
0.499357
 21
0.134576
 31
0.34938
 12
0.474849
 22
0.060235
 32
0.34938
 13
0.513909
 23
0.074797
 33
0.34938
  0
LWPOLYLINE
  5
3536
100
AcDbEntity
  8
0
100
AcDbPolyline
 90
        2
 70
     0
 43
0.010918
 38
0.34938
 10
0.463464
 20
0.190005
 42
0.143054
 10
0.463009
 20
0.092598
 42
0.143054
  0
SOLID
  5
3537
100
AcDbEntity
  8
0
100
AcDbTrace
 10
0.532291
 20
0.010419
 30
0.34938
 11
0.552204
 21
0.038776
 31
0.34938
 12
0.581308
 22
0.001222
 32
0.34938
 13
0.581308
 23
0.03571
 33
0.34938
  0
SOLID
  5
3538
100
AcDbEntity
  8
0
100
AcDbTrace
 10
0.580302
 20
0.280859
 30
0.34938
 11
0.579149
 21
0.24163
 31
0.34938
 12
0.507662
 22
0.255476
 32
0.34938
 13
0.528417
 23
0.224324
 33
0.34938
  0
SOLID
  5
3539
100
AcDbEntity
  8
0
100
AcDbTrace
 10
0.876074
 20
0.009958
 30
0.34938
 11
0.926705
 21
0.015279
 31
0.34938
 12
0.874125
 22
0.016303
 32
0.34938
 13
0.927759
 23
0.020455
 33
0.34938
  0
SOLID
  5
353A
100
AcDbEntity
  8
0
100
AcDbTrace
 10
0.878652
 20
0.002368
 30
0.34938
 11
0.934928
 21
0.002368
 31
0.34938
 12
0.876074
 22
0.009958
 32
0.34938
 13
0.926705
 23
0.015279
 33
0.34938
  0
SOLID
  5
353B
100
AcDbEntity
  8
0
100
AcDbTrace
 10
0.878499
 20
0.216933
 30
0.34938
 11
0.920883
 21
0.238987
 31
0.34938
 12
0.85985
 22
0.236725
 32
0.34938
 13
0.879064
 23
0.267827
 33
0.34938
  0
SOLID
  5
353C
100
AcDbEntity
  8
0
100
AcDbTrace
 10
0.88415
 20
0.194313
 30
0.34938
 11
0.926534
 21
0.180741
 31
0.34938
 12
0.878499
 22
0.216933
 32
0.34938
 13
0.920883
 23
0.238987
 33
0.34938
  0
SOLID
  5
353D
100
AcDbEntity
  8
0
100
AcDbTrace
 10
0.865126
 20
0.151636
 30
0.34938
 11
0.885986
 21
0.141911
 31
0.34938
 12
0.88415
 22
0.194313
 32
0.34938
 13
0.926534
 23
0.180741
 33
0.34938
  0
SOLID
  5
353E
100
AcDbEntity
  8
0
100
AcDbTrace
 10
0.871006
 20
0.081775
 30
0.34938
 11
0.915289
 21
0.097284
 31
0.34938
 12
0.858459
 22
0.098762
 32
0.34938
 13
0.887981
 23
0.119441
 33
0.34938
  0
SOLID
  5
353F
100
AcDbEntity
  8
0
100
AcDbTrace
 10
0.869912
 20
0.065481
 30
0.34938
 11
0.921776
 21
0.081179
 31
0.34938
 12
0.871006
 22
0.081775
 32
0.34938
 13
0.915289
 23
0.097284
 33
0.34938
  0
SOLID
  5
3540
100
AcDbEntity
  8
0
100
AcDbTrace
 10
0.869912
 20
0.065481
 30
0.34938
 11
0.874125
 21
0.016303
 31
0.34938
 12
0.921776
 22
0.081179
 32
0.34938
 13
0.927759
 23
0.020455
 33
0.34938
  0
LWPOLYLINE
  5
3541
100
AcDbEntity
  8
0
100
AcDbPolyline
 90
        2
 70
     0
 43
0.010918
 38
0.34938
 10
0.916343
 20
0.080643
 42
0.358135
 10
0.869897
 20
0.127031
 42
0.358135
  0
LWPOLYLINE
  5
3542
100
AcDbEntity
  8
0
100
AcDbPolyline
 90
        2
 70
     0
 43
0.010918
 38
0.34938
 10
0.869751
 20
0.137882
 42
0.939934
 10
0.861571
 20
0.269862
 42
0.939934
  0
SOLID
  5
3543
100
AcDbEntity
  8
0
100
AcDbTrace
 10
0.865126
 20
0.151636
 30
0.34938
 11
0.885986
 21
0.141911
 31
0.34938
 12
0.836424
 22
0.152601
 32
0.34938
 13
0.870426
 23
0.132465
 33
0.34938
  0
SOLID
  5
3544
100
AcDbEntity
  8
0
100
AcDbTrace
 10
0.85985
 20
0.236725
 30
0.34938
 11
0.879064
 21
0.267827
 31
0.34938
 12
0.836424
 22
0.233709
 32
0.34938
 13
0.861571
 23
0.275321
 33
0.34938
  0
SOLID
  5
3545
100
AcDbEntity
  8
0
100
AcDbTrace
 10
0.843648
 20
0.113502
 30
0.34938
 11
0.870426
 21
0.132465
 31
0.34938
 12
0.819831
 22
0.111455
 32
0.34938
 13
0.836424
 23
0.152601
 33
0.34938
  0
SOLID
  5
3546
100
AcDbEntity
  8
0
100
AcDbTrace
 10
0.858459
 20
0.098762
 30
0.34938
 11
0.887981
 21
0.119441
 31
0.34938
 12
0.843648
 22
0.113502
 32
0.34938
 13
0.870426
 23
0.132465
 33
0.34938
  0
SOLID
  5
3547
100
AcDbEntity
  8
0
100
AcDbTrace
 10
0.766667
 20
0.152601
 30
0.34938
 11
0.766667
 21
0.111455
 31
0.34938
 12
0.836424
 22
0.152601
 32
0.34938
 13
0.819831
 23
0.111455
 33
0.34938
  0
SOLID
  5
3548
100
AcDbEntity
  8
0
100
AcDbTrace
 10
0.766667
 20
0.233709
 30
0.34938
 11
0.766667
 21
0.269374
 31
0.34938
 12
0.836424
 22
0.233709
 32
0.34938
 13
0.861571
 23
0.275321
 33
0.34938
  0
LWPOLYLINE
  5
3549
100
AcDbEntity
  8
0
100
AcDbPolyline
 90
        2
 70
     0
 43
0.010918
 38
0.34938
 10
0.836424
 20
0.147142
 42
1.0
 10
0.836424
 20
0.239168
 42
1.0
  0
SOLID
  5
354A
100
AcDbEntity
  8
0
100
AcDbTrace
 10
0.70768
 20
0.149904
 30
0.34938
 11
0.660195
 21
0.154503
 31
0.34938
 12
0.684704
 22
0.227311
 32
0.34938
 13
0.644111
 23
0.208151
 33
0.34938
  0
LWPOLYLINE
  5
354B
100
AcDbEntity
  8
0
100
AcDbPolyline
 90
        2
 70
     0
 43
0.010918
 38
0.34938
 10
0.861571
 20
0.269862
 10
0.710907
 20
0.269862
  0
LWPOLYLINE
  5
354C
100
AcDbEntity
  8
0
100
AcDbPolyline
 90
        2
 70
     0
 43
0.010918
 38
0.34938
 10
0.879564
 20
0.016769
 42
0.114836
 10
0.883327
 20
0.005188
 42
0.114836
  0
SOLID
  5
354D
100
AcDbEntity
  8
0
100
AcDbTrace
 10
0.690831
 20
0.068666
 30
0.34938
 11
0.658663
 21
0.102387
 31
0.34938
 12
0.70768
 22
0.149904
 32
0.34938
 13
0.660195
 23
0.154503
 33
0.34938
  0
LWPOLYLINE
  5
354E
100
AcDbEntity
  8
0
100
AcDbPolyline
 90
        2
 70
     0
 43
0.010918
 38
0.34938
 10
0.700334
 20
0.095097
 42
0.140695
 10
0.698301
 20
0.191392
 42
0.140695
  0
LWPOLYLINE
  5
354F
100
AcDbEntity
  8
0
100
AcDbPolyline
 90
        2
 70
     0
 43
0.010918
 38
0.34938
 10
0.875351
 20
0.065947
 42
0.389398
 10
0.819831
 20
0.116914
 42
0.389398
  0
SOLID
  5
3550
100
AcDbEntity
  8
0
100
AcDbTrace
 10
0.710907
 20
0.002368
 30
0.34938
 11
0.710907
 21
0.275321
 31
0.34938
 12
0.766667
 22
0.002368
 32
0.34938
 13
0.766667
 23
0.269374
 33
0.34938
  0
LWPOLYLINE
  5
3551
100
AcDbEntity
  8
0
100
AcDbPolyline
 90
        2
 70
     0
 43
0.010918
 38
0.34938
 10
0.922326
 20
0.019919
 42
0.095067
 10
0.926686
 20
0.005189
 42
0.140492
  0
LINE
  5
3552
100
AcDbEntity
  8
0
100
AcDbLine
 10
0.933253
 20
0.275321
 30
0.34938
 11
0.933253
 21
0.002368
 31
0.34938
  0
LWPOLYLINE
  5
3553
100
AcDbEntity
  8
0
100
AcDbPolyline
 90
        4
 70
     0
 43
0.0
 38
0.34938
 10
1.124416
 20
0.04877
 10
1.204842
 20
0.275321
 10
1.266256
 20
0.275321
 10
1.356301
 20
0.021673
  0
LWPOLYLINE
  5
3554
100
AcDbEntity
  8
0
100
AcDbPolyline
 90
        4
 70
     0
 43
0.0
 38
0.34938
 10
1.287756
 20
0.061053
 10
1.183342
 20
0.061053
 10
1.165263
 20
0.002368
 10
1.107943
 20
0.002368
  0
LINE
  5
3555
100
AcDbEntity
  8
0
100
AcDbLine
 10
1.195955
 20
0.101996
 30
0.34938
 11
1.275143
 21
0.101996
 31
0.34938
  0
LINE
  5
3556
100
AcDbEntity
  8
0
100
AcDbLine
 10
1.275143
 20
0.101996
 30
0.34938
 11
1.235549
 21
0.230521
 31
0.34938
  0
LINE
  5
3557
100
AcDbEntity
  8
0
100
AcDbLine
 10
1.235549
 20
0.230521
 30
0.34938
 11
1.195955
 21
0.101996
 31
0.34938
  0
LINE
  5
3558
100
AcDbEntity
  8
0
100
AcDbLine
 10
1.124416
 20
0.04877
 30
0.34938
 11
0.990573
 21
0.04877
 31
0.34938
  0
LINE
  5
3559
100
AcDbEntity
  8
0
100
AcDbLine
 10
0.990573
 20
0.04877
 30
0.34938
 11
0.990573
 21
0.275321
 31
0.34938
  0
ARC
  5
355A
100
AcDbEntity
  8
0
100
AcDbCircle
 10
1.47913
 20
0.249391
 30
0.34938
 40
0.111232
100
AcDbArc
 50
295.378395
 51
313.157563
  0
ARC
  5
355B
100
AcDbEntity
  8
0
100
AcDbCircle
 10
1.488851
 20
0.058557
 30
0.34938
 40
0.097985
100
AcDbArc
 50
41.821431
 51
67.21117
  0
ARC
  5
355C
100
AcDbEntity
  8
0
100
AcDbCircle
 10
1.483826
 20
0.163076
 30
0.34938
 40
0.112245
100
AcDbArc
 50
58.670206
 51
90.0
  0
ARC
  5
355D
100
AcDbEntity
  8
0
100
AcDbCircle
 10
1.488684
 20
0.118086
 30
0.34938
 40
0.115718
100
AcDbArc
 50
270.0
 51
297.452648
  0
LINE
  5
355E
100
AcDbEntity
  8
0
100
AcDbLine
 10
1.479912
 20
0.234378
 30
0.34938
 11
1.410892
 21
0.234378
 31
0.34938
  0
LINE
  5
355F
100
AcDbEntity
  8
0
100
AcDbLine
 10
1.410892
 20
0.234378
 30
0.34938
 11
1.410892
 21
0.16614
 31
0.34938
  0
LINE
  5
3560
100
AcDbEntity
  8
0
100
AcDbLine
 10
1.410892
 20
0.16614
 30
0.34938
 11
1.479912
 21
0.16614
 31
0.34938
  0
ARC
  5
3561
100
AcDbEntity
  8
0
100
AcDbCircle
 10
1.479912
 20
0.200259
 30
0.34938
 40
0.034119
100
AcDbArc
 50
270.0
 51
90.000005
  0
LINE
  5
3562
100
AcDbEntity
  8
0
100
AcDbLine
 10
1.483439
 20
0.123832
 30
0.34938
 11
1.410892
 21
0.123832
 31
0.34938
  0
LINE
  5
3563
100
AcDbEntity
  8
0
100
AcDbLine
 10
1.483826
 20
0.275321
 30
0.34938
 11
1.356301
 21
0.275321
 31
0.34938
  0
LINE
  5
3564
100
AcDbEntity
  8
0
100
AcDbLine
 10
1.410892
 20
0.044676
 30
0.34938
 11
1.476401
 21
0.044676
 31
0.34938
  0
ARC
  5
3565
100
AcDbEntity
  8
0
100
AcDbCircle
 10
1.476401
 20
0.093136
 30
0.34938
 40
0.04846
100
AcDbArc
 50
270.0
 51
313.227508
  0
LWPOLYLINE
  5
3566
100
AcDbEntity
  8
0
100
AcDbPolyline
 90
        3
 70
     0
 43
0.0
 38
0.34938
 10
1.363154
 20
0.002368
 10
1.305834
 20
0.002368
 10
1.287756
 20
0.061053
  0
LINE
  5
3567
100
AcDbEntity
  8
0
100
AcDbLine
 10
1.356301
 20
0.002368
 30
0.34938
 11
1.488684
 21
0.002368
 31
0.34938
  0
LINE
  5
3568
100
AcDbEntity
  8
0
100
AcDbLine
 10
1.356301
 20
0.275321
 30
0.34938
 11
1.356301
 21
0.021673
 31
0.34938
  0
LINE
  5
3569
100
AcDbEntity
  8
0
100
AcDbLine
 10
1.410892
 20
0.123832
 30
0.34938
 11
1.410892
 21
0.044676
 31
0.34938
  0
ARC
  5
356A
100
AcDbEntity
  8
0
100
AcDbCircle
 10
1.483439
 20
0.085648
 30
0.34938
 40
0.038184
100
AcDbArc
 50
313.227508
 51
90.0
  0
ARC
  5
356B
100
AcDbEntity
  8
0
100
AcDbCircle
 10
1.509849
 20
0.077346
 30
0.34938
 40
0.069808
100
AcDbArc
 50
5.797667
 51
41.821431
  0
ARC
  5
356C
100
AcDbEntity
  8
0
100
AcDbCircle
 10
1.510244
 20
0.206477
 30
0.34938
 40
0.061436
100
AcDbArc
 50
358.653261
 51
58.670206
  0
ARC
  5
356D
100
AcDbEntity
  8
0
100
AcDbCircle
 10
1.519575
 20
0.206257
 30
0.34938
 40
0.052103
100
AcDbArc
 50
313.157563
 51
358.653261
  0
ARC
  5
356E
100
AcDbEntity
  8
0
100
AcDbCircle
 10
1.509849
 20
0.077346
 30
0.34938
 40
0.069808
100
AcDbArc
 50
297.452648
 51
341.332312
  0
LWPOLYLINE
  5
356F
100
AcDbEntity
  8
0
100
AcDbPolyline
 90
        6
 70
     0
 43
0.005136
 38
0.34938
 10
1.875604
 20
0.25848
 42
0.342627
 10
1.850842
 20
0.232147
 42
0.294281
 10
1.868487
 20
0.198078
 42
0.273538
 10
1.932709
 20
0.198947
 42
0.20817
 10
1.949032
 20
0.222163
 42
0.418985
 10
1.923866
 20
0.25965
 42
0.418985
  0
SOLID
  5
3570
100
AcDbEntity
  8
0
100
AcDbTrace
 10
1.836454
 20
0.072473
 30
0.34938
 11
1.964849
 21
0.153314
 31
0.34938
 12
1.836464
 22
0.046743
 32
0.34938
 13
1.964852
 23
0.1264
 33
0.34938
  0
SOLID
  5
3571
100
AcDbEntity
  8
0
100
AcDbTrace
 10
1.836454
 20
0.154005
 30
0.34938
 11
1.964852
 21
0.154005
 31
0.34938
 12
1.836454
 22
0.127042
 32
0.34938
 13
1.964852
 23
0.127042
 33
0.34938
  0
SOLID
  5
3572
100
AcDbEntity
  8
0
100
AcDbTrace
 10
1.964852
 20
0.044868
 30
0.34938
 11
1.836454
 21
0.044868
 31
0.34938
 12
1.964852
 22
0.071831
 32
0.34938
 13
1.836454
 23
0.071831
 33
0.34938
  0
SOLID
  5
3573
100
AcDbEntity
  8
0
100
AcDbTrace
 10
1.836454
 20
-0.004565
 30
0.34938
 11
1.836454
 21
0.022398
 31
0.34938
 12
1.964852
 22
-0.004565
 32
0.34938
 13
1.964852
 23
0.022398
 33
0.34938
  0
SOLID
  5
3574
100
AcDbEntity
  8
0
100
AcDbTrace
 10
1.878119
 20
0.192202
 30
0.34938
 11
1.864941
 21
0.176447
 31
0.34938
 12
1.904474
 22
0.190086
 32
0.34938
 13
1.905886
 23
0.168216
 33
0.34938
  0
LWPOLYLINE
  5
3575
100
AcDbEntity
  8
0
100
AcDbPolyline
 90
        2
 70
     0
 43
0.005136
 38
0.34938
 10
1.872741
 20
0.174151
 42
0.270661
 10
1.945662
 20
0.185515
 42
0.270661
  0
LWPOLYLINE
  5
3576
100
AcDbEntity
  8
0
100
AcDbPolyline
 90
        2
 70
     0
 43
0.005136
 38
0.34938
 10
1.875529
 20
0.278407
 42
0.284121
 10
1.838437
 20
0.247379
 42
0.288845
  0
SOLID
  5
3577
100
AcDbEntity
  8
0
100
AcDbTrace
 10
1.853646
 20
0.21172
 30
0.34938
 11
1.838115
 21
0.205371
 31
0.34938
 12
1.878119
 22
0.192202
 32
0.34938
 13
1.864941
 23
0.176447
 33
0.34938
  0
SOLID
  5
3578
100
AcDbEntity
  8
0
100
AcDbTrace
 10
1.851058
 20
0.238999
 30
0.34938
 11
1.836233
 21
0.245113
 31
0.34938
 12
1.853646
 22
0.21172
 32
0.34938
 13
1.838115
 23
0.205371
 33
0.34938
  0
SOLID
  5
3579
100
AcDbEntity
  8
0
100
AcDbTrace
 10
1.867059
 20
0.256165
 30
0.34938
 11
1.854117
 21
0.270275
 31
0.34938
 12
1.851058
 22
0.238999
 32
0.34938
 13
1.836233
 23
0.245113
 33
0.34938
  0
LWPOLYLINE
  5
357A
100
AcDbEntity
  8
0
100
AcDbPolyline
 90
        2
 70
     0
 43
0.005136
 38
0.34938
 10
1.838437
 20
0.247379
 42
0.398621
 10
1.872741
 20
0.174151
 42
0.398621
  0
SOLID
  5
357B
100
AcDbEntity
  8
0
100
AcDbTrace
 10
1.872479
 20
0.257553
 30
0.34938
 11
1.870809
 21
0.279779
 31
0.34938
 12
1.876003
 22
0.255943
 32
0.34938
 13
1.876003
 23
0.281062
 33
0.34938
  0
SOLID
  5
357C
100
AcDbEntity
  8
0
100
AcDbTrace
 10
1.867059
 20
0.256165
 30
0.34938
 11
1.854117
 21
0.270275
 31
0.34938
 12
1.872479
 22
0.257553
 32
0.34938
 13
1.870809
 23
0.279779
 33
0.34938
  0
SOLID
  5
357D
100
AcDbEntity
  8
0
100
AcDbTrace
 10
1.926919
 20
0.257989
 30
0.34938
 11
1.92965
 21
0.281568
 31
0.34938
 12
1.923391
 22
0.257126
 32
0.34938
 13
1.923391
 23
0.283097
 33
0.34938
  0
LWPOLYLINE
  5
357E
100
AcDbEntity
  8
0
100
AcDbPolyline
 90
        2
 70
     0
 43
0.005136
 38
0.34938
 10
1.960118
 20
0.253768
 42
0.261966
 10
1.923746
 20
0.280472
 42
0.265647
  0
SOLID
  5
357F
100
AcDbEntity
  8
0
100
AcDbTrace
 10
1.943043
 20
0.248492
 30
0.34938
 11
1.958902
 21
0.259144
 31
0.34938
 12
1.926919
 22
0.257989
 32
0.34938
 13
1.92965
 23
0.281568
 33
0.34938
  0
SOLID
  5
3580
100
AcDbEntity
  8
0
100
AcDbTrace
 10
1.949802
 20
0.226148
 30
0.34938
 11
1.966441
 21
0.217834
 31
0.34938
 12
1.943043
 22
0.248492
 32
0.34938
 13
1.958902
 23
0.259144
 33
0.34938
  0
SOLID
  5
3581
100
AcDbEntity
  8
0
100
AcDbTrace
 10
1.938623
 20
0.200947
 30
0.34938
 11
1.948242
 21
0.185098
 31
0.34938
 12
1.949802
 22
0.226148
 32
0.34938
 13
1.966441
 23
0.217834
 33
0.34938
  0
SOLID
  5
3582
100
AcDbEntity
  8
0
100
AcDbTrace
 10
1.904474
 20
0.190086
 30
0.34938
 11
1.905886
 21
0.168216
 31
0.34938
 12
1.938623
 22
0.200947
 32
0.34938
 13
1.948242
 23
0.185098
 33
0.34938
  0
LWPOLYLINE
  5
3583
100
AcDbEntity
  8
0
100
AcDbPolyline
 90
        2
 70
     0
 43
0.005136
 38
0.34938
 10
1.964592
 20
0.217581
 42
0.152191
 10
1.960118
 20
0.253768
 42
0.152191
  0
LWPOLYLINE
  5
3584
100
AcDbEntity
  8
0
100
AcDbPolyline
 90
        2
 70
     0
 43
0.005136
 38
0.34938
 10
1.945662
 20
0.185515
 42
0.179001
 10
1.964592
 20
0.217581
 42
0.179001
  0
ENDBLK
  5
3586
100
AcDbEntity
  8
0
100
AcDbBlockEnd
  0
BLOCK
  5
3595
100
AcDbEntity
  8
0
100
AcDbBlockBegin
  2
TOGGLE-TOP
 70
     0
 10
0.0
 20
0.0
 30
0.0
  3
TOGGLE-TOP
  1

  0
CIRCLE
  5
3588
100
AcDbEntity
  8
0
100
AcDbCircle
 10
0.0
 20
0.0
 30
0.0
 40
0.119852
  0
LINE
  5
3589
100
AcDbEntity
  8
0
100
AcDbLine
 10
-0.0775
 20
0.134234
 30
0.0
 11
-0.155
 21
0.0
 31
0.0
  0
LINE
  5
358A
100
AcDbEntity
  8
0
100
AcDbLine
 10
0.155
 20
0.0
 30
0.0
 11
0.0775
 21
0.134234
 31
0.0
  0
LINE
  5
358B
100
AcDbEntity
  8
0
100
AcDbLine
 10
-0.0775
 20
-0.134234
 30
0.0
 11
0.0775
 21
-0.134234
 31
0.0
  0
ARC
  5
358C
100
AcDbEntity
  8
0
100
AcDbCircle
 10
0.0
 20
0.0
 30
0.0
 40
0.092
100
AcDbArc
 50
297.825437
 51
242.174563
  0
ARC
  5
358D
100
AcDbEntity
  8
0
100
AcDbCircle
 10
0.0
 20
0.0
 30
0.0
 40
0.0625
100
AcDbArc
 50
318.755237
 51
221.244763
  0
ARC
  5
358E
100
AcDbEntity
  8
0
100
AcDbCircle
 10
0.0
 20
-0.057765
 30
0.0
 40
0.049
100
AcDbArc
 50
171.036583
 51
8.963417
  0
ARC
  5
358F
100
AcDbEntity
  8
0
100
AcDbCircle
 10
0.0
 20
0.0
 30
0.0
 40
0.04
100
AcDbArc
 50
8.963417
 51
171.036583
  0
LINE
  5
3590
100
AcDbEntity
  8
0
100
AcDbLine
 10
-0.155
 20
0.0
 30
0.0
 11
-0.0775
 21
-0.134234
 31
0.0
  0
LINE
  5
3591
100
AcDbEntity
  8
0
100
AcDbLine
 10
-0.048402
 20
-0.050131
 30
0.0
 11
-0.039512
 21
0.006232
 31
0.0
  0
LINE
  5
3592
100
AcDbEntity
  8
0
100
AcDbLine
 10
0.0775
 20
-0.134234
 30
0.0
 11
0.155
 21
0.0
 31
0.0
  0
LINE
  5
3593
100
AcDbEntity
  8
0
100
AcDbLine
 10
0.039512
 20
0.006232
 30
0.0
 11
0.048402
 21
-0.050131
 31
0.0
  0
LINE
  5
3594
100
AcDbEntity
  8
0
100
AcDbLine
 10
0.0775
 20
0.134234
 30
0.0
 11
-0.0775
 21
0.134234
 31
0.0
  0
ENDBLK
  5
3596
100
AcDbEntity
  8
0
100
AcDbBlockEnd
  0
BLOCK
  5
359B
100
AcDbEntity
  8
0
100
AcDbBlockBegin
  2
CE-MARK
 70
     0
 10
0.0
 20
0.0
 30
0.0
  3
CE-MARK
  1

  0
LWPOLYLINE
  5
3598
100
AcDbEntity
  8
0
100
AcDbPolyline
 90
        2
 70
     0
 43
0.04
 10
-0.036733
 20
0.083781
 42
1.0
 10
-0.036733
 20
-0.086219
 42
1.0
  0
LWPOLYLINE
  5
3599
100
AcDbEntity
  8
0
100
AcDbPolyline
 90
        2
 70
     0
 43
0.04
 10
0.029728
 20
-0.001189
 10
0.119728
 20
-0.001189
  0
LWPOLYLINE
  5
359A
100
AcDbEntity
  8
0
100
AcDbPolyline
 90
        2
 70
     0
 43
0.04
 10
0.133267
 20
0.083781
 42
1.0
 10
0.133267
 20
-0.086219
 42
1.0
  0
ENDBLK
  5
359C
100
AcDbEntity
  8
0
100
AcDbBlockEnd
  0
BLOCK
  5
35BF
100
AcDbEntity
  8
0
100
AcDbBlockBegin
  2
*X7
 70
     1
 10
0.0
 20
0.0
 30
0.0
  3
*X7
  1

  0
LINE
  5
359E
100
AcDbEntity
  8
0
 62
     0
100
AcDbLine
 10
8.994075
 20
12.466615
 30
0.0
 11
8.94787
 21
12.512821
 31
0.0
  0
LINE
  5
359F
100
AcDbEntity
  8
0
 62
     0
100
AcDbLine
 10
8.94787
 20
12.512821
 30
0.0
 11
8.931575
 21
12.529115
 31
0.0
  0
LINE
  5
35A0
100
AcDbEntity
  8
0
 62
     0
100
AcDbLine
 10
8.994075
 20
12.43126
 30
0.0
 11
8.931575
 21
12.49376
 31
0.0
  0
LINE
  5
35A1
100
AcDbEntity
  8
0
 62
     0
100
AcDbLine
 10
8.994075
 20
12.395905
 30
0.0
 11
8.931575
 21
12.458405
 31
0.0
  0
LINE
  5
35A2
100
AcDbEntity
  8
0
 62
     0
100
AcDbLine
 10
8.994075
 20
12.360549
 30
0.0
 11
8.931575
 21
12.423049
 31
0.0
  0
LINE
  5
35A3
100
AcDbEntity
  8
0
 62
     0
100
AcDbLine
 10
8.994075
 20
12.325194
 30
0.0
 11
8.931575
 21
12.387694
 31
0.0
  0
LINE
  5
35A4
100
AcDbEntity
  8
0
 62
     0
100
AcDbLine
 10
8.994075
 20
12.289839
 30
0.0
 11
8.931575
 21
12.352339
 31
0.0
  0
LINE
  5
35A5
100
AcDbEntity
  8
0
 62
     0
100
AcDbLine
 10
8.994075
 20
12.254483
 30
0.0
 11
8.931575
 21
12.316983
 31
0.0
  0
LINE
  5
35A6
100
AcDbEntity
  8
0
 62
     0
100
AcDbLine
 10
8.991883
 20
12.221321
 30
0.0
 11
8.931575
 21
12.281628
 31
0.0
  0
LINE
  5
35A7
100
AcDbEntity
  8
0
 62
     0
100
AcDbLine
 10
8.956527
 20
12.221321
 30
0.0
 11
8.931575
 21
12.246273
 31
0.0
  0
LINE
  5
35A8
100
AcDbEntity
  8
0
 62
     0
100
AcDbLine
 10
8.994075
 20
12.042351
 30
0.0
 11
8.990106
 21
12.046321
 31
0.0
  0
LINE
  5
35A9
100
AcDbEntity
  8
0
 62
     0
100
AcDbLine
 10
8.994075
 20
12.006996
 30
0.0
 11
8.954751
 21
12.046321
 31
0.0
  0
LINE
  5
35AA
100
AcDbEntity
  8
0
 62
     0
100
AcDbLine
 10
8.994075
 20
11.971641
 30
0.0
 11
8.931575
 21
12.034141
 31
0.0
  0
LINE
  5
35AB
100
AcDbEntity
  8
0
 62
     0
100
AcDbLine
 10
8.994075
 20
11.936285
 30
0.0
 11
8.931575
 21
11.998785
 31
0.0
  0
LINE
  5
35AC
100
AcDbEntity
  8
0
 62
     0
100
AcDbLine
 10
8.994075
 20
11.90093
 30
0.0
 11
8.931575
 21
11.96343
 31
0.0
  0
LINE
  5
35AD
100
AcDbEntity
  8
0
 62
     0
100
AcDbLine
 10
8.994075
 20
11.865575
 30
0.0
 11
8.931575
 21
11.928075
 31
0.0
  0
LINE
  5
35AE
100
AcDbEntity
  8
0
 62
     0
100
AcDbLine
 10
8.994075
 20
11.830219
 30
0.0
 11
8.931575
 21
11.892719
 31
0.0
  0
LINE
  5
35AF
100
AcDbEntity
  8
0
 62
     0
100
AcDbLine
 10
8.994075
 20
11.794864
 30
0.0
 11
8.931575
 21
11.857364
 31
0.0
  0
LINE
  5
35B0
100
AcDbEntity
  8
0
 62
     0
100
AcDbLine
 10
8.990763
 20
11.762821
 30
0.0
 11
8.931575
 21
11.822009
 31
0.0
  0
LINE
  5
35B1
100
AcDbEntity
  8
0
 62
     0
100
AcDbLine
 10
8.955408
 20
11.762821
 30
0.0
 11
8.931575
 21
11.786653
 31
0.0
  0
LINE
  5
35B2
100
AcDbEntity
  8
0
 62
     0
100
AcDbLine
 10
8.994075
 20
12.501971
 30
0.0
 11
8.983226
 21
12.512821
 31
0.0
  0
LINE
  5
35B3
100
AcDbEntity
  8
0
 62
     0
100
AcDbLine
 10
8.983226
 20
12.512821
 30
0.0
 11
8.931575
 21
12.564471
 31
0.0
  0
LINE
  5
35B4
100
AcDbEntity
  8
0
 62
     0
100
AcDbLine
 10
8.994075
 20
12.537326
 30
0.0
 11
8.942581
 21
12.588821
 31
0.0
  0
LINE
  5
35B5
100
AcDbEntity
  8
0
 62
     0
100
AcDbLine
 10
8.994075
 20
12.572681
 30
0.0
 11
8.963575
 21
12.603181
 31
0.0
  0
LINE
  5
35B6
100
AcDbEntity
  8
0
 62
     0
100
AcDbLine
 10
8.994075
 20
12.608037
 30
0.0
 11
8.981792
 21
12.620321
 31
0.0
  0
LINE
  5
35B7
100
AcDbEntity
  8
0
 62
     0
100
AcDbLine
 10
8.994075
 20
12.996945
 30
0.0
 11
8.931575
 21
13.059445
 31
0.0
  0
LINE
  5
35B8
100
AcDbEntity
  8
0
 62
     0
100
AcDbLine
 10
8.994075
 20
13.032301
 30
0.0
 11
8.931575
 21
13.094801
 31
0.0
  0
LINE
  5
35B9
100
AcDbEntity
  8
0
 62
     0
100
AcDbLine
 10
8.994075
 20
13.067656
 30
0.0
 11
8.931575
 21
13.130156
 31
0.0
  0
LINE
  5
35BA
100
AcDbEntity
  8
0
 62
     0
100
AcDbLine
 10
8.994075
 20
13.103012
 30
0.0
 11
8.931575
 21
13.165512
 31
0.0
  0
LINE
  5
35BB
100
AcDbEntity
  8
0
 62
     0
100
AcDbLine
 10
8.994075
 20
13.138367
 30
0.0
 11
8.931575
 21
13.200867
 31
0.0
  0
LINE
  5
35BC
100
AcDbEntity
  8
0
 62
     0
100
AcDbLine
 10
8.994075
 20
13.173722
 30
0.0
 11
8.931575
 21
13.236222
 31
0.0
  0
LINE
  5
35BD
100
AcDbEntity
  8
0
 62
     0
100
AcDbLine
 10
8.994075
 20
13.209078
 30
0.0
 11
8.940332
 21
13.262821
 31
0.0
  0
LINE
  5
35BE
100
AcDbEntity
  8
0
 62
     0
100
AcDbLine
 10
8.994075
 20
13.244433
 30
0.0
 11
8.975688
 21
13.262821
 31
0.0
  0
ENDBLK
  5
35C0
100
AcDbEntity
  8
0
100
AcDbBlockEnd
  0
BLOCK
  5
35D2
100
AcDbEntity
  8
0
100
AcDbBlockBegin
  2
*X8
 70
     1
 10
0.0
 20
0.0
 30
0.0
  3
*X8
  1

  0
LINE
  5
35C2
100
AcDbEntity
  8
0
 62
     0
100
AcDbLine
 10
9.146667
 20
13.141821
 30
0.0
 11
9.181575
 21
13.176729
 31
0.0
  0
LINE
  5
35C3
100
AcDbEntity
  8
0
 62
     0
100
AcDbLine
 10
9.111312
 20
13.141821
 30
0.0
 11
9.181575
 21
13.212084
 31
0.0
  0
LINE
  5
35C4
100
AcDbEntity
  8
0
 62
     0
100
AcDbLine
 10
9.075957
 20
13.141821
 30
0.0
 11
9.161957
 21
13.227821
 31
0.0
  0
LINE
  5
35C5
100
AcDbEntity
  8
0
 62
     0
100
AcDbLine
 10
9.040601
 20
13.141821
 30
0.0
 11
9.126601
 21
13.227821
 31
0.0
  0
LINE
  5
35C6
100
AcDbEntity
  8
0
 62
     0
100
AcDbLine
 10
9.005246
 20
13.141821
 30
0.0
 11
9.091246
 21
13.227821
 31
0.0
  0
LINE
  5
35C7
100
AcDbEntity
  8
0
 62
     0
100
AcDbLine
 10
8.994075
 20
13.166005
 30
0.0
 11
9.055891
 21
13.227821
 31
0.0
  0
LINE
  5
35C8
100
AcDbEntity
  8
0
 62
     0
100
AcDbLine
 10
8.994075
 20
13.201361
 30
0.0
 11
9.020535
 21
13.227821
 31
0.0
  0
LINE
  5
35C9
100
AcDbEntity
  8
0
 62
     0
100
AcDbLine
 10
8.994075
 20
11.893213
 30
0.0
 11
8.999683
 21
11.898821
 31
0.0
  0
LINE
  5
35CA
100
AcDbEntity
  8
0
 62
     0
100
AcDbLine
 10
8.994075
 20
11.857858
 30
0.0
 11
9.035038
 21
11.898821
 31
0.0
  0
LINE
  5
35CB
100
AcDbEntity
  8
0
 62
     0
100
AcDbLine
 10
8.994075
 20
11.822503
 30
0.0
 11
9.070394
 21
11.898821
 31
0.0
  0
LINE
  5
35CC
100
AcDbEntity
  8
0
 62
     0
100
AcDbLine
 10
8.994075
 20
11.787147
 30
0.0
 11
9.105749
 21
11.898821
 31
0.0
  0
LINE
  5
35CD
100
AcDbEntity
  8
0
 62
     0
100
AcDbLine
 10
9.005104
 20
11.762821
 30
0.0
 11
9.141104
 21
11.898821
 31
0.0
  0
LINE
  5
35CE
100
AcDbEntity
  8
0
 62
     0
100
AcDbLine
 10
9.04046
 20
11.762821
 30
0.0
 11
9.162075
 21
11.884437
 31
0.0
  0
LINE
  5
35CF
100
AcDbEntity
  8
0
 62
     0
100
AcDbLine
 10
9.075815
 20
11.762821
 30
0.0
 11
9.162075
 21
11.849081
 31
0.0
  0
LINE
  5
35D0
100
AcDbEntity
  8
0
 62
     0
100
AcDbLine
 10
9.11117
 20
11.762821
 30
0.0
 11
9.162075
 21
11.813726
 31
0.0
  0
LINE
  5
35D1
100
AcDbEntity
  8
0
 62
     0
100
AcDbLine
 10
9.146526
 20
11.762821
 30
0.0
 11
9.162075
 21
11.778371
 31
0.0
  0
ENDBLK
  5
35D3
100
AcDbEntity
  8
0
100
AcDbBlockEnd
  0
BLOCK
  5
35FD
100
AcDbEntity
  8
0
100
AcDbBlockBegin
  2
*X9
 70
     1
 10
0.0
 20
0.0
 30
0.0
  3
*X9
  1

  0
LINE
  5
35D5
100
AcDbEntity
  8
0
 62
     0
100
AcDbLine
 10
9.485221
 20
13.126821
 30
0.0
 11
9.535304
 21
13.176904
 31
0.0
  0
LINE
  5
35D6
100
AcDbEntity
  8
0
 62
     0
100
AcDbLine
 10
9.449865
 20
13.126821
 30
0.0
 11
9.525662
 21
13.202617
 31
0.0
  0
LINE
  5
35D7
100
AcDbEntity
  8
0
 62
     0
100
AcDbLine
 10
9.41451
 20
13.126821
 30
0.0
 11
9.516019
 21
13.22833
 31
0.0
  0
LINE
  5
35D8
100
AcDbEntity
  8
0
 62
     0
100
AcDbLine
 10
9.379155
 20
13.126821
 30
0.0
 11
9.506377
 21
13.254043
 31
0.0
  0
LINE
  5
35D9
100
AcDbEntity
  8
0
 62
     0
100
AcDbLine
 10
9.343799
 20
13.126821
 30
0.0
 11
9.479799
 21
13.262821
 31
0.0
  0
LINE
  5
35DA
100
AcDbEntity
  8
0
 62
     0
100
AcDbLine
 10
9.308444
 20
13.126821
 30
0.0
 11
9.444444
 21
13.262821
 31
0.0
  0
LINE
  5
35DB
100
AcDbEntity
  8
0
 62
     0
100
AcDbLine
 10
9.273089
 20
13.126821
 30
0.0
 11
9.409089
 21
13.262821
 31
0.0
  0
LINE
  5
35DC
100
AcDbEntity
  8
0
 62
     0
100
AcDbLine
 10
9.237733
 20
13.126821
 30
0.0
 11
9.373733
 21
13.262821
 31
0.0
  0
LINE
  5
35DD
100
AcDbEntity
  8
0
 62
     0
100
AcDbLine
 10
9.202378
 20
13.126821
 30
0.0
 11
9.338378
 21
13.262821
 31
0.0
  0
LINE
  5
35DE
100
AcDbEntity
  8
0
 62
     0
100
AcDbLine
 10
9.167023
 20
13.126821
 30
0.0
 11
9.303023
 21
13.262821
 31
0.0
  0
LINE
  5
35DF
100
AcDbEntity
  8
0
 62
     0
100
AcDbLine
 10
9.131667
 20
13.126821
 30
0.0
 11
9.146667
 21
13.141821
 31
0.0
  0
LINE
  5
35E0
100
AcDbEntity
  8
0
 62
     0
100
AcDbLine
 10
9.181575
 20
13.176729
 30
0.0
 11
9.267667
 21
13.262821
 31
0.0
  0
LINE
  5
35E1
100
AcDbEntity
  8
0
 62
     0
100
AcDbLine
 10
9.096312
 20
13.126821
 30
0.0
 11
9.111312
 21
13.141821
 31
0.0
  0
LINE
  5
35E2
100
AcDbEntity
  8
0
 62
     0
100
AcDbLine
 10
9.181575
 20
13.212084
 30
0.0
 11
9.232312
 21
13.262821
 31
0.0
  0
LINE
  5
35E3
100
AcDbEntity
  8
0
 62
     0
100
AcDbLine
 10
9.060957
 20
13.126821
 30
0.0
 11
9.075957
 21
13.141821
 31
0.0
  0
LINE
  5
35E4
100
AcDbEntity
  8
0
 62
     0
100
AcDbLine
 10
9.161957
 20
13.227821
 30
0.0
 11
9.196957
 21
13.262821
 31
0.0
  0
LINE
  5
35E5
100
AcDbEntity
  8
0
 62
     0
100
AcDbLine
 10
9.025601
 20
13.126821
 30
0.0
 11
9.040601
 21
13.141821
 31
0.0
  0
LINE
  5
35E6
100
AcDbEntity
  8
0
 62
     0
100
AcDbLine
 10
9.126601
 20
13.227821
 30
0.0
 11
9.161601
 21
13.262821
 31
0.0
  0
LINE
  5
35E7
100
AcDbEntity
  8
0
 62
     0
100
AcDbLine
 10
8.994075
 20
13.13065
 30
0.0
 11
9.005246
 21
13.141821
 31
0.0
  0
LINE
  5
35E8
100
AcDbEntity
  8
0
 62
     0
100
AcDbLine
 10
9.091246
 20
13.227821
 30
0.0
 11
9.126246
 21
13.262821
 31
0.0
  0
LINE
  5
35E9
100
AcDbEntity
  8
0
 62
     0
100
AcDbLine
 10
9.055891
 20
13.227821
 30
0.0
 11
9.090891
 21
13.262821
 31
0.0
  0
LINE
  5
35EA
100
AcDbEntity
  8
0
 62
     0
100
AcDbLine
 10
9.020535
 20
13.227821
 30
0.0
 11
9.055535
 21
13.262821
 31
0.0
  0
LINE
  5
35EB
100
AcDbEntity
  8
0
 62
     0
100
AcDbLine
 10
8.994075
 20
13.236716
 30
0.0
 11
9.02018
 21
13.262821
 31
0.0
  0
LINE
  5
35EC
100
AcDbEntity
  8
0
 62
     0
100
AcDbLine
 10
9.504648
 20
13.110892
 30
0.0
 11
9.544946
 21
13.151191
 31
0.0
  0
LINE
  5
35ED
100
AcDbEntity
  8
0
 62
     0
100
AcDbLine
 10
9.504648
 20
13.075537
 30
0.0
 11
9.554589
 21
13.125478
 31
0.0
  0
LINE
  5
35EE
100
AcDbEntity
  8
0
 62
     0
100
AcDbLine
 10
9.504648
 20
13.040182
 30
0.0
 11
9.554648
 21
13.090182
 31
0.0
  0
LINE
  5
35EF
100
AcDbEntity
  8
0
 62
     0
100
AcDbLine
 10
9.504648
 20
13.004826
 30
0.0
 11
9.554648
 21
13.054826
 31
0.0
  0
LINE
  5
35F0
100
AcDbEntity
  8
0
 62
     0
100
AcDbLine
 10
9.504648
 20
12.969471
 30
0.0
 11
9.554684
 21
13.019508
 31
0.0
  0
LINE
  5
35F1
100
AcDbEntity
  8
0
 62
     0
100
AcDbLine
 10
9.528353
 20
12.957821
 30
0.0
 11
9.572103
 21
13.001571
 31
0.0
  0
LINE
  5
35F2
100
AcDbEntity
  8
0
 62
     0
100
AcDbLine
 10
9.563708
 20
12.957821
 30
0.0
 11
9.610458
 21
13.004571
 31
0.0
  0
LINE
  5
35F3
100
AcDbEntity
  8
0
 62
     0
100
AcDbLine
 10
9.570648
 20
12.929405
 30
0.0
 11
9.645813
 21
13.004571
 31
0.0
  0
LINE
  5
35F4
100
AcDbEntity
  8
0
 62
     0
100
AcDbLine
 10
9.570648
 20
12.89405
 30
0.0
 11
9.654075
 21
12.977477
 31
0.0
  0
LINE
  5
35F5
100
AcDbEntity
  8
0
 62
     0
100
AcDbLine
 10
9.570648
 20
12.858694
 30
0.0
 11
9.654075
 21
12.942122
 31
0.0
  0
LINE
  5
35F6
100
AcDbEntity
  8
0
 62
     0
100
AcDbLine
 10
9.570648
 20
12.823339
 30
0.0
 11
9.654075
 21
12.906767
 31
0.0
  0
LINE
  5
35F7
100
AcDbEntity
  8
0
 62
     0
100
AcDbLine
 10
9.570648
 20
12.787984
 30
0.0
 11
9.654075
 21
12.871411
 31
0.0
  0
LINE
  5
35F8
100
AcDbEntity
  8
0
 62
     0
100
AcDbLine
 10
9.570648
 20
12.752628
 30
0.0
 11
9.654075
 21
12.836056
 31
0.0
  0
LINE
  5
35F9
100
AcDbEntity
  8
0
 62
     0
100
AcDbLine
 10
9.570648
 20
12.717273
 30
0.0
 11
9.654075
 21
12.800701
 31
0.0
  0
LINE
  5
35FA
100
AcDbEntity
  8
0
 62
     0
100
AcDbLine
 10
9.570648
 20
12.681918
 30
0.0
 11
9.654075
 21
12.765345
 31
0.0
  0
LINE
  5
35FB
100
AcDbEntity
  8
0
 62
     0
100
AcDbLine
 10
9.605906
 20
12.681821
 30
0.0
 11
9.654075
 21
12.72999
 31
0.0
  0
LINE
  5
35FC
100
AcDbEntity
  8
0
 62
     0
100
AcDbLine
 10
9.641261
 20
12.681821
 30
0.0
 11
9.654075
 21
12.694635
 31
0.0
  0
ENDBLK
  5
35FE
100
AcDbEntity
  8
0
100
AcDbBlockEnd
  0
BLOCK
  5
3619
100
AcDbEntity
  8
0
100
AcDbBlockBegin
  2
*X10
 70
     1
 10
0.0
 20
0.0
 30
0.0
  3
*X10
  1

  0
LINE
  5
3600
100
AcDbEntity
  8
0
 62
     0
100
AcDbLine
 10
9.326075
 20
11.87166
 30
0.0
 11
9.353236
 21
11.898821
 31
0.0
  0
LINE
  5
3601
100
AcDbEntity
  8
0
 62
     0
100
AcDbLine
 10
9.570648
 20
12.116232
 30
0.0
 11
9.654075
 21
12.19966
 31
0.0
  0
LINE
  5
3602
100
AcDbEntity
  8
0
 62
     0
100
AcDbLine
 10
9.504648
 20
12.050232
 30
0.0
 11
9.522236
 21
12.067821
 31
0.0
  0
LINE
  5
3603
100
AcDbEntity
  8
0
 62
     0
100
AcDbLine
 10
9.570648
 20
12.151588
 30
0.0
 11
9.654075
 21
12.235015
 31
0.0
  0
LINE
  5
3604
100
AcDbEntity
  8
0
 62
     0
100
AcDbLine
 10
9.570648
 20
12.186943
 30
0.0
 11
9.654075
 21
12.270371
 31
0.0
  0
LINE
  5
3605
100
AcDbEntity
  8
0
 62
     0
100
AcDbLine
 10
9.570648
 20
12.222298
 30
0.0
 11
9.654075
 21
12.305726
 31
0.0
  0
LINE
  5
3606
100
AcDbEntity
  8
0
 62
     0
100
AcDbLine
 10
9.570648
 20
12.257654
 30
0.0
 11
9.650445
 21
12.337451
 31
0.0
  0
LINE
  5
3607
100
AcDbEntity
  8
0
 62
     0
100
AcDbLine
 10
9.570648
 20
12.293009
 30
0.0
 11
9.62146
 21
12.343821
 31
0.0
  0
LINE
  5
3608
100
AcDbEntity
  8
0
 62
     0
100
AcDbLine
 10
9.570648
 20
12.328364
 30
0.0
 11
9.586104
 21
12.343821
 31
0.0
  0
LINE
  5
3609
100
AcDbEntity
  8
0
 62
     0
100
AcDbLine
 10
9.326075
 20
11.836304
 30
0.0
 11
9.388592
 21
11.898821
 31
0.0
  0
LINE
  5
360A
100
AcDbEntity
  8
0
 62
     0
100
AcDbLine
 10
9.570648
 20
12.080877
 30
0.0
 11
9.654075
 21
12.164304
 31
0.0
  0
LINE
  5
360B
100
AcDbEntity
  8
0
 62
     0
100
AcDbLine
 10
9.504648
 20
12.014877
 30
0.0
 11
9.557592
 21
12.067821
 31
0.0
  0
LINE
  5
360C
100
AcDbEntity
  8
0
 62
     0
100
AcDbLine
 10
9.326075
 20
11.800949
 30
0.0
 11
9.423947
 21
11.898821
 31
0.0
  0
LINE
  5
360D
100
AcDbEntity
  8
0
 62
     0
100
AcDbLine
 10
9.504648
 20
11.979522
 30
0.0
 11
9.654075
 21
12.128949
 31
0.0
  0
LINE
  5
360E
100
AcDbEntity
  8
0
 62
     0
100
AcDbLine
 10
9.326075
 20
11.765594
 30
0.0
 11
9.459302
 21
11.898821
 31
0.0
  0
LINE
  5
360F
100
AcDbEntity
  8
0
 62
     0
100
AcDbLine
 10
9.574364
 20
12.013883
 30
0.0
 11
9.654075
 21
12.093594
 31
0.0
  0
LINE
  5
3610
100
AcDbEntity
  8
0
 62
     0
100
AcDbLine
 10
9.504648
 20
11.944166
 30
0.0
 11
9.554648
 21
11.994166
 31
0.0
  0
LINE
  5
3611
100
AcDbEntity
  8
0
 62
     0
100
AcDbLine
 10
9.358658
 20
11.762821
 30
0.0
 11
9.494658
 21
11.898821
 31
0.0
  0
LINE
  5
3612
100
AcDbEntity
  8
0
 62
     0
100
AcDbLine
 10
9.606908
 20
12.011071
 30
0.0
 11
9.654075
 21
12.058238
 31
0.0
  0
LINE
  5
3613
100
AcDbEntity
  8
0
 62
     0
100
AcDbLine
 10
9.504648
 20
11.908811
 30
0.0
 11
9.554648
 21
11.958811
 31
0.0
  0
LINE
  5
3614
100
AcDbEntity
  8
0
 62
     0
100
AcDbLine
 10
9.394013
 20
11.762821
 30
0.0
 11
9.554648
 21
11.923456
 31
0.0
  0
LINE
  5
3615
100
AcDbEntity
  8
0
 62
     0
100
AcDbLine
 10
9.642263
 20
12.011071
 30
0.0
 11
9.654075
 21
12.022883
 31
0.0
  0
LINE
  5
3616
100
AcDbEntity
  8
0
 62
     0
100
AcDbLine
 10
9.429368
 20
11.762821
 30
0.0
 11
9.553316
 21
11.886768
 31
0.0
  0
LINE
  5
3617
100
AcDbEntity
  8
0
 62
     0
100
AcDbLine
 10
9.464724
 20
11.762821
 30
0.0
 11
9.532102
 21
11.830199
 31
0.0
  0
LINE
  5
3618
100
AcDbEntity
  8
0
 62
     0
100
AcDbLine
 10
9.500079
 20
11.762821
 30
0.0
 11
9.510889
 21
11.773631
 31
0.0
  0
ENDBLK
  5
361A
100
AcDbEntity
  8
0
100
AcDbBlockEnd
  0
BLOCK
  5
3631
100
AcDbEntity
  8
0
100
AcDbBlockBegin
  2
*X11
 70
     1
 10
0.0
 20
0.0
 30
0.0
  3
*X11
  1

  0
LINE
  5
361C
100
AcDbEntity
  8
0
 62
     0
100
AcDbLine
 10
10.483986
 20
13.029571
 30
0.0
 11
10.506613
 21
13.052198
 31
0.0
  0
LINE
  5
361D
100
AcDbEntity
  8
0
 62
     0
100
AcDbLine
 10
10.448631
 20
13.029571
 30
0.0
 11
10.506613
 21
13.087553
 31
0.0
  0
LINE
  5
361E
100
AcDbEntity
  8
0
 62
     0
100
AcDbLine
 10
10.413276
 20
13.029571
 30
0.0
 11
10.491526
 21
13.107821
 31
0.0
  0
LINE
  5
361F
100
AcDbEntity
  8
0
 62
     0
100
AcDbLine
 10
10.37792
 20
13.029571
 30
0.0
 11
10.45617
 21
13.107821
 31
0.0
  0
LINE
  5
3620
100
AcDbEntity
  8
0
 62
     0
100
AcDbLine
 10
10.342565
 20
13.029571
 30
0.0
 11
10.420815
 21
13.107821
 31
0.0
  0
LINE
  5
3621
100
AcDbEntity
  8
0
 62
     0
100
AcDbLine
 10
10.30721
 20
13.029571
 30
0.0
 11
10.38546
 21
13.107821
 31
0.0
  0
LINE
  5
3622
100
AcDbEntity
  8
0
 62
     0
100
AcDbLine
 10
10.271854
 20
13.029571
 30
0.0
 11
10.350104
 21
13.107821
 31
0.0
  0
LINE
  5
3623
100
AcDbEntity
  8
0
 62
     0
100
AcDbLine
 10
10.236499
 20
13.029571
 30
0.0
 11
10.314749
 21
13.107821
 31
0.0
  0
LINE
  5
3624
100
AcDbEntity
  8
0
 62
     0
100
AcDbLine
 10
10.226613
 20
13.05504
 30
0.0
 11
10.279394
 21
13.107821
 31
0.0
  0
LINE
  5
3625
100
AcDbEntity
  8
0
 62
     0
100
AcDbLine
 10
10.226613
 20
13.090396
 30
0.0
 11
10.244038
 21
13.107821
 31
0.0
  0
LINE
  5
3626
100
AcDbEntity
  8
0
 62
     0
100
AcDbLine
 10
10.226613
 20
11.99438
 30
0.0
 11
10.228304
 21
11.996071
 31
0.0
  0
LINE
  5
3627
100
AcDbEntity
  8
0
 62
     0
100
AcDbLine
 10
10.226613
 20
11.959025
 30
0.0
 11
10.263659
 21
11.996071
 31
0.0
  0
LINE
  5
3628
100
AcDbEntity
  8
0
 62
     0
100
AcDbLine
 10
10.226613
 20
11.92367
 30
0.0
 11
10.299014
 21
11.996071
 31
0.0
  0
LINE
  5
3629
100
AcDbEntity
  8
0
 62
     0
100
AcDbLine
 10
10.25612
 20
11.917821
 30
0.0
 11
10.33437
 21
11.996071
 31
0.0
  0
LINE
  5
362A
100
AcDbEntity
  8
0
 62
     0
100
AcDbLine
 10
10.291475
 20
11.917821
 30
0.0
 11
10.369725
 21
11.996071
 31
0.0
  0
LINE
  5
362B
100
AcDbEntity
  8
0
 62
     0
100
AcDbLine
 10
10.32683
 20
11.917821
 30
0.0
 11
10.40508
 21
11.996071
 31
0.0
  0
LINE
  5
362C
100
AcDbEntity
  8
0
 62
     0
100
AcDbLine
 10
10.362186
 20
11.917821
 30
0.0
 11
10.440436
 21
11.996071
 31
0.0
  0
LINE
  5
362D
100
AcDbEntity
  8
0
 62
     0
100
AcDbLine
 10
10.397541
 20
11.917821
 30
0.0
 11
10.475791
 21
11.996071
 31
0.0
  0
LINE
  5
362E
100
AcDbEntity
  8
0
 62
     0
100
AcDbLine
 10
10.432896
 20
11.917821
 30
0.0
 11
10.506613
 21
11.991538
 31
0.0
  0
LINE
  5
362F
100
AcDbEntity
  8
0
 62
     0
100
AcDbLine
 10
10.468252
 20
11.917821
 30
0.0
 11
10.506613
 21
11.956182
 31
0.0
  0
LINE
  5
3630
100
AcDbEntity
  8
0
 62
     0
100
AcDbLine
 10
10.503607
 20
11.917821
 30
0.0
 11
10.506613
 21
11.920827
 31
0.0
  0
ENDBLK
  5
3632
100
AcDbEntity
  8
0
100
AcDbBlockEnd
  0
BLOCK
  5
37CF
100
AcDbEntity
  8
0
100
AcDbBlockBegin
  2
A$C1BEC697A
 70
     0
 10
0.0
 20
0.0
 30
0.0
  3
A$C1BEC697A
  1

  0
TEXT
  5
3638
100
AcDbEntity
  8
D1
100
AcDbText
 10
-0.367249
 20
-5.268253
 30
0.0
 40
0.08
  1
DC POWER INPUT
 72
     1
 11
0.179418
 21
-5.268253
 31
0.0
100
AcDbText
  0
LWPOLYLINE
  5
3639
100
AcDbEntity
  8
0
100
AcDbPolyline
 90
        4
 70
     1
 43
0.0
 10
-0.47153
 20
-5.042209
 10
-0.47153
 20
-4.392209
 10
0.88847
 20
-4.392209
 10
0.88847
 20
-5.042209
  0
MTEXT
  5
363A
100
AcDbEntity
  8
D1
100
AcDbMText
 10
-0.184846
 20
-3.242185
 30
0.0
 40
0.08
 41
0.0
 71
     5
 72
     5
  1
\A1;0.250
  0
INSERT
  5
363B
100
AcDbEntity
  8
BODY
100
AcDbBlockReference
  2
TOGGLE-SIDE
 10
0.244621
 20
-2.532496
 30
0.0
1001
ACAD
1000
ASC_BOUNDS
1002
{
1070
    19
1002
}
  0
INSERT
  5
363C
100
AcDbEntity
  8
BODY
100
AcDbBlockReference
  2
BNC-SIDE
 10
0.182121
 20
-1.858496
 30
0.0
 50
180.0
1001
ACAD
1000
ASC_BOUNDS
1002
{
1070
    19
1002
}
  0
CIRCLE
  5
363D
100
AcDbEntity
  8
0
100
AcDbCircle
 39
0.18
 10
-1.82918
 20
-2.568267
 30
0.0
 40
0.156
  0
POLYLINE
  5
363E
100
AcDbEntity
  8
0
100
AcDb2dPolyline
 66
     1
 10
0.0
 20
0.0
 30
0.0
 70
     4
 40
0.16
 41
0.16
 75
     6
  0
VERTEX
  5
363F
100
AcDbEntity
  8
0
100
AcDbVertex
100
AcDb2dVertex
 10
-1.82918
 20
-2.568267
 30
0.0
 70
    16
  0
VERTEX
  5
3640
100
AcDbEntity
  8
0
100
AcDbVertex
100
AcDb2dVertex
 10
-1.82918
 20
-2.568267
 30
0.0
 70
     8
  0
VERTEX
  5
3641
100
AcDbEntity
  8
0
100
AcDbVertex
100
AcDb2dVertex
 10
-2.021371
 20
-2.84289
 30
0.0
 70
     8
  0
VERTEX
  5
3642
100
AcDbEntity
  8
0
100
AcDbVertex
100
AcDb2dVertex
 10
-2.187049
 20
-3.072206
 30
0.0
 70
     8
  0
VERTEX
  5
3643
100
AcDbEntity
  8
0
100
AcDbVertex
100
AcDb2dVertex
 10
-2.32965
 20
-3.261571
 30
0.0
 70
     8
  0
VERTEX
  5
3644
100
AcDbEntity
  8
0
100
AcDbVertex
100
AcDb2dVertex
 10
-2.452608
 20
-3.416343
 30
0.0
 70
     8
  0
VERTEX
  5
3645
100
AcDbEntity
  8
0
100
AcDbVertex
100
AcDb2dVertex
 10
-2.559359
 20
-3.541881
 30
0.0
 70
     8
  0
VERTEX
  5
3646
100
AcDbEntity
  8
0
100
AcDbVertex
100
AcDb2dVertex
 10
-2.653336
 20
-3.643541
 30
0.0
 70
     8
  0
VERTEX
  5
3647
100
AcDbEntity
  8
0
100
AcDbVertex
100
AcDb2dVertex
 10
-2.737976
 20
-3.726683
 30
0.0
 70
     8
  0
VERTEX
  5
3648
100
AcDbEntity
  8
0
100
AcDbVertex
100
AcDb2dVertex
 10
-2.816712
 20
-3.796663
 30
0.0
 70
     8
  0
VERTEX
  5
3649
100
AcDbEntity
  8
0
100
AcDbVertex
100
AcDb2dVertex
 10
-2.892471
 20
-3.85802
 30
0.0
 70
     8
  0
VERTEX
  5
364A
100
AcDbEntity
  8
0
100
AcDbVertex
100
AcDb2dVertex
 10
-2.966141
 20
-3.912018
 30
0.0
 70
     8
  0
VERTEX
  5
364B
100
AcDbEntity
  8
0
100
AcDbVertex
100
AcDb2dVertex
 10
-3.038103
 20
-3.959101
 30
0.0
 70
     8
  0
VERTEX
  5
364C
100
AcDbEntity
  8
0
100
AcDbVertex
100
AcDb2dVertex
 10
-3.108738
 20
-3.999715
 30
0.0
 70
     8
  0
VERTEX
  5
364D
100
AcDbEntity
  8
0
100
AcDbVertex
100
AcDb2dVertex
 10
-3.178425
 20
-4.034304
 30
0.0
 70
     8
  0
VERTEX
  5
364E
100
AcDbEntity
  8
0
100
AcDbVertex
100
AcDb2dVertex
 10
-3.247545
 20
-4.063313
 30
0.0
 70
     8
  0
VERTEX
  5
364F
100
AcDbEntity
  8
0
100
AcDbVertex
100
AcDb2dVertex
 10
-3.316479
 20
-4.087186
 30
0.0
 70
     8
  0
VERTEX
  5
3650
100
AcDbEntity
  8
0
100
AcDbVertex
100
AcDb2dVertex
 10
-3.385607
 20
-4.106368
 30
0.0
 70
     8
  0
VERTEX
  5
3651
100
AcDbEntity
  8
0
100
AcDbVertex
100
AcDb2dVertex
 10
-3.45519
 20
-4.12128
 30
0.0
 70
     8
  0
VERTEX
  5
3652
100
AcDbEntity
  8
0
100
AcDbVertex
100
AcDb2dVertex
 10
-3.525018
 20
-4.132247
 30
0.0
 70
     8
  0
VERTEX
  5
3653
100
AcDbEntity
  8
0
100
AcDbVertex
100
AcDb2dVertex
 10
-3.594759
 20
-4.13957
 30
0.0
 70
     8
  0
VERTEX
  5
3654
100
AcDbEntity
  8
0
100
AcDbVertex
100
AcDb2dVertex
 10
-3.664084
 20
-4.143551
 30
0.0
 70
     8
  0
VERTEX
  5
3655
100
AcDbEntity
  8
0
100
AcDbVertex
100
AcDb2dVertex
 10
-3.732662
 20
-4.14449
 30
0.0
 70
     8
  0
VERTEX
  5
3656
100
AcDbEntity
  8
0
100
AcDbVertex
100
AcDb2dVertex
 10
-3.800165
 20
-4.14269
 30
0.0
 70
     8
  0
VERTEX
  5
3657
100
AcDbEntity
  8
0
100
AcDbVertex
100
AcDb2dVertex
 10
-3.86626
 20
-4.138451
 30
0.0
 70
     8
  0
VERTEX
  5
3658
100
AcDbEntity
  8
0
100
AcDbVertex
100
AcDb2dVertex
 10
-3.930619
 20
-4.132075
 30
0.0
 70
     8
  0
VERTEX
  5
3659
100
AcDbEntity
  8
0
100
AcDbVertex
100
AcDb2dVertex
 10
-3.992947
 20
-4.1238
 30
0.0
 70
     8
  0
VERTEX
  5
365A
100
AcDbEntity
  8
0
100
AcDbVertex
100
AcDb2dVertex
 10
-4.053094
 20
-4.113617
 30
0.0
 70
     8
  0
VERTEX
  5
365B
100
AcDbEntity
  8
0
100
AcDbVertex
100
AcDb2dVertex
 10
-4.110944
 20
-4.101455
 30
0.0
 70
     8
  0
VERTEX
  5
365C
100
AcDbEntity
  8
0
100
AcDbVertex
100
AcDb2dVertex
 10
-4.166383
 20
-4.087241
 30
0.0
 70
     8
  0
VERTEX
  5
365D
100
AcDbEntity
  8
0
100
AcDbVertex
100
AcDb2dVertex
 10
-4.219296
 20
-4.070904
 30
0.0
 70
     8
  0
VERTEX
  5
365E
100
AcDbEntity
  8
0
100
AcDbVertex
100
AcDb2dVertex
 10
-4.269568
 20
-4.052372
 30
0.0
 70
     8
  0
VERTEX
  5
365F
100
AcDbEntity
  8
0
100
AcDbVertex
100
AcDb2dVertex
 10
-4.317084
 20
-4.031574
 30
0.0
 70
     8
  0
VERTEX
  5
3660
100
AcDbEntity
  8
0
100
AcDbVertex
100
AcDb2dVertex
 10
-4.36173
 20
-4.008437
 30
0.0
 70
     8
  0
VERTEX
  5
3661
100
AcDbEntity
  8
0
100
AcDbVertex
100
AcDb2dVertex
 10
-4.403422
 20
-3.982955
 30
0.0
 70
     8
  0
VERTEX
  5
3662
100
AcDbEntity
  8
0
100
AcDbVertex
100
AcDb2dVertex
 10
-4.4422
 20
-3.955379
 30
0.0
 70
     8
  0
VERTEX
  5
3663
100
AcDbEntity
  8
0
100
AcDbVertex
100
AcDb2dVertex
 10
-4.478136
 20
-3.926024
 30
0.0
 70
     8
  0
VERTEX
  5
3664
100
AcDbEntity
  8
0
100
AcDbVertex
100
AcDb2dVertex
 10
-4.511302
 20
-3.895205
 30
0.0
 70
     8
  0
VERTEX
  5
3665
100
AcDbEntity
  8
0
100
AcDbVertex
100
AcDb2dVertex
 10
-4.54177
 20
-3.863239
 30
0.0
 70
     8
  0
VERTEX
  5
3666
100
AcDbEntity
  8
0
100
AcDbVertex
100
AcDb2dVertex
 10
-4.569612
 20
-3.830441
 30
0.0
 70
     8
  0
VERTEX
  5
3667
100
AcDbEntity
  8
0
100
AcDbVertex
100
AcDb2dVertex
 10
-4.594899
 20
-3.797126
 30
0.0
 70
     8
  0
VERTEX
  5
3668
100
AcDbEntity
  8
0
100
AcDbVertex
100
AcDb2dVertex
 10
-4.617702
 20
-3.763611
 30
0.0
 70
     8
  0
VERTEX
  5
3669
100
AcDbEntity
  8
0
100
AcDbVertex
100
AcDb2dVertex
 10
-4.638078
 20
-3.730148
 30
0.0
 70
     8
  0
VERTEX
  5
366A
100
AcDbEntity
  8
0
100
AcDbVertex
100
AcDb2dVertex
 10
-4.656014
 20
-3.696743
 30
0.0
 70
     8
  0
VERTEX
  5
366B
100
AcDbEntity
  8
0
100
AcDbVertex
100
AcDb2dVertex
 10
-4.671481
 20
-3.663338
 30
0.0
 70
     8
  0
VERTEX
  5
366C
100
AcDbEntity
  8
0
100
AcDbVertex
100
AcDb2dVertex
 10
-4.684451
 20
-3.629875
 30
0.0
 70
     8
  0
VERTEX
  5
366D
100
AcDbEntity
  8
0
100
AcDbVertex
100
AcDb2dVertex
 10
-4.694895
 20
-3.596297
 30
0.0
 70
     8
  0
VERTEX
  5
366E
100
AcDbEntity
  8
0
100
AcDbVertex
100
AcDb2dVertex
 10
-4.702784
 20
-3.562548
 30
0.0
 70
     8
  0
VERTEX
  5
366F
100
AcDbEntity
  8
0
100
AcDbVertex
100
AcDb2dVertex
 10
-4.70809
 20
-3.528568
 30
0.0
 70
     8
  0
VERTEX
  5
3670
100
AcDbEntity
  8
0
100
AcDbVertex
100
AcDb2dVertex
 10
-4.710783
 20
-3.494302
 30
0.0
 70
     8
  0
VERTEX
  5
3671
100
AcDbEntity
  8
0
100
AcDbVertex
100
AcDb2dVertex
 10
-4.710848
 20
-3.459716
 30
0.0
 70
     8
  0
VERTEX
  5
3672
100
AcDbEntity
  8
0
100
AcDbVertex
100
AcDb2dVertex
 10
-4.708314
 20
-3.424871
 30
0.0
 70
     8
  0
VERTEX
  5
3673
100
AcDbEntity
  8
0
100
AcDbVertex
100
AcDb2dVertex
 10
-4.703226
 20
-3.389854
 30
0.0
 70
     8
  0
VERTEX
  5
3674
100
AcDbEntity
  8
0
100
AcDbVertex
100
AcDb2dVertex
 10
-4.695627
 20
-3.354751
 30
0.0
 70
     8
  0
VERTEX
  5
3675
100
AcDbEntity
  8
0
100
AcDbVertex
100
AcDb2dVertex
 10
-4.685559
 20
-3.319649
 30
0.0
 70
     8
  0
VERTEX
  5
3676
100
AcDbEntity
  8
0
100
AcDbVertex
100
AcDb2dVertex
 10
-4.673065
 20
-3.284632
 30
0.0
 70
     8
  0
VERTEX
  5
3677
100
AcDbEntity
  8
0
100
AcDbVertex
100
AcDb2dVertex
 10
-4.658188
 20
-3.249787
 30
0.0
 70
     8
  0
VERTEX
  5
3678
100
AcDbEntity
  8
0
100
AcDbVertex
100
AcDb2dVertex
 10
-4.640972
 20
-3.2152
 30
0.0
 70
     8
  0
VERTEX
  5
3679
100
AcDbEntity
  8
0
100
AcDbVertex
100
AcDb2dVertex
 10
-4.621463
 20
-3.180997
 30
0.0
 70
     8
  0
VERTEX
  5
367A
100
AcDbEntity
  8
0
100
AcDbVertex
100
AcDb2dVertex
 10
-4.599714
 20
-3.147452
 30
0.0
 70
     8
  0
VERTEX
  5
367B
100
AcDbEntity
  8
0
100
AcDbVertex
100
AcDb2dVertex
 10
-4.575783
 20
-3.114884
 30
0.0
 70
     8
  0
VERTEX
  5
367C
100
AcDbEntity
  8
0
100
AcDbVertex
100
AcDb2dVertex
 10
-4.549729
 20
-3.083606
 30
0.0
 70
     8
  0
VERTEX
  5
367D
100
AcDbEntity
  8
0
100
AcDbVertex
100
AcDb2dVertex
 10
-4.521607
 20
-3.053936
 30
0.0
 70
     8
  0
VERTEX
  5
367E
100
AcDbEntity
  8
0
100
AcDbVertex
100
AcDb2dVertex
 10
-4.491477
 20
-3.026187
 30
0.0
 70
     8
  0
VERTEX
  5
367F
100
AcDbEntity
  8
0
100
AcDbVertex
100
AcDb2dVertex
 10
-4.459394
 20
-3.000676
 30
0.0
 70
     8
  0
VERTEX
  5
3680
100
AcDbEntity
  8
0
100
AcDbVertex
100
AcDb2dVertex
 10
-4.425417
 20
-2.977719
 30
0.0
 70
     8
  0
VERTEX
  5
3681
100
AcDbEntity
  8
0
100
AcDbVertex
100
AcDb2dVertex
 10
-4.389591
 20
-2.957557
 30
0.0
 70
     8
  0
VERTEX
  5
3682
100
AcDbEntity
  8
0
100
AcDbVertex
100
AcDb2dVertex
 10
-4.351913
 20
-2.940134
 30
0.0
 70
     8
  0
VERTEX
  5
3683
100
AcDbEntity
  8
0
100
AcDbVertex
100
AcDb2dVertex
 10
-4.31237
 20
-2.925323
 30
0.0
 70
     8
  0
VERTEX
  5
3684
100
AcDbEntity
  8
0
100
AcDbVertex
100
AcDb2dVertex
 10
-4.270946
 20
-2.912993
 30
0.0
 70
     8
  0
VERTEX
  5
3685
100
AcDbEntity
  8
0
100
AcDbVertex
100
AcDb2dVertex
 10
-4.227628
 20
-2.903016
 30
0.0
 70
     8
  0
VERTEX
  5
3686
100
AcDbEntity
  8
0
100
AcDbVertex
100
AcDb2dVertex
 10
-4.1824
 20
-2.895262
 30
0.0
 70
     8
  0
VERTEX
  5
3687
100
AcDbEntity
  8
0
100
AcDbVertex
100
AcDb2dVertex
 10
-4.13525
 20
-2.889603
 30
0.0
 70
     8
  0
VERTEX
  5
3688
100
AcDbEntity
  8
0
100
AcDbVertex
100
AcDb2dVertex
 10
-4.086162
 20
-2.885909
 30
0.0
 70
     8
  0
VERTEX
  5
3689
100
AcDbEntity
  8
0
100
AcDbVertex
100
AcDb2dVertex
 10
-4.035218
 20
-2.884066
 30
0.0
 70
     8
  0
VERTEX
  5
368A
100
AcDbEntity
  8
0
100
AcDbVertex
100
AcDb2dVertex
 10
-3.982882
 20
-2.884016
 30
0.0
 70
     8
  0
VERTEX
  5
368B
100
AcDbEntity
  8
0
100
AcDbVertex
100
AcDb2dVertex
 10
-3.929713
 20
-2.885716
 30
0.0
 70
     8
  0
VERTEX
  5
368C
100
AcDbEntity
  8
0
100
AcDbVertex
100
AcDb2dVertex
 10
-3.876271
 20
-2.889123
 30
0.0
 70
     8
  0
VERTEX
  5
368D
100
AcDbEntity
  8
0
100
AcDbVertex
100
AcDb2dVertex
 10
-3.823117
 20
-2.894194
 30
0.0
 70
     8
  0
VERTEX
  5
368E
100
AcDbEntity
  8
0
100
AcDbVertex
100
AcDb2dVertex
 10
-3.770809
 20
-2.900886
 30
0.0
 70
     8
  0
VERTEX
  5
368F
100
AcDbEntity
  8
0
100
AcDbVertex
100
AcDb2dVertex
 10
-3.719908
 20
-2.909156
 30
0.0
 70
     8
  0
VERTEX
  5
3690
100
AcDbEntity
  8
0
100
AcDbVertex
100
AcDb2dVertex
 10
-3.670973
 20
-2.918961
 30
0.0
 70
     8
  0
VERTEX
  5
3691
100
AcDbEntity
  8
0
100
AcDbVertex
100
AcDb2dVertex
 10
-3.624413
 20
-2.930322
 30
0.0
 70
     8
  0
VERTEX
  5
3692
100
AcDbEntity
  8
0
100
AcDbVertex
100
AcDb2dVertex
 10
-3.580036
 20
-2.94352
 30
0.0
 70
     8
  0
VERTEX
  5
3693
100
AcDbEntity
  8
0
100
AcDbVertex
100
AcDb2dVertex
 10
-3.537495
 20
-2.958898
 30
0.0
 70
     8
  0
VERTEX
  5
3694
100
AcDbEntity
  8
0
100
AcDbVertex
100
AcDb2dVertex
 10
-3.496447
 20
-2.976801
 30
0.0
 70
     8
  0
VERTEX
  5
3695
100
AcDbEntity
  8
0
100
AcDbVertex
100
AcDb2dVertex
 10
-3.456547
 20
-2.997573
 30
0.0
 70
     8
  0
VERTEX
  5
3696
100
AcDbEntity
  8
0
100
AcDbVertex
100
AcDb2dVertex
 10
-3.41745
 20
-3.021558
 30
0.0
 70
     8
  0
VERTEX
  5
3697
100
AcDbEntity
  8
0
100
AcDbVertex
100
AcDb2dVertex
 10
-3.378813
 20
-3.049101
 30
0.0
 70
     8
  0
VERTEX
  5
3698
100
AcDbEntity
  8
0
100
AcDbVertex
100
AcDb2dVertex
 10
-3.340291
 20
-3.080546
 30
0.0
 70
     8
  0
VERTEX
  5
3699
100
AcDbEntity
  8
0
100
AcDbVertex
100
AcDb2dVertex
 10
-3.301645
 20
-3.116067
 30
0.0
 70
     8
  0
VERTEX
  5
369A
100
AcDbEntity
  8
0
100
AcDbVertex
100
AcDb2dVertex
 10
-3.263056
 20
-3.155161
 30
0.0
 70
     8
  0
VERTEX
  5
369B
100
AcDbEntity
  8
0
100
AcDbVertex
100
AcDb2dVertex
 10
-3.224811
 20
-3.197152
 30
0.0
 70
     8
  0
VERTEX
  5
369C
100
AcDbEntity
  8
0
100
AcDbVertex
100
AcDb2dVertex
 10
-3.187198
 20
-3.241366
 30
0.0
 70
     8
  0
VERTEX
  5
369D
100
AcDbEntity
  8
0
100
AcDbVertex
100
AcDb2dVertex
 10
-3.150503
 20
-3.28713
 30
0.0
 70
     8
  0
VERTEX
  5
369E
100
AcDbEntity
  8
0
100
AcDbVertex
100
AcDb2dVertex
 10
-3.115015
 20
-3.333769
 30
0.0
 70
     8
  0
VERTEX
  5
369F
100
AcDbEntity
  8
0
100
AcDbVertex
100
AcDb2dVertex
 10
-3.081018
 20
-3.380609
 30
0.0
 70
     8
  0
VERTEX
  5
36A0
100
AcDbEntity
  8
0
100
AcDbVertex
100
AcDb2dVertex
 10
-3.048802
 20
-3.426975
 30
0.0
 70
     8
  0
VERTEX
  5
36A1
100
AcDbEntity
  8
0
100
AcDbVertex
100
AcDb2dVertex
 10
-3.018566
 20
-3.472342
 30
0.0
 70
     8
  0
VERTEX
  5
36A2
100
AcDbEntity
  8
0
100
AcDbVertex
100
AcDb2dVertex
 10
-2.990167
 20
-3.516777
 30
0.0
 70
     8
  0
VERTEX
  5
36A3
100
AcDbEntity
  8
0
100
AcDbVertex
100
AcDb2dVertex
 10
-2.963376
 20
-3.560494
 30
0.0
 70
     8
  0
VERTEX
  5
36A4
100
AcDbEntity
  8
0
100
AcDbVertex
100
AcDb2dVertex
 10
-2.937962
 20
-3.603709
 30
0.0
 70
     8
  0
VERTEX
  5
36A5
100
AcDbEntity
  8
0
100
AcDbVertex
100
AcDb2dVertex
 10
-2.913697
 20
-3.646637
 30
0.0
 70
     8
  0
VERTEX
  5
36A6
100
AcDbEntity
  8
0
100
AcDbVertex
100
AcDb2dVertex
 10
-2.89035
 20
-3.689494
 30
0.0
 70
     8
  0
VERTEX
  5
36A7
100
AcDbEntity
  8
0
100
AcDbVertex
100
AcDb2dVertex
 10
-2.867692
 20
-3.732494
 30
0.0
 70
     8
  0
VERTEX
  5
36A8
100
AcDbEntity
  8
0
100
AcDbVertex
100
AcDb2dVertex
 10
-2.845494
 20
-3.775852
 30
0.0
 70
     8
  0
VERTEX
  5
36A9
100
AcDbEntity
  8
0
100
AcDbVertex
100
AcDb2dVertex
 10
-2.823525
 20
-3.819735
 30
0.0
 70
     8
  0
VERTEX
  5
36AA
100
AcDbEntity
  8
0
100
AcDbVertex
100
AcDb2dVertex
 10
-2.801556
 20
-3.864105
 30
0.0
 70
     8
  0
VERTEX
  5
36AB
100
AcDbEntity
  8
0
100
AcDbVertex
100
AcDb2dVertex
 10
-2.779357
 20
-3.908876
 30
0.0
 70
     8
  0
VERTEX
  5
36AC
100
AcDbEntity
  8
0
100
AcDbVertex
100
AcDb2dVertex
 10
-2.7567
 20
-3.953963
 30
0.0
 70
     8
  0
VERTEX
  5
36AD
100
AcDbEntity
  8
0
100
AcDbVertex
100
AcDb2dVertex
 10
-2.733353
 20
-3.99928
 30
0.0
 70
     8
  0
VERTEX
  5
36AE
100
AcDbEntity
  8
0
100
AcDbVertex
100
AcDb2dVertex
 10
-2.709087
 20
-4.04474
 30
0.0
 70
     8
  0
VERTEX
  5
36AF
100
AcDbEntity
  8
0
100
AcDbVertex
100
AcDb2dVertex
 10
-2.683674
 20
-4.090258
 30
0.0
 70
     8
  0
VERTEX
  5
36B0
100
AcDbEntity
  8
0
100
AcDbVertex
100
AcDb2dVertex
 10
-2.656883
 20
-4.135747
 30
0.0
 70
     8
  0
VERTEX
  5
36B1
100
AcDbEntity
  8
0
100
AcDbVertex
100
AcDb2dVertex
 10
-2.628522
 20
-4.18108
 30
0.0
 70
     8
  0
VERTEX
  5
36B2
100
AcDbEntity
  8
0
100
AcDbVertex
100
AcDb2dVertex
 10
-2.598554
 20
-4.225969
 30
0.0
 70
     8
  0
VERTEX
  5
36B3
100
AcDbEntity
  8
0
100
AcDbVertex
100
AcDb2dVertex
 10
-2.566979
 20
-4.270083
 30
0.0
 70
     8
  0
VERTEX
  5
36B4
100
AcDbEntity
  8
0
100
AcDbVertex
100
AcDb2dVertex
 10
-2.533796
 20
-4.313093
 30
0.0
 70
     8
  0
VERTEX
  5
36B5
100
AcDbEntity
  8
0
100
AcDbVertex
100
AcDb2dVertex
 10
-2.499005
 20
-4.354668
 30
0.0
 70
     8
  0
VERTEX
  5
36B6
100
AcDbEntity
  8
0
100
AcDbVertex
100
AcDb2dVertex
 10
-2.462607
 20
-4.394478
 30
0.0
 70
     8
  0
VERTEX
  5
36B7
100
AcDbEntity
  8
0
100
AcDbVertex
100
AcDb2dVertex
 10
-2.424602
 20
-4.432195
 30
0.0
 70
     8
  0
VERTEX
  5
36B8
100
AcDbEntity
  8
0
100
AcDbVertex
100
AcDb2dVertex
 10
-2.384989
 20
-4.467486
 30
0.0
 70
     8
  0
VERTEX
  5
36B9
100
AcDbEntity
  8
0
100
AcDbVertex
100
AcDb2dVertex
 10
-2.343734
 20
-4.500094
 30
0.0
 70
     8
  0
VERTEX
  5
36BA
100
AcDbEntity
  8
0
100
AcDbVertex
100
AcDb2dVertex
 10
-2.300663
 20
-4.530041
 30
0.0
 70
     8
  0
VERTEX
  5
36BB
100
AcDbEntity
  8
0
100
AcDbVertex
100
AcDb2dVertex
 10
-2.255569
 20
-4.557421
 30
0.0
 70
     8
  0
VERTEX
  5
36BC
100
AcDbEntity
  8
0
100
AcDbVertex
100
AcDb2dVertex
 10
-2.208243
 20
-4.582325
 30
0.0
 70
     8
  0
VERTEX
  5
36BD
100
AcDbEntity
  8
0
100
AcDbVertex
100
AcDb2dVertex
 10
-2.158476
 20
-4.604848
 30
0.0
 70
     8
  0
VERTEX
  5
36BE
100
AcDbEntity
  8
0
100
AcDbVertex
100
AcDb2dVertex
 10
-2.106062
 20
-4.625084
 30
0.0
 70
     8
  0
VERTEX
  5
36BF
100
AcDbEntity
  8
0
100
AcDbVertex
100
AcDb2dVertex
 10
-2.050792
 20
-4.643124
 30
0.0
 70
     8
  0
VERTEX
  5
36C0
100
AcDbEntity
  8
0
100
AcDbVertex
100
AcDb2dVertex
 10
-1.992458
 20
-4.659063
 30
0.0
 70
     8
  0
VERTEX
  5
36C1
100
AcDbEntity
  8
0
100
AcDbVertex
100
AcDb2dVertex
 10
-1.930989
 20
-4.672984
 30
0.0
 70
     8
  0
VERTEX
  5
36C2
100
AcDbEntity
  8
0
100
AcDbVertex
100
AcDb2dVertex
 10
-1.866873
 20
-4.684932
 30
0.0
 70
     8
  0
VERTEX
  5
36C3
100
AcDbEntity
  8
0
100
AcDbVertex
100
AcDb2dVertex
 10
-1.800733
 20
-4.694944
 30
0.0
 70
     8
  0
VERTEX
  5
36C4
100
AcDbEntity
  8
0
100
AcDbVertex
100
AcDb2dVertex
 10
-1.733194
 20
-4.703055
 30
0.0
 70
     8
  0
VERTEX
  5
36C5
100
AcDbEntity
  8
0
100
AcDbVertex
100
AcDb2dVertex
 10
-1.66488
 20
-4.709301
 30
0.0
 70
     8
  0
VERTEX
  5
36C6
100
AcDbEntity
  8
0
100
AcDbVertex
100
AcDb2dVertex
 10
-1.596415
 20
-4.713718
 30
0.0
 70
     8
  0
VERTEX
  5
36C7
100
AcDbEntity
  8
0
100
AcDbVertex
100
AcDb2dVertex
 10
-1.528423
 20
-4.716342
 30
0.0
 70
     8
  0
VERTEX
  5
36C8
100
AcDbEntity
  8
0
100
AcDbVertex
100
AcDb2dVertex
 10
-1.46153
 20
-4.717209
 30
0.0
 70
     8
  0
VERTEX
  5
36C9
100
AcDbEntity
  8
0
100
AcDbVertex
100
AcDb2dVertex
 10
-2.38009
 20
-3.365769
 30
0.0
 70
    16
  0
VERTEX
  5
36CA
100
AcDbEntity
  8
0
100
AcDbVertex
100
AcDb2dVertex
 10
-2.843044
 20
-3.879904
 30
0.0
 70
    16
  0
VERTEX
  5
36CB
100
AcDbEntity
  8
0
100
AcDbVertex
100
AcDb2dVertex
 10
-3.379483
 20
-4.151661
 30
0.0
 70
    16
  0
VERTEX
  5
36CC
100
AcDbEntity
  8
0
100
AcDbVertex
100
AcDb2dVertex
 10
-3.952665
 20
-4.151661
 30
0.0
 70
    16
  0
VERTEX
  5
36CD
100
AcDbEntity
  8
0
100
AcDbVertex
100
AcDb2dVertex
 10
-4.393574
 20
-4.034144
 30
0.0
 70
    16
  0
VERTEX
  5
36CE
100
AcDbEntity
  8
0
100
AcDbVertex
100
AcDb2dVertex
 10
-4.643422
 20
-3.762387
 30
0.0
 70
    16
  0
VERTEX
  5
36CF
100
AcDbEntity
  8
0
100
AcDbVertex
100
AcDb2dVertex
 10
-4.738952
 20
-3.497975
 30
0.0
 70
    16
  0
VERTEX
  5
36D0
100
AcDbEntity
  8
0
100
AcDbVertex
100
AcDb2dVertex
 10
-4.665467
 20
-3.211528
 30
0.0
 70
    16
  0
VERTEX
  5
36D1
100
AcDbEntity
  8
0
100
AcDbVertex
100
AcDb2dVertex
 10
-4.445013
 20
-2.947116
 30
0.0
 70
    16
  0
VERTEX
  5
36D2
100
AcDbEntity
  8
0
100
AcDbVertex
100
AcDb2dVertex
 10
-4.106983
 20
-2.866323
 30
0.0
 70
    16
  0
VERTEX
  5
36D3
100
AcDbEntity
  8
0
100
AcDbVertex
100
AcDb2dVertex
 10
-3.644029
 20
-2.903047
 30
0.0
 70
    16
  0
VERTEX
  5
36D4
100
AcDbEntity
  8
0
100
AcDbVertex
100
AcDb2dVertex
 10
-3.342741
 20
-3.035253
 30
0.0
 70
    16
  0
VERTEX
  5
36D5
100
AcDbEntity
  8
0
100
AcDbVertex
100
AcDb2dVertex
 10
-3.026756
 20
-3.439216
 30
0.0
 70
    16
  0
VERTEX
  5
36D6
100
AcDbEntity
  8
0
100
AcDbVertex
100
AcDb2dVertex
 10
-2.843044
 20
-3.769732
 30
0.0
 70
    16
  0
VERTEX
  5
36D7
100
AcDbEntity
  8
0
100
AcDbVertex
100
AcDb2dVertex
 10
-2.674029
 20
-4.136971
 30
0.0
 70
    16
  0
VERTEX
  5
36D8
100
AcDbEntity
  8
0
100
AcDbVertex
100
AcDb2dVertex
 10
-2.402135
 20
-4.496866
 30
0.0
 70
    16
  0
VERTEX
  5
36D9
100
AcDbEntity
  8
0
100
AcDbVertex
100
AcDb2dVertex
 10
-2.027363
 20
-4.680485
 30
0.0
 70
    16
  0
VERTEX
  5
36DA
100
AcDbEntity
  8
0
100
AcDbVertex
100
AcDb2dVertex
 10
-1.637893
 20
-4.717209
 30
0.0
 70
    16
  0
VERTEX
  5
36DB
100
AcDbEntity
  8
0
100
AcDbVertex
100
AcDb2dVertex
 10
-1.46153
 20
-4.717209
 30
0.0
 70
    16
  0
SEQEND
  5
36DC
100
AcDbEntity
  8
0
  0
LINE
  5
36DD
100
AcDbEntity
  8
0
100
AcDbLine
 10
-0.64153
 20
-4.532209
 30
0.0
 11
-0.64153
 21
-4.902209
 31
0.0
  0
LINE
  5
36DE
100
AcDbEntity
  8
0
100
AcDbLine
 10
-1.46153
 20
-4.867209
 30
0.0
 11
-1.46153
 21
-4.567209
 31
0.0
  0
LINE
  5
36DF
100
AcDbEntity
  8
0
100
AcDbLine
 10
-1.46153
 20
-4.867209
 30
0.0
 11
-0.64153
 21
-4.902209
 31
0.0
  0
LINE
  5
36E0
100
AcDbEntity
  8
0
100
AcDbLine
 10
-0.64153
 20
-4.902209
 30
0.0
 11
-0.47153
 21
-5.042209
 31
0.0
  0
LINE
  5
36E1
100
AcDbEntity
  8
0
100
AcDbLine
 10
-1.46153
 20
-4.567209
 30
0.0
 11
-0.64153
 21
-4.532209
 31
0.0
  0
LINE
  5
36E2
100
AcDbEntity
  8
0
100
AcDbLine
 10
-0.64153
 20
-4.532209
 30
0.0
 11
-0.47153
 21
-4.392209
 31
0.0
  0
ARC
  5
36E3
100
AcDbEntity
  8
0
100
AcDbCircle
 10
-1.82918
 20
-2.158496
 30
0.0
 40
0.75
100
AcDbArc
 50
279.366789
 51
260.633211
  0
INSERT
  5
36E4
100
AcDbEntity
  8
BODY
100
AcDbBlockReference
  2
TOGGLE-TOP
 10
-1.45018
 20
-2.154496
 30
0.0
  0
LWPOLYLINE
  5
36E5
100
AcDbEntity
  8
BODY
100
AcDbPolyline
 90
        2
 70
     1
 43
0.2
 10
-1.92918
 20
-2.568267
 42
1.0
 10
-1.72918
 20
-2.568267
 42
1.0
  0
CIRCLE
  5
36E6
100
AcDbEntity
  8
0
100
AcDbCircle
 10
-2.41548
 20
-2.496996
 30
0.0
 40
0.048
  0
CIRCLE
  5
36E7
100
AcDbEntity
  8
0
100
AcDbCircle
 10
-2.41548
 20
-2.496996
 30
0.0
 40
0.03335
  0
CIRCLE
  5
36E8
100
AcDbEntity
  8
0
100
AcDbCircle
 10
-2.41548
 20
-2.496996
 30
0.0
 40
0.043
  0
INSERT
  5
36E9
100
AcDbEntity
  8
SILK-SCREEN
100
AcDbBlockReference
  2
CE-MARK
 10
-2.207011
 20
-2.559895
 30
0.0
 41
0.5
 42
0.5
 43
0.5
  0
LINE
  5
36EA
100
AcDbEntity
  8
0
100
AcDbLine
 10
-1.707115
 20
-2.898496
 30
0.0
 11
-1.951246
 21
-2.898496
 31
0.0
  0
LINE
  5
36EB
100
AcDbEntity
  8
0
  6
HIDDEN
100
AcDbLine
 10
-1.91118
 20
-2.766995
 30
0.0
 11
-1.91118
 21
-2.898496
 31
0.0
1001
ACAD
1000
ASC_BOUNDS
1002
{
1070
    19
1002
}
  0
LINE
  5
36EC
100
AcDbEntity
  8
0
100
AcDbLine
 10
-1.76418
 20
-2.769045
 30
0.0
 11
-1.76418
 21
-2.898496
 31
0.0
1001
ACAD
1000
ASC_BOUNDS
1002
{
1070
    19
1002
}
  0
LINE
  5
36ED
100
AcDbEntity
  8
0
100
AcDbLine
 10
-1.89418
 20
-2.769045
 30
0.0
 11
-1.89418
 21
-2.898496
 31
0.0
1001
ACAD
1000
ASC_BOUNDS
1002
{
1070
    19
1002
}
  0
LINE
  5
36EE
100
AcDbEntity
  8
0
  6
HIDDEN
100
AcDbLine
 10
-1.74718
 20
-2.766995
 30
0.0
 11
-1.74718
 21
-2.898496
 31
0.0
1001
ACAD
1000
ASC_BOUNDS
1002
{
1070
    19
1002
}
  0
INSERT
  5
36EF
100
AcDbEntity
  8
BODY
100
AcDbBlockReference
  2
BNC
 10
-2.12418
 20
-2.158496
 30
0.0
  0
ARC
  5
36F0
100
AcDbEntity
  8
0
100
AcDbCircle
 10
-2.12418
 20
-2.158496
 30
0.0
 40
0.21875
100
AcDbArc
 50
122.251453
 51
57.748547
  0
TEXT
  5
36F1
100
AcDbEntity
  8
SILK-SCREEN
100
AcDbText
 10
-2.311534
 20
-1.855977
 30
0.0
 40
0.075
  1
PDA500
  7
HL-HD
100
AcDbText
  0
LINE
  5
36F2
100
AcDbEntity
  8
0
100
AcDbLine
 10
-2.240913
 20
-1.973496
 30
0.0
 11
-2.007448
 21
-1.973496
 31
0.0
  0
CIRCLE
  5
36F3
100
AcDbEntity
  8
0
100
AcDbCircle
 10
-1.77918
 20
-1.778496
 30
0.0
 40
0.08
  0
TEXT
  5
36F4
100
AcDbEntity
  8
SILK-SCREEN
100
AcDbText
 10
-1.760822
 20
-1.953364
 30
0.0
 40
0.05
  1
I
  7
HL-HD
100
AcDbText
  0
TEXT
  5
36F5
100
AcDbEntity
  8
SILK-SCREEN
100
AcDbText
 10
-1.817887
 20
-1.953364
 30
0.0
 40
0.05
  1
A
  7
HL-HD
100
AcDbText
  0
TEXT
  5
36F6
100
AcDbEntity
  8
SILK-SCREEN
100
AcDbText
 10
-1.874446
 20
-1.953197
 30
0.0
 40
0.05
  1
G
  7
HL-HD
100
AcDbText
  0
TEXT
  5
36F7
100
AcDbEntity
  8
SILK-SCREEN
100
AcDbText
 10
-1.738821
 20
-1.953364
 30
0.0
 40
0.05
  1
N
  7
HL-HD
100
AcDbText
  0
CIRCLE
  5
36F8
100
AcDbEntity
  8
0
100
AcDbCircle
 10
-1.82918
 20
-1.481496
 30
0.0
 40
0.048
  0
CIRCLE
  5
36F9
100
AcDbEntity
  8
0
100
AcDbCircle
 10
-1.82918
 20
-1.481496
 30
0.0
 40
0.043
  0
CIRCLE
  5
36FA
100
AcDbEntity
  8
0
100
AcDbCircle
 10
-1.82918
 20
-1.481496
 30
0.0
 40
0.03335
  0
CIRCLE
  5
36FB
100
AcDbEntity
  8
0
100
AcDbCircle
 10
-1.242881
 20
-2.496996
 30
0.0
 40
0.048
  0
CIRCLE
  5
36FC
100
AcDbEntity
  8
0
100
AcDbCircle
 10
-1.242881
 20
-2.496996
 30
0.0
 40
0.03335
  0
CIRCLE
  5
36FD
100
AcDbEntity
  8
0
100
AcDbCircle
 10
-1.242881
 20
-2.496996
 30
0.0
 40
0.043
  0
CIRCLE
  5
36FE
100
AcDbEntity
  8
0
100
AcDbCircle
 10
-1.45018
 20
-2.154496
 30
0.0
 40
0.0955
  0
TEXT
  5
36FF
100
AcDbEntity
  8
SILK-SCREEN
100
AcDbText
 10
-1.5441
 20
-2.437059
 30
0.0
 40
0.075
  1
OFF
  7
HL-HD
100
AcDbText
  0
TEXT
  5
3700
100
AcDbEntity
  8
SILK-SCREEN
100
AcDbText
 10
-1.533889
 20
-1.956686
 30
0.0
 40
0.075
  1
ON
  7
HL-HD
100
AcDbText
  0
INSERT
  5
3701
100
AcDbEntity
  8
SILK-SCREEN
100
AcDbBlockReference
  2
LOGO
 10
-2.131902
 20
-1.653813
 30
0.0
 41
0.3
 42
0.3
 43
0.3
  0
LINE
  5
3702
100
AcDbEntity
  8
0
  6
CONTINUOUS
100
AcDbLine
 39
0.18
 10
0.894621
 20
-2.670246
 30
0.0
 11
0.835193
 21
-2.670246
 31
0.0
  0
LINE
  5
3703
100
AcDbEntity
  8
0
100
AcDbLine
 39
0.18
 10
0.89755
 20
-2.667317
 30
0.0
 11
0.894621
 21
-2.670246
 31
0.0
  0
LINE
  5
3704
100
AcDbEntity
  8
0
100
AcDbLine
 39
0.18
 10
0.805193
 20
-2.670246
 30
0.0
 11
0.815586
 21
-2.652246
 31
0.0
1001
ACAD
1000
ASC_BOUNDS
1002
{
1070
    19
1005
3735
1005
3734
1002
}
  0
LINE
  5
3705
100
AcDbEntity
  8
0
100
AcDbLine
 39
0.18
 10
0.815586
 20
-2.652246
 30
0.0
 11
0.824801
 21
-2.652246
 31
0.0
1001
ACAD
1000
ASC_BOUNDS
1002
{
1070
    19
1005
3735
1005
3734
1002
}
  0
LINE
  5
3706
100
AcDbEntity
  8
0
100
AcDbLine
 39
0.18
 10
0.835193
 20
-2.670246
 30
0.0
 11
0.824801
 21
-2.652246
 31
0.0
1001
ACAD
1000
ASC_BOUNDS
1002
{
1070
    19
1002
}
  0
LINE
  5
3707
100
AcDbEntity
  8
0
  6
CONTINUOUS
100
AcDbLine
 39
0.18
 10
0.894621
 20
-1.646746
 30
0.0
 11
0.835193
 21
-1.646746
 31
0.0
  0
LINE
  5
3708
100
AcDbEntity
  8
0
100
AcDbLine
 39
0.18
 10
0.815586
 20
-1.664746
 30
0.0
 11
0.824801
 21
-1.664746
 31
0.0
1001
ACAD
1000
ASC_BOUNDS
1002
{
1070
    19
1005
372C
1005
3735
1002
}
  0
LINE
  5
3709
100
AcDbEntity
  8
0
100
AcDbLine
 39
0.18
 10
0.835193
 20
-1.646746
 30
0.0
 11
0.824801
 21
-1.664746
 31
0.0
1001
ACAD
1000
ASC_BOUNDS
1002
{
1070
    19
1005
372C
1005
3735
1002
}
  0
LINE
  5
370A
100
AcDbEntity
  8
0
100
AcDbLine
 39
0.18
 10
0.805193
 20
-1.646746
 30
0.0
 11
0.815586
 21
-1.664746
 31
0.0
1001
ACAD
1000
ASC_BOUNDS
1002
{
1070
    19
1005
372C
1005
3735
1002
}
  0
LINE
  5
370B
100
AcDbEntity
  8
0
100
AcDbLine
 39
0.18
 10
0.89755
 20
-1.649674
 30
0.0
 11
0.894621
 21
-1.646746
 31
0.0
  0
ARC
  5
370C
100
AcDbEntity
  8
0
100
AcDbCircle
 10
5.577771
 20
-2.158496
 30
0.0
 40
0.75
100
AcDbArc
 50
279.366789
 51
260.633211
  0
CIRCLE
  5
370D
100
AcDbEntity
  8
0
100
AcDbCircle
 10
5.577771
 20
-2.158496
 30
0.0
 40
0.6125
  0
LINE
  5
370E
100
AcDbEntity
  8
D1
100
AcDbLine
 10
0.593315
 20
-3.023263
 30
0.0
 11
1.040779
 21
-3.654608
 31
0.0
  0
TEXT
  5
370F
100
AcDbEntity
  8
D1
100
AcDbText
 10
1.168776
 20
-3.837345
 30
0.0
 40
0.08
  1
(M4 TAP THRU -EC VERSION)
100
AcDbText
  0
TEXT
  5
3710
100
AcDbEntity
  8
D1
100
AcDbText
 10
1.46586
 20
-5.481774
 30
0.0
 40
0.08
  1
RECEPTACLE ON DETECTOR
 72
     1
 11
2.332527
 21
-5.481774
 31
0.0
100
AcDbText
  0
TEXT
  5
3711
100
AcDbEntity
  8
D1
100
AcDbText
 10
1.519194
 20
-5.34844
 30
0.0
 40
0.08
  1
END VIEW OF 5-PIN DIN
 72
     1
 11
2.332527
 21
-5.34844
 31
0.0
100
AcDbText
  0
TEXT
  5
3712
100
AcDbEntity
  8
D1
100
AcDbText
 10
2.270329
 20
-4.211157
 30
0.0
 40
0.07
  1
n.c.
100
AcDbText
  0
CIRCLE
  5
3713
100
AcDbEntity
  8
0
100
AcDbCircle
 10
2.42811
 20
-4.625285
 30
0.0
 40
0.0325
  0
CIRCLE
  5
3714
100
AcDbEntity
  8
0
100
AcDbCircle
 10
2.336186
 20
-4.717209
 30
0.0
 40
0.24
  0
CIRCLE
  5
3715
100
AcDbEntity
  8
0
100
AcDbCircle
 10
2.336186
 20
-4.717209
 30
0.0
 40
0.295
  0
CIRCLE
  5
3716
100
AcDbEntity
  8
0
100
AcDbCircle
 10
2.336186
 20
-4.717209
 30
0.0
 40
0.325
  0
LINE
  5
3717
100
AcDbEntity
  8
D1
100
AcDbLine
 10
1.040779
 20
-3.654608
 30
0.0
 11
1.140779
 21
-3.654608
 31
0.0
  0
CIRCLE
  5
3718
100
AcDbEntity
  8
0
100
AcDbCircle
 10
2.244262
 20
-4.625285
 30
0.0
 40
0.0325
  0
TEXT
  5
3719
100
AcDbEntity
  8
D1
100
AcDbText
 10
1.421511
 20
-4.759686
 30
0.0
 40
0.07
  1
COMMON
100
AcDbText
  0
LINE
  5
371A
100
AcDbEntity
  8
D1
100
AcDbLine
 10
2.142275
 20
-4.717209
 30
0.0
 11
1.862199
 21
-4.717209
 31
0.0
  0
LINE
  5
371B
100
AcDbEntity
  8
0
100
AcDbLine
 10
2.386186
 20
-4.877209
 30
0.0
 11
2.386186
 21
-4.951943
 31
0.0
  0
LINE
  5
371C
100
AcDbEntity
  8
0
100
AcDbLine
 10
2.286186
 20
-4.877209
 30
0.0
 11
2.286186
 21
-4.951943
 31
0.0
  0
CIRCLE
  5
371D
100
AcDbEntity
  8
0
100
AcDbCircle
 10
2.206186
 20
-4.717209
 30
0.0
 40
0.0325
  0
LINE
  5
371E
100
AcDbEntity
  8
0
100
AcDbLine
 10
2.286186
 20
-4.877209
 30
0.0
 11
2.386186
 21
-4.877209
 31
0.0
  0
TEXT
  5
371F
100
AcDbEntity
  8
D1
100
AcDbText
 10
1.582494
 20
-4.36404
 30
0.0
 40
0.07
  1
-12VDC
100
AcDbText
  0
TEXT
  5
3720
100
AcDbEntity
  8
D1
100
AcDbText
 10
1.168776
 20
-3.690609
 30
0.0
 40
0.08
  1
#8-32 TAP THRU
100
AcDbText
  0
LINE
  5
3721
100
AcDbEntity
  8
D1
100
AcDbLine
 10
2.19907
 20
-4.580093
 30
0.0
 11
2.001027
 21
-4.38205
 31
0.0
  0
LINE
  5
3722
100
AcDbEntity
  8
D1
100
AcDbLine
 10
2.336186
 20
-4.523298
 30
0.0
 11
2.336186
 21
-4.243223
 31
0.0
  0
CIRCLE
  5
3723
100
AcDbEntity
  8
0
100
AcDbCircle
 10
2.336186
 20
-4.587209
 30
0.0
 40
0.0325
  0
LINE
  5
3724
100
AcDbEntity
  8
D1
100
AcDbLine
 10
2.530097
 20
-4.717209
 30
0.0
 11
2.810172
 21
-4.717209
 31
0.0
  0
CIRCLE
  5
3725
100
AcDbEntity
  8
0
100
AcDbCircle
 10
2.466186
 20
-4.717209
 30
0.0
 40
0.0325
  0
TEXT
  5
3726
100
AcDbEntity
  8
D1
100
AcDbText
 10
2.870356
 20
-4.741402
 30
0.0
 40
0.07
  1
n.c.
100
AcDbText
  0
TEXT
  5
3727
100
AcDbEntity
  8
D1
100
AcDbText
 10
2.672786
 20
-4.360736
 30
0.0
 40
0.07
  1
+12VDC
100
AcDbText
  0
LINE
  5
3728
100
AcDbEntity
  8
D1
100
AcDbLine
 10
2.473302
 20
-4.580093
 30
0.0
 11
2.671345
 21
-4.38205
 31
0.0
  0
LINE
  5
3729
100
AcDbEntity
  8
D1
100
AcDbLine
 10
1.061979
 20
-1.910757
 30
0.0
 11
1.541948
 21
-1.198018
 31
0.0
  0
LINE
  5
372A
100
AcDbEntity
  8
D1
100
AcDbLine
 10
0.805193
 20
-1.551134
 30
0.0
 11
0.805193
 21
-1.242206
 31
0.0
  0
LINE
  5
372B
100
AcDbEntity
  8
D1
100
AcDbLine
 10
0.892612
 20
-2.057496
 30
0.0
 11
0.892612
 21
-1.242206
 31
0.0
  0
INSERT
  5
372C
100
AcDbEntity
  8
0
100
AcDbBlockReference
  2
*X9
 10
-8.749454
 20
-14.666316
 30
0.0
1001
ACAD
1000
HATCH
1002
{
1070
    19
1000
ANSI31
1040
0.2
1040
0.0
1000
ASC_BOUNDS
1070
     1
1070
     1
1070
    19
1005
3775
1005
3776
1005
3709
1005
3708
1005
370A
1005
3777
1005
372F
1005
3783
1005
372E
1005
3755
1005
3771
1005
3754
1005
3753
1005
3773
1005
3774
1005
375B
1005
376A
1005
376B
1005
375A
1000
ASC_SEEDPOINT
1011
0.760808
1021
-1.514454
1031
0.0
1002
}
  0
INSERT
  5
372D
100
AcDbEntity
  8
0
100
AcDbBlockReference
  2
*X7
 10
-8.749454
 20
-14.666316
 30
0.0
1001
ACAD
1000
HATCH
1002
{
1070
    19
1000
ANSI31
1040
0.2
1040
1.570796
1002
}
  0
LINE
  5
372E
100
AcDbEntity
  8
0
100
AcDbLine
 10
0.244621
 20
-2.903496
 30
0.0
 11
0.244621
 21
-1.403496
 31
0.0
1001
ACAD
1000
ASC_BOUNDS
1002
{
1070
    19
1005
0
1005
372C
1005
3735
1005
3735
1002
}
  0
LINE
  5
372F
100
AcDbEntity
  8
0
100
AcDbLine
 10
0.805193
 20
-1.540996
 30
0.0
 11
0.753631
 21
-1.403496
 31
0.0
1001
ACAD
1000
ASC_BOUNDS
1002
{
1070
    19
1005
372C
1005
3735
1002
}
  0
LINE
  5
3730
100
AcDbEntity
  8
BODY
100
AcDbLine
 10
0.244621
 20
-2.903496
 30
0.0
 11
0.244621
 21
-1.403496
 31
0.0
1001
ACAD
1000
ASC_BOUNDS
1002
{
1070
    19
1002
}
  0
LINE
  5
3731
100
AcDbEntity
  8
BODY
100
AcDbLine
 10
0.182121
 20
-2.903496
 30
0.0
 11
0.182121
 21
-1.403496
 31
0.0
1001
ACAD
1000
ASC_BOUNDS
1002
{
1070
    19
1002
}
  0
LINE
  5
3732
100
AcDbEntity
  8
0
  6
HIDDEN
100
AcDbLine
 10
1.011693
 20
-2.153496
 30
0.0
 11
1.409078
 21
-2.153496
 31
0.0
  0
LINE
  5
3733
100
AcDbEntity
  8
D1
100
AcDbLine
 10
0.974785
 20
-2.842734
 30
0.0
 11
1.244041
 21
-3.192591
 31
0.0
  0
INSERT
  5
3734
100
AcDbEntity
  8
0
100
AcDbBlockReference
  2
*X10
 10
-8.749454
 20
-14.666316
 30
0.0
1001
ACAD
1000
HATCH
1002
{
1070
    19
1000
ANSI31
1040
0.2
1040
0.0
1000
ASC_BOUNDS
1070
     1
1070
     1
1070
    15
1005
3768
1005
3767
1005
3736
1005
3750
1005
374E
1005
373B
1005
3748
1005
373D
1005
374F
1005
374D
1005
3704
1005
3705
1005
3752
1005
3751
1005
3739
1000
ASC_SEEDPOINT
1011
0.86313
1021
-2.512412
1031
0.0
1002
}
  0
INSERT
  5
3735
100
AcDbEntity
  8
0
100
AcDbBlockReference
  2
*X8
 10
-8.749454
 20
-14.666316
 30
0.0
1001
ACAD
1000
HATCH
1002
{
1070
    19
1000
ANSI31
1040
0.2
1040
0.0
1000
ASC_BOUNDS
1070
     3
1070
     1
1070
     4
1005
373B
1005
372E
1005
373D
1005
3742
1070
     1
1070
    15
1005
3768
1005
3767
1005
375B
1005
3750
1005
374E
1005
373B
1005
3748
1005
373D
1005
374F
1005
374D
1005
3704
1005
3705
1005
3752
1005
3751
1005
3739
1070
     1
1070
    19
1005
3783
1005
372E
1005
3755
1005
3771
1005
3754
1005
3753
1005
3773
1005
3774
1005
375B
1005
376A
1005
376B
1005
3739
1005
3775
1005
3776
1005
3709
1005
3708
1005
370A
1005
3777
1005
372F
1000
ASC_SEEDPOINT
1011
0.414667
1021
-1.507041
1031
0.0
1002
}
  0
LINE
  5
3736
100
AcDbEntity
  8
0
100
AcDbLine
 10
0.821193
 20
-2.312996
 30
0.0
 11
0.821193
 21
-2.598496
 31
0.0
1001
ACAD
1000
ASC_BOUNDS
1002
{
1070
    19
1005
3734
1002
}
  0
LINE
  5
3737
100
AcDbEntity
  8
BODY
100
AcDbLine
 10
0.595112
 20
-2.733496
 30
0.0
 11
0.595112
 21
-1.573496
 31
0.0
  0
LINE
  5
3738
100
AcDbEntity
  8
BODY
100
AcDbLine
 10
0.657612
 20
-2.733496
 30
0.0
 11
0.657612
 21
-1.573496
 31
0.0
  0
LINE
  5
3739
100
AcDbEntity
  8
0
100
AcDbLine
 10
0.904621
 20
-2.650246
 30
0.0
 11
0.904621
 21
-2.312996
 31
0.0
1001
ACAD
1000
ASC_BOUNDS
1002
{
1070
    19
1005
0
1005
3735
1005
3735
1005
3734
1002
}
  0
LWPOLYLINE
  5
373A
100
AcDbEntity
  8
BODY
100
AcDbPolyline
 90
        4
 70
     1
 43
0.0
 10
0.139121
 20
-2.690996
 10
0.139121
 20
-2.373996
 10
0.182121
 20
-2.373996
 10
0.182121
 20
-2.690996
1001
ACAD
1000
ASC_BOUNDS
1002
{
1070
    19
1002
}
  0
LINE
  5
373B
100
AcDbEntity
  8
0
100
AcDbLine
 10
0.244621
 20
-2.767496
 30
0.0
 11
0.755193
 21
-2.767496
 31
0.0
1001
ACAD
1000
ASC_BOUNDS
1002
{
1070
    19
1005
0
1005
3735
1005
3735
1005
3734
1002
}
  0
LWPOLYLINE
  5
373C
100
AcDbEntity
  8
BODY
100
AcDbPolyline
 90
        4
 70
     1
 43
0.0
 10
0.413971
 20
-2.898496
 10
0.413971
 20
-2.668496
 10
0.575271
 20
-2.668496
 10
0.575271
 20
-2.898496
  0
LINE
  5
373D
100
AcDbEntity
  8
0
100
AcDbLine
 10
0.757381
 20
-2.903496
 30
0.0
 11
0.244621
 21
-2.903496
 31
0.0
1001
ACAD
1000
ASC_BOUNDS
1002
{
1070
    19
1005
0
1005
3735
1005
3735
1005
3734
1002
}
  0
LINE
  5
373E
100
AcDbEntity
  8
D1
100
AcDbLine
 10
0.244621
 20
-2.923496
 30
0.0
 11
0.244621
 21
-3.266185
 31
0.0
  0
LINE
  5
373F
100
AcDbEntity
  8
D1
100
AcDbLine
 10
0.144621
 20
-3.242185
 30
0.0
 11
0.044621
 21
-3.242185
 31
0.0
  0
SOLID
  5
3740
100
AcDbEntity
  8
D1
100
AcDbTrace
 10
0.144621
 20
-3.225518
 30
0.0
 11
0.144621
 21
-3.258851
 31
0.0
 12
0.244621
 22
-3.242185
 32
0.0
 13
0.244621
 23
-3.242185
 33
0.0
  0
LINE
  5
3741
100
AcDbEntity
  8
BODY
100
AcDbLine
 10
0.244621
 20
-2.903496
 30
0.0
 11
0.182121
 21
-2.903496
 31
0.0
1001
ACAD
1000
ASC_BOUNDS
1002
{
1070
    19
1002
}
  0
LINE
  5
3742
100
AcDbEntity
  8
0
  6
HIDDEN
100
AcDbLine
 10
0.412621
 20
-2.767496
 30
0.0
 11
0.412621
 21
-2.903496
 31
0.0
1001
ACAD
1000
ASC_BOUNDS
1002
{
1070
    19
1005
3735
1002
}
  0
LINE
  5
3743
100
AcDbEntity
  8
D1
  6
CENTER
100
AcDbLine
 10
0.494621
 20
-2.574381
 30
0.0
 11
0.494621
 21
-3.097376
 31
0.0
1001
ACAD
1000
ASC_BOUNDS
1002
{
1070
    19
1002
}
  0
SOLID
  5
3744
100
AcDbEntity
  8
D1
100
AcDbTrace
 10
0.594621
 20
-3.225518
 30
0.0
 11
0.594621
 21
-3.258851
 31
0.0
 12
0.494621
 22
-3.242185
 32
0.0
 13
0.494621
 23
-3.242185
 33
0.0
  0
LINE
  5
3745
100
AcDbEntity
  8
D1
100
AcDbLine
 10
0.494621
 20
-3.122376
 30
0.0
 11
0.494621
 21
-3.266185
 31
0.0
  0
LINE
  5
3746
100
AcDbEntity
  8
D1
100
AcDbLine
 10
0.594621
 20
-3.242185
 30
0.0
 11
0.694621
 21
-3.242185
 31
0.0
  0
SOLID
  5
3747
100
AcDbEntity
  8
D1
100
AcDbTrace
 10
0.579715
 20
-3.032896
 30
0.0
 11
0.606915
 21
-3.013629
 31
0.0
 12
0.535511
 22
-2.941662
 32
0.0
 13
0.535511
 23
-2.941662
 33
0.0
  0
LINE
  5
3748
100
AcDbEntity
  8
0
  6
HIDDEN
100
AcDbLine
 10
0.576621
 20
-2.767496
 30
0.0
 11
0.576621
 21
-2.903496
 31
0.0
1001
ACAD
1000
ASC_BOUNDS
1002
{
1070
    19
1005
3735
1005
3734
1002
}
  0
LINE
  5
3749
100
AcDbEntity
  8
0
100
AcDbLine
 10
0.429621
 20
-2.767496
 30
0.0
 11
0.429621
 21
-2.903496
 31
0.0
1001
ACAD
1000
ASC_BOUNDS
1002
{
1070
    19
1002
}
  0
LINE
  5
374A
100
AcDbEntity
  8
0
100
AcDbLine
 10
0.559621
 20
-2.767496
 30
0.0
 11
0.559621
 21
-2.903496
 31
0.0
1001
ACAD
1000
ASC_BOUNDS
1002
{
1070
    19
1002
}
  0
LINE
  5
374B
100
AcDbEntity
  8
BODY
100
AcDbLine
 10
0.657612
 20
-2.733496
 30
0.0
 11
0.595112
 21
-2.733496
 31
0.0
  0
SOLID
  5
374C
100
AcDbEntity
  8
D1
100
AcDbTrace
 10
0.961577
 20
-2.852899
 30
0.0
 11
0.987993
 21
-2.832569
 31
0.0
 12
0.913795
 22
-2.763487
 32
0.0
 13
0.913795
 23
-2.763487
 33
0.0
  0
LINE
  5
374D
100
AcDbEntity
  8
0
100
AcDbLine
 10
0.805193
 20
-2.775996
 30
0.0
 11
0.805193
 21
-2.670246
 31
0.0
1001
ACAD
1000
ASC_BOUNDS
1002
{
1070
    19
1005
3735
1005
3734
1002
}
  0
LINE
  5
374E
100
AcDbEntity
  8
0
100
AcDbLine
 10
0.755193
 20
-2.767496
 30
0.0
 11
0.755193
 21
-2.598496
 31
0.0
1001
ACAD
1000
ASC_BOUNDS
1002
{
1070
    19
1005
3735
1005
3734
1002
}
  0
LINE
  5
374F
100
AcDbEntity
  8
0
100
AcDbLine
 10
0.805193
 20
-2.775996
 30
0.0
 11
0.757381
 21
-2.903496
 31
0.0
1001
ACAD
1000
ASC_BOUNDS
1002
{
1070
    19
1005
3735
1005
3734
1002
}
  0
LINE
  5
3750
100
AcDbEntity
  8
0
100
AcDbLine
 10
0.755193
 20
-2.598496
 30
0.0
 11
0.821193
 21
-2.598496
 31
0.0
1001
ACAD
1000
ASC_BOUNDS
1002
{
1070
    19
1005
3735
1005
3734
1002
}
  0
LINE
  5
3751
100
AcDbEntity
  8
0
100
AcDbLine
 10
0.89755
 20
-2.667317
 30
0.0
 11
0.904621
 21
-2.650246
 31
0.0
1001
ACAD
1000
ASC_BOUNDS
1002
{
1070
    19
1005
3735
1005
3734
1002
}
  0
LINE
  5
3752
100
AcDbEntity
  8
0
  6
HIDDEN
100
AcDbLine
 39
0.18
 10
0.826533
 20
-2.655246
 30
0.0
 11
0.90255
 21
-2.655246
 31
0.0
1001
ACAD
1000
ASC_BOUNDS
1002
{
1070
    19
1005
3735
1005
3734
1002
}
  0
LINE
  5
3753
100
AcDbEntity
  8
0
100
AcDbLine
 10
0.244621
 20
-1.539496
 30
0.0
 11
0.755193
 21
-1.539496
 31
0.0
1001
ACAD
1000
ASC_BOUNDS
1002
{
1070
    19
1005
372C
1005
3735
1002
}
  0
LINE
  5
3754
100
AcDbEntity
  8
0
  6
HIDDEN
100
AcDbLine
 10
0.432121
 20
-1.524496
 30
0.0
 11
0.244621
 21
-1.524496
 31
0.0
1001
ACAD
1000
ASC_BOUNDS
1002
{
1070
    19
1005
372C
1005
3735
1002
}
  0
LINE
  5
3755
100
AcDbEntity
  8
0
  6
HIDDEN
100
AcDbLine
 10
0.432121
 20
-1.438496
 30
0.0
 11
0.244621
 21
-1.438496
 31
0.0
1001
ACAD
1000
ASC_BOUNDS
1002
{
1070
    19
1005
372C
1005
3735
1002
}
  0
LINE
  5
3756
100
AcDbEntity
  8
0
100
AcDbLine
 10
0.432121
 20
-1.514496
 30
0.0
 11
0.244621
 21
-1.514496
 31
0.0
  0
LINE
  5
3757
100
AcDbEntity
  8
0
100
AcDbLine
 10
0.432121
 20
-1.448496
 30
0.0
 11
0.244621
 21
-1.448496
 31
0.0
  0
LWPOLYLINE
  5
3758
100
AcDbEntity
  8
BODY
100
AcDbPolyline
 90
        4
 70
     1
 43
0.0
 10
0.244621
 20
-2.143496
 10
0.244621
 20
-1.573496
 10
0.344621
 20
-1.573496
 10
0.344621
 20
-2.143496
  0
SOLID
  5
3759
100
AcDbEntity
  8
D1
100
AcDbTrace
 10
1.075803
 20
-1.920067
 30
0.0
 11
1.048154
 21
-1.901448
 31
0.0
 12
1.006122
 22
-1.993703
 32
0.0
 13
1.006122
 23
-1.993703
 33
0.0
  0
LINE
  5
375A
100
AcDbEntity
  8
0
100
AcDbLine
 10
0.904621
 20
-1.993996
 30
0.0
 11
0.904621
 21
-1.666746
 31
0.0
1001
ACAD
1000
ASC_BOUNDS
1002
{
1070
    19
1005
372C
1002
}
  0
LINE
  5
375B
100
AcDbEntity
  8
0
100
AcDbLine
 10
0.821193
 20
-1.708496
 30
0.0
 11
0.821193
 21
-1.993996
 31
0.0
1001
ACAD
1000
ASC_BOUNDS
1002
{
1070
    19
1005
0
1005
372C
1005
3735
1005
3735
1002
}
  0
LWPOLYLINE
  5
375C
100
AcDbEntity
  8
BODY
100
AcDbPolyline
 90
        4
 70
     0
 43
0.0
 10
0.563041
 20
-2.044496
 10
0.782612
 20
-2.044496
 10
0.782612
 20
-2.062496
 10
0.563041
 20
-2.062496
  0
LWPOLYLINE
  5
375D
100
AcDbEntity
  8
BODY
100
AcDbPolyline
 90
        4
 70
     0
 43
0.0
 10
0.563041
 20
-2.244496
 10
0.782612
 20
-2.244496
 10
0.782612
 20
-2.262496
 10
0.563041
 20
-2.262496
  0
LWPOLYLINE
  5
375E
100
AcDbEntity
  8
BODY
100
AcDbPolyline
 90
        4
 70
     1
 43
0.0
 10
0.657612
 20
-2.328496
 10
0.657612
 20
-1.978496
 10
0.782612
 20
-1.978496
 10
0.782612
 20
-2.328496
  0
LINE
  5
375F
100
AcDbEntity
  8
BODY
100
AcDbLine
 10
0.563041
 20
-2.262496
 30
0.0
 11
0.563041
 21
-2.244496
 31
0.0
  0
LINE
  5
3760
100
AcDbEntity
  8
BODY
100
AcDbLine
 10
0.563041
 20
-2.062496
 30
0.0
 11
0.563041
 21
-2.044496
 31
0.0
  0
LINE
  5
3761
100
AcDbEntity
  8
BODY
100
AcDbLine
 10
0.943612
 20
-1.993996
 30
0.0
 11
0.943612
 21
-2.312996
 31
0.0
  0
LINE
  5
3762
100
AcDbEntity
  8
BODY
100
AcDbLine
 10
0.802612
 20
-2.312996
 30
0.0
 11
0.802612
 21
-1.993996
 31
0.0
  0
LINE
  5
3763
100
AcDbEntity
  8
BODY
100
AcDbLine
 10
0.802612
 20
-1.974496
 30
0.0
 11
0.802612
 21
-2.332496
 31
0.0
  0
LINE
  5
3764
100
AcDbEntity
  8
BODY
100
AcDbLine
 10
0.782612
 20
-2.332496
 30
0.0
 11
0.782612
 21
-1.974496
 31
0.0
  0
LINE
  5
3765
100
AcDbEntity
  8
BODY
100
AcDbLine
 10
0.943612
 20
-2.312996
 30
0.0
 11
0.802612
 21
-2.312996
 31
0.0
  0
LINE
  5
3766
100
AcDbEntity
  8
BODY
100
AcDbLine
 10
0.782612
 20
-2.332496
 30
0.0
 11
0.802612
 21
-2.332496
 31
0.0
  0
LINE
  5
3767
100
AcDbEntity
  8
0
100
AcDbLine
 10
0.821193
 20
-2.322496
 30
0.0
 11
0.894621
 21
-2.322496
 31
0.0
1001
ACAD
1000
ASC_BOUNDS
1002
{
1070
    19
1005
3735
1005
3734
1002
}
  0
LINE
  5
3768
100
AcDbEntity
  8
0
100
AcDbLine
 10
0.894621
 20
-2.322496
 30
0.0
 11
0.904621
 21
-2.332496
 31
0.0
1001
ACAD
1000
ASC_BOUNDS
1002
{
1070
    19
1005
3735
1005
3734
1002
}
  0
LINE
  5
3769
100
AcDbEntity
  8
BODY
100
AcDbLine
 10
0.802612
 20
-1.993996
 30
0.0
 11
0.943612
 21
-1.993996
 31
0.0
  0
LINE
  5
376A
100
AcDbEntity
  8
0
100
AcDbLine
 10
0.821193
 20
-1.984496
 30
0.0
 11
0.894621
 21
-1.984496
 31
0.0
1001
ACAD
1000
ASC_BOUNDS
1002
{
1070
    19
1005
372C
1005
3735
1002
}
  0
LINE
  5
376B
100
AcDbEntity
  8
0
100
AcDbLine
 10
0.894621
 20
-1.984496
 30
0.0
 11
0.904621
 21
-1.974496
 31
0.0
1001
ACAD
1000
ASC_BOUNDS
1002
{
1070
    19
1005
372C
1005
3735
1002
}
  0
LINE
  5
376C
100
AcDbEntity
  8
BODY
100
AcDbLine
 10
0.892612
 20
-2.224496
 30
0.0
 11
0.872542
 21
-2.224496
 31
0.0
  0
LINE
  5
376D
100
AcDbEntity
  8
BODY
100
AcDbLine
 10
0.892612
 20
-2.082496
 30
0.0
 11
0.872542
 21
-2.082496
 31
0.0
  0
LINE
  5
376E
100
AcDbEntity
  8
BODY
100
AcDbLine
 10
0.892612
 20
-2.224496
 30
0.0
 11
0.892612
 21
-2.082496
 31
0.0
  0
LINE
  5
376F
100
AcDbEntity
  8
BODY
100
AcDbLine
 10
0.872542
 20
-2.082496
 30
0.0
 11
0.872542
 21
-2.224496
 31
0.0
  0
LINE
  5
3770
100
AcDbEntity
  8
BODY
100
AcDbLine
 10
0.782612
 20
-1.974496
 30
0.0
 11
0.802612
 21
-1.974496
 31
0.0
  0
LINE
  5
3771
100
AcDbEntity
  8
0
100
AcDbLine
 10
0.432121
 20
-1.524496
 30
0.0
 11
0.432121
 21
-1.438496
 31
0.0
1001
ACAD
1000
ASC_BOUNDS
1002
{
1070
    19
1005
372C
1005
3735
1002
}
  0
LINE
  5
3772
100
AcDbEntity
  8
BODY
100
AcDbLine
 10
0.657612
 20
-1.573496
 30
0.0
 11
0.595112
 21
-1.573496
 31
0.0
  0
LINE
  5
3773
100
AcDbEntity
  8
0
100
AcDbLine
 10
0.755193
 20
-1.539496
 30
0.0
 11
0.755193
 21
-1.708496
 31
0.0
1001
ACAD
1000
ASC_BOUNDS
1002
{
1070
    19
1005
372C
1005
3735
1002
}
  0
LINE
  5
3774
100
AcDbEntity
  8
0
100
AcDbLine
 10
0.755193
 20
-1.708496
 30
0.0
 11
0.821193
 21
-1.708496
 31
0.0
1001
ACAD
1000
ASC_BOUNDS
1002
{
1070
    19
1005
372C
1005
3735
1002
}
  0
LINE
  5
3775
100
AcDbEntity
  8
0
100
AcDbLine
 10
0.89755
 20
-1.649674
 30
0.0
 11
0.904621
 21
-1.666746
 31
0.0
1001
ACAD
1000
ASC_BOUNDS
1002
{
1070
    19
1005
372C
1005
3735
1002
}
  0
LINE
  5
3776
100
AcDbEntity
  8
0
  6
HIDDEN
100
AcDbLine
 39
0.18
 10
0.826533
 20
-1.661746
 30
0.0
 11
0.90255
 21
-1.661746
 31
0.0
1001
ACAD
1000
ASC_BOUNDS
1002
{
1070
    19
1005
372C
1005
3735
1002
}
  0
LINE
  5
3777
100
AcDbEntity
  8
0
100
AcDbLine
 10
0.805193
 20
-1.540996
 30
0.0
 11
0.805193
 21
-1.646746
 31
0.0
1001
ACAD
1000
ASC_BOUNDS
1002
{
1070
    19
1005
372C
1005
3735
1002
}
  0
INSERT
  5
3778
100
AcDbEntity
  8
0
100
AcDbBlockReference
  2
*X11
 10
-8.749454
 20
-14.666316
 30
0.0
1001
ACAD
1000
HATCH
1002
{
1070
    19
1000
ANSI31
1040
0.2
1040
0.0
1000
ASC_BOUNDS
1070
     2
1070
     1
1070
     2
1005
377B
1005
3779
1070
     1
1070
     2
1005
3779
1005
377F
1000
ASC_SEEDPOINT
1011
1.615926
1021
-1.608268
1031
0.0
1002
}
  0
LWPOLYLINE
  5
3779
100
AcDbEntity
  8
0
100
AcDbPolyline
 90
        4
 70
     1
 43
0.0
 10
1.477159
 20
-2.748496
 10
1.477159
 20
-1.558496
 10
1.757159
 20
-1.558496
 10
1.757159
 20
-2.748496
1001
ACAD
1000
ASC_BOUNDS
1002
{
1070
    19
1005
3778
1005
3778
1002
}
  0
LINE
  5
377A
100
AcDbEntity
  8
0
  6
HIDDEN
100
AcDbLine
 10
1.477159
 20
-2.655246
 30
0.0
 11
1.757159
 21
-2.655246
 31
0.0
  0
LINE
  5
377B
100
AcDbEntity
  8
0
  6
HIDDEN
100
AcDbLine
 10
1.477159
 20
-2.670246
 30
0.0
 11
1.757159
 21
-2.670246
 31
0.0
1001
ACAD
1000
ASC_BOUNDS
1002
{
1070
    19
1005
3778
1002
}
  0
MTEXT
  5
377C
100
AcDbEntity
  8
D1
100
AcDbMText
 10
1.30138
 20
-3.356261
 30
0.0
 40
0.08
 41
0.0
 71
     4
 72
     5
  1
{1.035-40}\P{THREAD}
  0
LINE
  5
377D
100
AcDbEntity
  8
D1
100
AcDbLine
 10
1.926782
 20
-2.835849
 30
0.0
 11
2.276796
 21
-3.110722
 31
0.0
  0
SOLID
  5
377E
100
AcDbEntity
  8
D1
100
AcDbTrace
 10
1.916488
 20
-2.848957
 30
0.0
 11
1.937076
 21
-2.822742
 31
0.0
 12
1.848135
 22
-2.774086
 32
0.0
 13
1.848135
 23
-2.774086
 33
0.0
  0
LINE
  5
377F
100
AcDbEntity
  8
0
  6
HIDDEN
100
AcDbLine
 10
1.477159
 20
-1.636746
 30
0.0
 11
1.757159
 21
-1.636746
 31
0.0
1001
ACAD
1000
ASC_BOUNDS
1002
{
1070
    19
1005
3778
1002
}
  0
LINE
  5
3780
100
AcDbEntity
  8
0
  6
HIDDEN
100
AcDbLine
 10
1.477159
 20
-1.651746
 30
0.0
 11
1.757159
 21
-1.651746
 31
0.0
  0
LINE
  5
3781
100
AcDbEntity
  8
D1
100
AcDbLine
 10
0.992612
 20
-1.266206
 30
0.0
 11
1.092612
 21
-1.266206
 31
0.0
  0
MTEXT
  5
3782
100
AcDbEntity
  8
D1
100
AcDbMText
 10
0.41114
 20
-1.262811
 30
0.0
 40
0.08
 41
0.0
 71
     5
 72
     5
  1
\A1;0.087
  0
LINE
  5
3783
100
AcDbEntity
  8
0
100
AcDbLine
 10
0.244621
 20
-1.403496
 30
0.0
 11
0.753631
 21
-1.403496
 31
0.0
1001
ACAD
1000
ASC_BOUNDS
1002
{
1070
    19
1005
372C
1005
3735
1002
}
  0
LINE
  5
3784
100
AcDbEntity
  8
BODY
100
AcDbLine
 10
0.244621
 20
-1.403496
 30
0.0
 11
0.182121
 21
-1.403496
 31
0.0
1001
ACAD
1000
ASC_BOUNDS
1002
{
1070
    19
1002
}
  0
SOLID
  5
3785
100
AcDbEntity
  8
D1
100
AcDbTrace
 10
0.705193
 20
-1.24954
 30
0.0
 11
0.705193
 21
-1.282873
 31
0.0
 12
0.805193
 22
-1.266206
 32
0.0
 13
0.805193
 23
-1.266206
 33
0.0
  0
LINE
  5
3786
100
AcDbEntity
  8
D1
100
AcDbLine
 10
0.705193
 20
-1.266206
 30
0.0
 11
0.605193
 21
-1.266206
 31
0.0
  0
SOLID
  5
3787
100
AcDbEntity
  8
D1
100
AcDbTrace
 10
0.992612
 20
-1.24954
 30
0.0
 11
0.992612
 21
-1.282873
 31
0.0
 12
0.892612
 22
-1.266206
 32
0.0
 13
0.892612
 23
-1.266206
 33
0.0
  0
TEXT
  5
3788
100
AcDbEntity
  8
D1
100
AcDbText
 10
1.342927
 20
-1.12151
 30
0.0
 40
0.08
  1
DETECTOR
100
AcDbText
  0
LINE
  5
3789
100
AcDbEntity
  8
0
100
AcDbLine
 10
4.085304
 20
-1.403496
 30
0.0
 11
4.085304
 21
-2.903496
 31
0.0
  0
LINE
  5
378A
100
AcDbEntity
  8
D1
100
AcDbLine
 10
4.416867
 20
-1.538496
 30
0.0
 11
4.416867
 21
-1.022018
 31
0.0
  0
LINE
  5
378B
100
AcDbEntity
  8
D1
100
AcDbLine
 10
4.136867
 20
-1.538496
 30
0.0
 11
4.136867
 21
-1.174018
 31
0.0
  0
LINE
  5
378C
100
AcDbEntity
  8
0
100
AcDbLine
 10
4.136867
 20
-1.540996
 30
0.0
 11
4.085304
 21
-1.403496
 31
0.0
1001
ACAD
1000
ASC_BOUNDS
1002
{
1070
    19
1002
}
  0
LINE
  5
378D
100
AcDbEntity
  8
BODY
100
AcDbLine
 10
3.576294
 20
-2.903496
 30
0.0
 11
3.576294
 21
-1.403496
 31
0.0
1001
ACAD
1000
ASC_BOUNDS
1002
{
1070
    19
1002
}
  0
LINE
  5
378E
100
AcDbEntity
  8
BODY
100
AcDbLine
 10
3.513794
 20
-2.903496
 30
0.0
 11
3.513794
 21
-1.403496
 31
0.0
1001
ACAD
1000
ASC_BOUNDS
1002
{
1070
    19
1002
}
  0
LINE
  5
378F
100
AcDbEntity
  8
0
100
AcDbLine
 10
3.576294
 20
-2.903496
 30
0.0
 11
3.576294
 21
-1.403496
 31
0.0
1001
ACAD
1000
ASC_BOUNDS
1002
{
1070
    19
1002
}
  0
TEXT
  5
3790
100
AcDbEntity
  8
D1
100
AcDbText
 10
2.41458
 20
-3.366469
 30
0.0
 40
0.08
  1
COUPLER (REMOVEABLE)
100
AcDbText
  0
LINE
  5
3791
100
AcDbEntity
  8
0
100
AcDbLine
 10
4.089054
 20
-2.903496
 30
0.0
 11
3.576294
 21
-2.903496
 31
0.0
1001
ACAD
1000
ASC_BOUNDS
1002
{
1070
    19
1002
}
  0
LWPOLYLINE
  5
3792
100
AcDbEntity
  8
DIM1
100
AcDbPolyline
 90
        3
 70
     0
 43
0.0
 10
3.356294
 20
-2.619996
 10
3.356294
 20
-2.444996
 10
3.470794
 20
-2.444996
  0
LINE
  5
3793
100
AcDbEntity
  8
DIM1
100
AcDbLine
 10
3.416294
 20
-2.444996
 30
0.0
 11
3.432575
 21
-2.619996
 31
0.0
  0
LINE
  5
3794
100
AcDbEntity
  8
DIM1
100
AcDbLine
 10
3.396294
 20
-2.444996
 30
0.0
 11
3.412575
 21
-2.619996
 31
0.0
  0
LINE
  5
3795
100
AcDbEntity
  8
DIM1
100
AcDbLine
 10
3.456294
 20
-2.444996
 30
0.0
 11
3.470794
 21
-2.600851
 31
0.0
  0
LINE
  5
3796
100
AcDbEntity
  8
DIM1
100
AcDbLine
 10
3.436294
 20
-2.444996
 30
0.0
 11
3.452575
 21
-2.619996
 31
0.0
  0
LINE
  5
3797
100
AcDbEntity
  8
DIM1
100
AcDbLine
 10
3.376294
 20
-2.444996
 30
0.0
 11
3.392575
 21
-2.619996
 31
0.0
  0
LINE
  5
3798
100
AcDbEntity
  8
DIM1
100
AcDbLine
 10
3.356294
 20
-2.444996
 30
0.0
 11
3.372575
 21
-2.619996
 31
0.0
  0
LINE
  5
3799
100
AcDbEntity
  8
DIM1
100
AcDbLine
 10
3.356294
 20
-2.481282
 30
0.0
 11
3.033082
 21
-2.552936
 31
0.0
  0
LWPOLYLINE
  5
379A
100
AcDbEntity
  8
BODY
100
AcDbPolyline
 90
        4
 70
     1
 43
0.0
 10
3.470794
 20
-2.690996
 10
3.470794
 20
-2.373996
 10
3.513794
 20
-2.373996
 10
3.513794
 20
-2.690996
1001
ACAD
1000
ASC_BOUNDS
1002
{
1070
    19
1002
}
  0
TEXT
  5
379B
100
AcDbEntity
  8
D1
100
AcDbText
 10
2.41458
 20
-3.233136
 30
0.0
 40
0.08
  1
SM1T1, THREADED
100
AcDbText
  0
LINE
  5
379C
100
AcDbEntity
  8
DIM1
100
AcDbLine
 10
3.356294
 20
-2.58371
 30
0.0
 11
3.054726
 21
-2.650566
 31
0.0
  0
ARC
  5
379D
100
AcDbEntity
  8
DIM1
100
AcDbCircle
 10
3.045459
 20
-2.601406
 30
0.0
 40
0.050025
100
AcDbArc
 50
104.324647
 51
280.675353
  0
LWPOLYLINE
  5
379E
100
AcDbEntity
  8
DIM1
100
AcDbPolyline
 90
        2
 70
     0
 43
0.0
 10
3.470794
 20
-2.619996
 10
3.356294
 20
-2.619996
  0
LINE
  5
379F
100
AcDbEntity
  8
BODY
100
AcDbLine
 10
3.576294
 20
-2.903496
 30
0.0
 11
3.513794
 21
-2.903496
 31
0.0
1001
ACAD
1000
ASC_BOUNDS
1002
{
1070
    19
1002
}
  0
LINE
  5
37A0
100
AcDbEntity
  8
0
100
AcDbLine
 10
3.470794
 20
-2.602023
 30
0.0
 11
3.513794
 21
-2.602023
 31
0.0
  0
LINE
  5
37A1
100
AcDbEntity
  8
0
100
AcDbLine
 10
3.048794
 20
-2.046246
 30
0.0
 11
3.468794
 21
-2.046246
 31
0.0
  0
LINE
  5
37A2
100
AcDbEntity
  8
0
100
AcDbLine
 10
3.048794
 20
-1.670746
 30
0.0
 11
3.468794
 21
-1.670746
 31
0.0
  0
LINE
  5
37A3
100
AcDbEntity
  8
0
100
AcDbLine
 10
3.048794
 20
-1.670746
 30
0.0
 11
3.048794
 21
-2.046246
 31
0.0
  0
LINE
  5
37A4
100
AcDbEntity
  8
0
100
AcDbLine
 10
3.468794
 20
-1.613746
 30
0.0
 11
3.468794
 21
-2.103246
 31
0.0
  0
LINE
  5
37A5
100
AcDbEntity
  8
0
100
AcDbLine
 10
3.513794
 20
-1.613746
 30
0.0
 11
3.513794
 21
-2.103246
 31
0.0
  0
LINE
  5
37A6
100
AcDbEntity
  8
0
100
AcDbLine
 10
3.470794
 20
-2.462968
 30
0.0
 11
3.513794
 21
-2.462968
 31
0.0
  0
LINE
  5
37A7
100
AcDbEntity
  8
0
100
AcDbLine
 10
3.513794
 20
-2.103246
 30
0.0
 11
3.468794
 21
-2.103246
 31
0.0
  0
CIRCLE
  5
37A8
100
AcDbEntity
  8
0
100
AcDbCircle
 10
3.223794
 20
-1.858496
 30
0.0
 40
0.04
  0
LINE
  5
37A9
100
AcDbEntity
  8
0
100
AcDbLine
 10
3.513794
 20
-1.613746
 30
0.0
 11
3.468794
 21
-1.613746
 31
0.0
  0
LWPOLYLINE
  5
37AA
100
AcDbEntity
  8
0
100
AcDbPolyline
 90
        4
 70
     1
 43
0.0
 10
4.136867
 20
-2.753496
 10
4.136867
 20
-1.563496
 10
4.416867
 20
-1.563496
 10
4.416867
 20
-2.753496
1001
ACAD
1000
ASC_BOUNDS
1002
{
1070
    19
1002
}
  0
LINE
  5
37AB
100
AcDbEntity
  8
0
100
AcDbLine
 10
4.136867
 20
-1.540996
 30
0.0
 11
4.136867
 21
-2.775996
 31
0.0
1001
ACAD
1000
ASC_BOUNDS
1002
{
1070
    19
1002
}
  0
LINE
  5
37AC
100
AcDbEntity
  8
0
100
AcDbLine
 10
4.136867
 20
-2.775996
 30
0.0
 11
4.089054
 21
-2.903496
 31
0.0
1001
ACAD
1000
ASC_BOUNDS
1002
{
1070
    19
1002
}
  0
LINE
  5
37AD
100
AcDbEntity
  8
D1
100
AcDbLine
 10
3.613794
 20
-1.046018
 30
0.0
 11
3.822664
 21
-1.046018
 31
0.0
  0
MTEXT
  5
37AE
100
AcDbEntity
  8
D1
100
AcDbMText
 10
3.82533
 20
-1.198018
 30
0.0
 40
0.08
 41
0.0
 71
     5
 72
     5
  1
\A1;0.62
  0
LINE
  5
37AF
100
AcDbEntity
  8
0
100
AcDbLine
 10
3.576294
 20
-1.403496
 30
0.0
 11
4.085304
 21
-1.403496
 31
0.0
1001
ACAD
1000
ASC_BOUNDS
1002
{
1070
    19
1002
}
  0
LINE
  5
37B0
100
AcDbEntity
  8
D1
100
AcDbLine
 10
3.513794
 20
-1.378496
 30
0.0
 11
3.513794
 21
-1.022018
 31
0.0
  0
SOLID
  5
37B1
100
AcDbEntity
  8
D1
100
AcDbTrace
 10
3.613794
 20
-1.181351
 30
0.0
 11
3.613794
 21
-1.214685
 31
0.0
 12
3.513794
 22
-1.198018
 32
0.0
 13
3.513794
 23
-1.198018
 33
0.0
  0
LINE
  5
37B2
100
AcDbEntity
  8
BODY
100
AcDbLine
 10
3.576294
 20
-1.403496
 30
0.0
 11
3.513794
 21
-1.403496
 31
0.0
1001
ACAD
1000
ASC_BOUNDS
1002
{
1070
    19
1002
}
  0
LINE
  5
37B3
100
AcDbEntity
  8
D1
100
AcDbLine
 10
3.513794
 20
-1.378496
 30
0.0
 11
3.513794
 21
-1.174018
 31
0.0
  0
LINE
  5
37B4
100
AcDbEntity
  8
D1
100
AcDbLine
 10
3.613794
 20
-1.198018
 30
0.0
 11
3.675997
 21
-1.198018
 31
0.0
  0
SOLID
  5
37B5
100
AcDbEntity
  8
D1
100
AcDbTrace
 10
3.613794
 20
-1.029351
 30
0.0
 11
3.613794
 21
-1.062685
 31
0.0
 12
3.513794
 22
-1.046018
 32
0.0
 13
3.513794
 23
-1.046018
 33
0.0
  0
SOLID
  5
37B6
100
AcDbEntity
  8
D1
100
AcDbTrace
 10
4.316867
 20
-1.029351
 30
0.0
 11
4.316867
 21
-1.062685
 31
0.0
 12
4.416867
 22
-1.046018
 32
0.0
 13
4.416867
 23
-1.046018
 33
0.0
  0
MTEXT
  5
37B7
100
AcDbEntity
  8
D1
100
AcDbMText
 10
3.96533
 20
-1.046018
 30
0.0
 40
0.08
 41
0.0
 71
     5
 72
     5
  1
\A1;0.90
  0
SOLID
  5
37B8
100
AcDbEntity
  8
D1
100
AcDbTrace
 10
4.036867
 20
-1.181351
 30
0.0
 11
4.036867
 21
-1.214685
 31
0.0
 12
4.136867
 22
-1.198018
 32
0.0
 13
4.136867
 23
-1.198018
 33
0.0
  0
LINE
  5
37B9
100
AcDbEntity
  8
D1
100
AcDbLine
 10
4.036867
 20
-1.198018
 30
0.0
 11
3.974664
 21
-1.198018
 31
0.0
  0
LINE
  5
37BA
100
AcDbEntity
  8
D1
100
AcDbLine
 10
4.316867
 20
-1.046018
 30
0.0
 11
4.107997
 21
-1.046018
 31
0.0
  0
LINE
  5
37BB
100
AcDbEntity
  8
D1
100
AcDbLine
 10
5.724837
 20
-2.898496
 30
0.0
 11
6.601301
 21
-2.898496
 31
0.0
  0
LINE
  5
37BC
100
AcDbEntity
  8
D1
100
AcDbLine
 10
5.638771
 20
-2.158496
 30
0.0
 11
6.601301
 21
-2.158496
 31
0.0
  0
CIRCLE
  5
37BD
100
AcDbEntity
  8
0
100
AcDbCircle
 10
5.577771
 20
-2.158496
 30
0.0
 40
0.51175
  0
CIRCLE
  5
37BE
100
AcDbEntity
  8
0
  6
HIDDEN
100
AcDbCircle
 10
5.577771
 20
-2.158496
 30
0.0
 40
0.49675
  0
LINE
  5
37BF
100
AcDbEntity
  8
0
100
AcDbLine
 10
5.699837
 20
-2.898496
 30
0.0
 11
5.455706
 21
-2.898496
 31
0.0
  0
CIRCLE
  5
37C0
100
AcDbEntity
  8
0
100
AcDbCircle
 10
5.577771
 20
-2.158496
 30
0.0
 40
0.19375
  0
CIRCLE
  5
37C1
100
AcDbEntity
  8
BODY
100
AcDbCircle
 10
5.577771
 20
-2.158496
 30
0.0
 40
0.1595
  0
CIRCLE
  5
37C2
100
AcDbEntity
  8
BODY
100
AcDbCircle
 10
5.577771
 20
-2.158496
 30
0.0
 40
0.127651
  0
LINE
  5
37C3
100
AcDbEntity
  8
D1
100
AcDbLine
 10
5.541771
 20
-2.158496
 30
0.0
 11
5.613771
 21
-2.158496
 31
0.0
  0
LWPOLYLINE
  5
37C4
100
AcDbEntity
  8
BODY
100
AcDbPolyline
 90
        4
 70
     1
 43
0.0
 10
5.506771
 20
-2.229496
 10
5.506771
 20
-2.087496
 10
5.648771
 20
-2.087496
 10
5.648771
 20
-2.229496
  0
LINE
  5
37C5
100
AcDbEntity
  8
D1
100
AcDbLine
 10
5.577771
 20
-2.194496
 30
0.0
 11
5.577771
 21
-2.122496
 31
0.0
  0
MTEXT
  5
37C6
100
AcDbEntity
  8
D1
100
AcDbMText
 10
6.577301
 20
-2.528496
 30
0.0
 40
0.08
 41
0.0
 71
     5
 72
     5
  1
\A1;0.740
  0
LINE
  5
37C7
100
AcDbEntity
  8
D1
100
AcDbLine
 10
6.577301
 20
-2.798496
 30
0.0
 11
6.577301
 21
-2.604496
 31
0.0
  0
SOLID
  5
37C8
100
AcDbEntity
  8
D1
100
AcDbTrace
 10
6.560634
 20
-2.798496
 30
0.0
 11
6.593967
 21
-2.798496
 31
0.0
 12
6.577301
 22
-2.898496
 32
0.0
 13
6.577301
 23
-2.898496
 33
0.0
  0
SOLID
  5
37C9
100
AcDbEntity
  8
D1
100
AcDbTrace
 10
6.560634
 20
-2.258496
 30
0.0
 11
6.593967
 21
-2.258496
 31
0.0
 12
6.577301
 22
-2.158496
 32
0.0
 13
6.577301
 23
-2.158496
 33
0.0
  0
LINE
  5
37CA
100
AcDbEntity
  8
D1
100
AcDbLine
 10
6.577301
 20
-2.258496
 30
0.0
 11
6.577301
 21
-2.452496
 31
0.0
  0
MTEXT
  5
37CB
100
AcDbEntity
  8
D1
100
AcDbMText
 10
6.106721
 20
-1.104955
 30
0.0
 40
0.08
 41
0.0
 71
     4
 72
     5
  1
{%%c1.5}{" DIA.}
  0
LINE
  5
37CC
100
AcDbEntity
  8
D1
100
AcDbLine
 10
5.970721
 20
-1.104955
 30
0.0
 11
6.070721
 21
-1.104955
 31
0.0
  0
LINE
  5
37CD
100
AcDbEntity
  8
D1
100
AcDbLine
 10
5.843988
 20
-1.325249
 30
0.0
 11
5.970721
 21
-1.104955
 31
0.0
  0
SOLID
  5
37CE
100
AcDbEntity
  8
D1
100
AcDbTrace
 10
5.858435
 20
-1.33356
 30
0.0
 11
5.829542
 21
-1.316938
 31
0.0
 12
5.794122
 22
-1.411929
 32
0.0
 13
5.794122
 23
-1.411929
 33
0.0
  0
ENDBLK
  5
37D0
100
AcDbEntity
  8
0
100
AcDbBlockEnd
  0
BLOCK
  5
37D6
100
AcDbEntity
  8
0
100
AcDbBlockBegin
  2
ESDINF_101
 70
     0
 10
0.0
 20
0.0
 30
0.0
  3
ESDINF_101
  1

  0
LINE
  5
37D3
100
AcDbEntity
  8
D1
100
AcDbLine
 10
2.987898
 20
0.000297
 30
0.0
 11
-2.987323
 21
0.000297
 31
0.0
  0
LINE
  5
37D4
100
AcDbEntity
  8
D1
100
AcDbLine
 10
-2.89229
 20
0.059637
 30
0.0
 11
2.892865
 21
0.059637
 31
0.0
  0
TEXT
  5
37D5
100
AcDbEntity
  8
D1
100
AcDbText
 10
-2.794565
 20
0.106519
 30
0.0
 40
0.15
  1
INFORMATION ONLY, NOT FOR MANUFACTURING
100
AcDbText
  0
ENDBLK
  5
37D7
100
AcDbEntity
  8
0
100
AcDbBlockEnd
  0
ENDSEC
  0
SECTION
  2
ENTITIES
  0
LINE
  5
132
100
AcDbEntity
  8
BORDER
100
AcDbLine
 39
0.0075
 10
9.726547
 20
0.683214
 30
0.0
 11
9.726547
 21
0.489114
 31
0.0
  0
LINE
  5
133
100
AcDbEntity
  8
BORDER
100
AcDbLine
 10
9.945832
 20
0.28235
 30
0.11646
 11
9.945832
 21
0.683214
 31
0.11646
  0
TRACE
  5
137
100
AcDbEntity
  8
BORDER
100
AcDbTrace
 10
11.255189
 20
1.478868
 30
0.11646
 11
11.255189
 21
1.491808
 31
0.11646
 12
8.993924
 22
1.478868
 32
0.11646
 13
8.993924
 23
1.491808
 33
0.11646
 39
0.0075
  0
LINE
  5
138
100
AcDbEntity
  8
BORDER
100
AcDbLine
 39
0.0075
 10
8.990689
 20
1.291238
 30
0.11646
 11
11.255189
 21
1.291238
 31
0.11646
  0
TEXT
  5
13A
100
AcDbEntity
  8
BORDER
100
AcDbText
 10
9.039601
 20
1.101034
 30
0.111268
 40
0.043271
  1
SURF. FINISH: 32 MICROINCHES UNLESS OTHERWISE NOTED
100
AcDbText
  0
TEXT
  5
13B
100
AcDbEntity
  8
D1
100
AcDbText
 10
9.406802
 20
0.728628
 30
0.0
 40
0.06
  1
XXXXXXXXXXXXXXXXXXXX
100
AcDbText
  0
TEXT
  5
13C
100
AcDbEntity
  8
D1
100
AcDbText
 10
9.263183
 20
1.346903
 30
0.0
 40
0.06
  1
ENGINEERING SUPPORT DRAWING
100
AcDbText
  0
TRACE
  5
13D
100
AcDbEntity
  8
BORDER
100
AcDbTrace
 10
11.255189
 20
1.727963
 30
0.11646
 11
11.255189
 21
1.760313
 31
0.11646
 12
9.006864
 22
1.727963
 32
0.11646
 13
8.974514
 23
1.760313
 33
0.11646
  0
LINE
  5
13E
100
AcDbEntity
  8
BORDER
100
AcDbLine
 39
0.0075
 10
8.990689
 20
1.071414
 30
0.11646
 11
11.255189
 21
1.071414
 31
0.11646
  0
LINE
  5
13F
100
AcDbEntity
  8
BORDER
100
AcDbLine
 39
0.0075
 10
8.990689
 20
0.877314
 30
0.11646
 11
11.269201
 21
0.877314
 31
0.11646
  0
LINE
  5
140
100
AcDbEntity
  8
BORDER
100
AcDbLine
 39
0.0075
 10
8.990689
 20
0.683214
 30
0.11646
 11
11.269201
 21
0.683214
 31
0.11646
  0
LINE
  5
141
100
AcDbEntity
  8
BORDER
100
AcDbLine
 39
0.0075
 10
8.990689
 20
0.489114
 30
0.11646
 11
11.266175
 21
0.489114
 31
0.11646
  0
TEXT
  5
142
100
AcDbEntity
  8
BORDER
100
AcDbText
 10
9.048919
 20
1.207128
 30
0.11646
 40
0.04529
  1
TOL: X.XXX=+/-0.005 X.XX=+/-0.010 ANGULAR +/-30'
100
AcDbText
  0
TRACE
  5
143
100
AcDbEntity
  8
BORDER
100
AcDbTrace
 10
9.006864
 20
1.728312
 30
0.11646
 11
8.974514
 21
1.760662
 31
0.11646
 12
9.006864
 22
0.295014
 32
0.11646
 13
8.974514
 23
0.295014
 33
0.11646
  0
LINE
  5
144
100
AcDbEntity
  8
BORDER
100
AcDbLine
 39
0.0075
 10
9.702916
 20
0.877314
 30
0.0
 11
9.702916
 21
1.071414
 31
0.0
  0
LINE
  5
145
100
AcDbEntity
  8
BORDER
100
AcDbLine
 10
9.537916
 20
0.489114
 30
0.0
 11
9.537916
 21
0.683214
 31
0.0
  0
TEXT
  5
146
100
AcDbEntity
  8
D1
100
AcDbText
 10
9.143275
 20
0.32354
 30
0.0
 40
0.06
  1
2922-E0W
100
AcDbText
  0
TEXT
  5
147
100
AcDbEntity
  8
D1
100
AcDbText
 10
9.037131
 20
0.53354
 30
0.0
 40
0.06
  1
9/7/99
100
AcDbText
  0
TEXT
  5
148
100
AcDbEntity
  8
D1
100
AcDbText
 10
9.218306
 20
0.906654
 30
0.0
 40
0.06
  1
EC/AJG
100
AcDbText
  0
TEXT
  5
149
100
AcDbEntity
  8
BORDER
100
AcDbText
 10
9.052154
 20
0.424414
 30
0.11646
 40
0.04529
  1
DWG NO.
100
AcDbText
  0
TEXT
  5
14A
100
AcDbEntity
  8
BORDER
100
AcDbText
 10
9.048919
 20
0.806437
 30
0.11646
 40
0.04529
  1
MATERIAL
100
AcDbText
  0
TEXT
  5
14B
100
AcDbEntity
  8
BORDER
100
AcDbText
 10
9.052154
 20
0.618514
 30
0.11646
 40
0.04
  1
DATE
100
AcDbText
  0
TEXT
  5
14C
100
AcDbEntity
  8
BORDER
100
AcDbText
 10
9.048919
 20
1.417403
 30
0.11646
 40
0.04529
  1
TITLE
100
AcDbText
  0
TEXT
  5
14D
100
AcDbEntity
  8
BORDER
100
AcDbText
 10
9.04461
 20
1.007493
 30
0.11646
 40
0.04
  1
DRAWN
100
AcDbText
  0
LINE
  5
14E
100
AcDbEntity
  8
BORDER
100
AcDbLine
 39
0.0075
 10
10.261916
 20
0.877314
 30
0.0
 11
10.261916
 21
1.071414
 31
0.0
  0
TEXT
  5
14F
100
AcDbEntity
  8
D1
100
AcDbText
 10
10.142131
 20
0.32354
 30
0.0
 40
0.06
  1
PDA500
100
AcDbText
  0
TEXT
  5
150
100
AcDbEntity
  8
D1
100
AcDbText
 10
9.614343
 20
0.53354
 30
0.0
 40
0.06
  1
A
100
AcDbText
  0
TEXT
  5
151
100
AcDbEntity
  8
D1
100
AcDbText
 10
9.812877
 20
0.541444
 30
0.0
 40
0.06
  1
A
 72
     1
 11
9.832877
 21
0.541444
 31
0.0
100
AcDbText
  0
TEXT
  5
152
100
AcDbEntity
  8
BORDER
100
AcDbText
 10
9.765809
 20
0.616444
 30
0.0
 40
0.04
  1
SIZE
 72
     1
 11
9.832476
 21
0.616444
 31
0.0
100
AcDbText
  0
TEXT
  5
153
100
AcDbEntity
  8
D1
100
AcDbText
 10
9.950011
 20
0.906654
 30
0.0
 40
0.06
  1
EC
100
AcDbText
  0
TEXT
  5
154
100
AcDbEntity
  8
D1
100
AcDbText
 10
10.098791
 20
0.53354
 30
0.0
 40
0.06
  1
1
100
AcDbText
  0
TEXT
  5
155
100
AcDbEntity
  8
D1
100
AcDbText
 10
10.343791
 20
0.53354
 30
0.0
 40
0.06
  1
1
100
AcDbText
  0
TEXT
  5
157
100
AcDbEntity
  8
BORDER
100
AcDbText
 10
10.32658
 20
1.007493
 30
0.11646
 40
0.04
  1
APPROVED
100
AcDbText
  0
TEXT
  5
158
100
AcDbEntity
  8
BORDER
100
AcDbText
 10
9.987159
 20
0.424414
 30
0.11646
 40
0.04529
  1
PART NO.
100
AcDbText
  0
TEXT
  5
159
100
AcDbEntity
  8
BORDER
100
AcDbText
 10
9.558579
 20
0.615279
 30
0.11646
 40
0.04
  1
REV
100
AcDbText
  0
TEXT
  5
15A
100
AcDbEntity
  8
BORDER
100
AcDbText
 10
9.972117
 20
0.615444
 30
0.11646
 40
0.04
  1
SHEET
100
AcDbText
  0
TEXT
  5
15B
100
AcDbEntity
  8
BORDER
100
AcDbText
 10
10.19394
 20
0.538229
 30
0.11646
 40
0.04529
  1
OF
100
AcDbText
  0
TEXT
  5
15C
100
AcDbEntity
  8
BORDER
100
AcDbText
 10
9.71781
 20
1.007493
 30
0.11646
 40
0.04
  1
ENGINEER
100
AcDbText
  0
LWPOLYLINE
  5
15E
100
AcDbEntity
  8
BORDER
100
AcDbPolyline
 90
        2
 70
     0
 43
0.007279
 38
0.23292
 10
9.633194
 20
1.690948
 10
9.532752
 20
1.690948
  0
SOLID
  5
162
100
AcDbEntity
  8
BORDER
100
AcDbTrace
 10
9.532752
 20
1.512619
 30
0.23292
 11
9.532752
 21
1.694587
 31
0.23292
 12
9.569925
 22
1.512619
 32
0.23292
 13
9.569925
 23
1.690623
 33
0.23292
  0
SOLID
  5
163
100
AcDbEntity
  8
BORDER
100
AcDbTrace
 10
9.116879
 20
1.512619
 30
0.23292
 11
9.153273
 21
1.512619
 31
0.23292
 12
9.116879
 22
1.664563
 32
0.23292
 13
9.153273
 23
1.664563
 33
0.23292
  0
SOLID
  5
164
100
AcDbEntity
  8
BORDER
100
AcDbTrace
 10
9.323414
 20
1.694587
 30
0.23292
 11
9.359808
 21
1.694587
 31
0.23292
 12
9.323414
 22
1.512619
 32
0.23292
 13
9.359808
 23
1.512619
 33
0.23292
  0
SOLID
  5
165
100
AcDbEntity
  8
BORDER
100
AcDbTrace
 10
9.211503
 20
1.694587
 30
0.23292
 11
9.247897
 21
1.694587
 31
0.23292
 12
9.211503
 22
1.512619
 32
0.23292
 13
9.247897
 23
1.512619
 33
0.23292
  0
SOLID
  5
166
100
AcDbEntity
  8
BORDER
100
AcDbTrace
 10
9.519367
 20
1.556817
 30
0.23292
 11
9.497922
 21
1.579298
 31
0.23292
 12
9.530601
 22
1.610976
 32
0.23292
 13
9.498944
 23
1.614042
 33
0.23292
  0
SOLID
  5
167
100
AcDbEntity
  8
BORDER
100
AcDbTrace
 10
9.493838
 20
1.528205
 30
0.23292
 11
9.481073
 21
1.545576
 31
0.23292
 12
9.519367
 22
1.556817
 32
0.23292
 13
9.497922
 23
1.579298
 33
0.23292
  0
SOLID
  5
168
100
AcDbEntity
  8
BORDER
100
AcDbTrace
 10
9.362104
 20
1.603312
 30
0.23292
 11
9.391718
 21
1.600758
 31
0.23292
 12
9.375379
 22
1.551197
 32
0.23292
 13
9.40142
 23
1.560904
 33
0.23292
  0
LWPOLYLINE
  5
169
100
AcDbEntity
  8
BORDER
100
AcDbPolyline
 90
        2
 70
     0
 43
0.007279
 38
0.23292
 10
9.367487
 20
1.572772
 42
0.761639
 10
9.525703
 20
1.574438
 42
0.761639
  0
LWPOLYLINE
  5
16D
100
AcDbEntity
  8
BORDER
100
AcDbPolyline
 90
        4
 70
     1
 43
0.007279
 38
0.23292
 10
9.401509
 20
1.644239
 42
0.228527
 10
9.402359
 20
1.561618
 42
0.623004
 10
9.4899
 20
1.561894
 42
0.229006
 10
9.490154
 20
1.6446
 42
0.632312
  0
SOLID
  5
173
100
AcDbEntity
  8
BORDER
100
AcDbTrace
 10
9.413674
 20
1.517986
 30
0.23292
 11
9.42695
 21
1.53689
 31
0.23292
 12
9.446352
 22
1.511855
 32
0.23292
 13
9.446352
 23
1.534847
 33
0.23292
  0
SOLID
  5
174
100
AcDbEntity
  8
BORDER
100
AcDbTrace
 10
9.375379
 20
1.551197
 30
0.23292
 11
9.40142
 21
1.560904
 31
0.23292
 12
9.413674
 22
1.517986
 32
0.23292
 13
9.42695
 23
1.53689
 33
0.23292
  0
SOLID
  5
175
100
AcDbEntity
  8
BORDER
100
AcDbTrace
 10
9.446352
 20
1.511855
 30
0.23292
 11
9.446352
 21
1.534847
 31
0.23292
 12
9.493838
 22
1.528205
 32
0.23292
 13
9.481073
 23
1.545576
 33
0.23292
  0
SOLID
  5
176
100
AcDbEntity
  8
BORDER
100
AcDbTrace
 10
9.058649
 20
1.694587
 30
0.23292
 11
9.211503
 21
1.694587
 31
0.23292
 12
9.058649
 22
1.664563
 32
0.23292
 13
9.211503
 23
1.664563
 33
0.23292
  0
SOLID
  5
177
100
AcDbEntity
  8
BORDER
100
AcDbTrace
 10
9.323414
 20
1.62362
 30
0.23292
 11
9.247897
 21
1.62362
 31
0.23292
 12
9.323414
 22
1.592685
 32
0.23292
 13
9.247897
 23
1.592685
 33
0.23292
  0
SOLID
  5
178
100
AcDbEntity
  8
BORDER
100
AcDbTrace
 10
9.445682
 20
1.698279
 30
0.23292
 11
9.444913
 21
1.672127
 31
0.23292
 12
9.397255
 22
1.681357
 32
0.23292
 13
9.411091
 23
1.660589
 33
0.23292
  0
LWPOLYLINE
  5
179
100
AcDbEntity
  8
BORDER
100
AcDbPolyline
 90
        2
 70
     0
 43
0.007279
 38
0.23292
 10
9.524348
 20
1.638634
 42
0.741471
 10
9.36779
 20
1.63771
 42
0.741471
  0
SOLID
  5
17D
100
AcDbEntity
  8
BORDER
100
AcDbTrace
 10
9.372657
 20
1.653666
 30
0.23292
 11
9.398792
 21
1.635206
 31
0.23292
 12
9.362104
 22
1.603312
 32
0.23292
 13
9.391718
 23
1.600758
 33
0.23292
  0
SOLID
  5
17E
100
AcDbEntity
  8
BORDER
100
AcDbTrace
 10
9.397255
 20
1.681357
 30
0.23292
 11
9.411091
 21
1.660589
 31
0.23292
 12
9.372657
 22
1.653666
 32
0.23292
 13
9.398792
 23
1.635206
 33
0.23292
  0
LWPOLYLINE
  5
17F
100
AcDbEntity
  8
BORDER
100
AcDbPolyline
 90
        2
 70
     0
 43
0.007279
 38
0.23292
 10
9.36779
 20
1.63771
 42
0.143054
 10
9.367487
 20
1.572772
 42
0.143054
  0
SOLID
  5
183
100
AcDbEntity
  8
BORDER
100
AcDbTrace
 10
9.47903
 20
1.691193
 30
0.23292
 11
9.46984
 21
1.665136
 31
0.23292
 12
9.445682
 22
1.698279
 32
0.23292
 13
9.444913
 23
1.672127
 33
0.23292
  0
SOLID
  5
184
100
AcDbEntity
  8
BORDER
100
AcDbTrace
 10
9.515283
 20
1.662581
 30
0.23292
 11
9.488221
 21
1.649807
 31
0.23292
 12
9.47903
 22
1.691193
 32
0.23292
 13
9.46984
 23
1.665136
 33
0.23292
  0
SOLID
  5
185
100
AcDbEntity
  8
BORDER
100
AcDbTrace
 10
9.530601
 20
1.610976
 30
0.23292
 11
9.498944
 21
1.614042
 31
0.23292
 12
9.515283
 22
1.662581
 32
0.23292
 13
9.488221
 23
1.649807
 33
0.23292
  0
LWPOLYLINE
  5
186
100
AcDbEntity
  8
BORDER
100
AcDbPolyline
 90
        2
 70
     0
 43
0.007279
 38
0.23292
 10
9.525703
 20
1.574438
 42
0.140695
 10
9.524348
 20
1.638634
 42
0.140695
  0
LWPOLYLINE
  5
18A
100
AcDbEntity
  8
BORDER
100
AcDbPolyline
 90
       14
 70
     0
 43
0.0
 38
0.23292
 10
10.11168
 20
1.567305
 10
10.140858
 20
1.567305
 42
0.302044
 10
10.159517
 20
1.539814
 42
0.26537
 10
10.209547
 20
1.546405
 42
0.635606
 10
10.201472
 20
1.584042
 42
-0.000944
 10
10.141823
 20
1.597942
 42
-0.344245
 10
10.106626
 20
1.641747
 42
-0.322222
 10
10.142724
 20
1.693435
 42
-0.141736
 10
10.204426
 20
1.696902
 42
-0.333774
 10
10.2487
 20
1.644448
 10
10.212717
 20
1.644448
 42
0.301979
 10
10.195528
 20
1.668336
 42
0.197288
 10
10.157369
 20
1.667227
 42
0.728374
 10
10.161708
 20
1.626788
 42
0.001957
  0
LWPOLYLINE
  5
19A
100
AcDbEntity
  8
BORDER
100
AcDbPolyline
 90
        7
 70
     0
 43
0.0
 38
0.23292
 10
10.161708
 20
1.626788
 42
0.001957
 10
10.213817
 20
1.616172
 42
-0.213696
 10
10.249258
 20
1.5914
 42
-0.207559
 10
10.254159
 20
1.554033
 42
-0.231198
 10
10.219687
 20
1.515768
 42
-0.176336
 10
10.147731
 20
1.513321
 42
-0.211591
 10
10.10947
 20
1.547708
  0
LINE
  5
1A3
100
AcDbEntity
  8
BORDER
100
AcDbLine
 10
9.963015
 20
1.694587
 30
0.23292
 11
9.963015
 21
1.525488
 31
0.23292
  0
LWPOLYLINE
  5
1A4
100
AcDbEntity
  8
BORDER
100
AcDbPolyline
 90
        4
 70
     0
 43
0.0
 38
0.23292
 10
9.808424
 20
1.543553
 10
9.862041
 20
1.694587
 10
9.902984
 20
1.694587
 10
9.963015
 20
1.525488
  0
LINE
  5
1AA
100
AcDbEntity
  8
BORDER
100
AcDbLine
 10
9.680983
 20
1.694587
 30
0.23292
 11
9.680983
 21
1.512619
 31
0.23292
  0
LINE
  5
1AB
100
AcDbEntity
  8
BORDER
100
AcDbLine
 10
9.719196
 20
1.543553
 30
0.23292
 11
9.719196
 21
1.694587
 31
0.23292
  0
SOLID
  5
1AC
100
AcDbEntity
  8
BORDER
100
AcDbTrace
 10
9.639484
 20
1.565557
 30
0.23292
 11
9.669006
 21
1.575896
 31
0.23292
 12
9.63112
 22
1.576881
 32
0.23292
 13
9.650801
 23
1.590667
 33
0.23292
  0
SOLID
  5
1AD
100
AcDbEntity
  8
BORDER
100
AcDbTrace
 10
9.638755
 20
1.554694
 30
0.23292
 11
9.673331
 21
1.565159
 31
0.23292
 12
9.639484
 22
1.565557
 32
0.23292
 13
9.669006
 23
1.575896
 33
0.23292
  0
LWPOLYLINE
  5
1AE
100
AcDbEntity
  8
BORDER
100
AcDbPolyline
 90
        2
 70
     0
 43
0.007279
 38
0.23292
 10
9.642381
 20
1.555005
 42
0.389398
 10
9.605368
 20
1.588982
 42
0.389398
  0
LWPOLYLINE
  5
1B2
100
AcDbEntity
  8
BORDER
100
AcDbPolyline
 90
        2
 70
     0
 43
0.007279
 38
0.23292
 10
9.669709
 20
1.564802
 42
0.358135
 10
9.638745
 20
1.595727
 42
0.358135
  0
SOLID
  5
1B6
100
AcDbEntity
  8
BORDER
100
AcDbTrace
 10
10.283117
 20
1.559355
 30
0.23292
 11
10.368713
 21
1.613249
 31
0.23292
 12
10.283123
 22
1.542202
 32
0.23292
 13
10.368715
 23
1.595307
 33
0.23292
  0
LINE
  5
1B7
100
AcDbEntity
  8
BORDER
100
AcDbLine
 10
9.999408
 20
1.593595
 30
0.23292
 11
9.999408
 21
1.540824
 31
0.23292
  0
ARC
  5
1B8
100
AcDbEntity
  8
BORDER
100
AcDbCircle
 10
10.047773
 20
1.568139
 30
0.23292
 40
0.025456
100
AcDbArc
 50
313.227508
 51
90.0
  0
TEXT
  5
1B9
100
AcDbEntity
  8
BORDER
100
AcDbText
 10
10.471169
 20
1.507766
 30
0.23292
 40
0.072788
  1
NEWTON NJ
100
AcDbText
  0
SOLID
  5
1BA
100
AcDbEntity
  8
BORDER
100
AcDbTrace
 10
10.368715
 20
1.540952
 30
0.23292
 11
10.283117
 21
1.540952
 31
0.23292
 12
10.368715
 22
1.558927
 32
0.23292
 13
10.283117
 23
1.558927
 33
0.23292
  0
SOLID
  5
1BB
100
AcDbEntity
  8
BORDER
100
AcDbTrace
 10
10.283117
 20
1.507997
 30
0.23292
 11
10.283117
 21
1.525972
 31
0.23292
 12
10.368715
 22
1.507997
 32
0.23292
 13
10.368715
 23
1.525972
 33
0.23292
  0
LWPOLYLINE
  5
1BC
100
AcDbEntity
  8
BORDER
100
AcDbPolyline
 90
        3
 70
     0
 43
0.0
 38
0.23292
 10
9.967583
 20
1.512619
 10
9.92937
 20
1.512619
 10
9.917317
 20
1.551742
  0
LINE
  5
1C1
100
AcDbEntity
  8
BORDER
100
AcDbLine
 10
9.808424
 20
1.543553
 30
0.23292
 11
9.719196
 21
1.543553
 31
0.23292
  0
LINE
  5
1C2
100
AcDbEntity
  8
BORDER
100
AcDbLine
 10
9.680983
 20
1.512619
 30
0.23292
 11
9.81018
 21
1.512619
 31
0.23292
  0
SOLID
  5
1C3
100
AcDbEntity
  8
BORDER
100
AcDbTrace
 10
9.642863
 20
1.517679
 30
0.23292
 11
9.676617
 21
1.521226
 31
0.23292
 12
9.641564
 22
1.521909
 32
0.23292
 13
9.677319
 23
1.524676
 33
0.23292
  0
SOLID
  5
1C4
100
AcDbEntity
  8
BORDER
100
AcDbTrace
 10
9.638755
 20
1.554694
 30
0.23292
 11
9.641564
 21
1.521909
 31
0.23292
 12
9.673331
 22
1.565159
 32
0.23292
 13
9.677319
 23
1.524676
 33
0.23292
  0
LWPOLYLINE
  5
1C5
100
AcDbEntity
  8
BORDER
100
AcDbPolyline
 90
        2
 70
     0
 43
0.007279
 38
0.23292
 10
9.64519
 20
1.52222
 42
0.114836
 10
9.647698
 20
1.514499
 42
0.114836
  0
SOLID
  5
1C9
100
AcDbEntity
  8
BORDER
100
AcDbTrace
 10
9.644582
 20
1.512619
 30
0.23292
 11
9.682099
 21
1.512619
 31
0.23292
 12
9.642863
 22
1.517679
 32
0.23292
 13
9.676617
 23
1.521226
 33
0.23292
  0
LWPOLYLINE
  5
1CA
100
AcDbEntity
  8
BORDER
100
AcDbPolyline
 90
        2
 70
     0
 43
0.007279
 38
0.23292
 10
9.673698
 20
1.524319
 42
0.095067
 10
9.676604
 20
1.514499
 42
0.140492
  0
LWPOLYLINE
  5
1CE
100
AcDbEntity
  8
BORDER
100
AcDbPolyline
 90
        4
 70
     0
 43
0.0
 38
0.23292
 10
9.917317
 20
1.551742
 10
9.847708
 20
1.551742
 10
9.835656
 20
1.512619
 10
9.797443
 20
1.512619
  0
LINE
  5
1D4
100
AcDbEntity
  8
BORDER
100
AcDbLine
 10
9.963015
 20
1.512619
 30
0.23292
 11
10.051269
 21
1.512619
 31
0.23292
  0
LINE
  5
1D5
100
AcDbEntity
  8
BORDER
100
AcDbLine
 10
9.999408
 20
1.540824
 30
0.23292
 11
10.043081
 21
1.540824
 31
0.23292
  0
ARC
  5
1D6
100
AcDbEntity
  8
BORDER
100
AcDbCircle
 10
10.06538
 20
1.562604
 30
0.23292
 40
0.046538
100
AcDbArc
 50
297.452648
 51
341.332312
  0
ARC
  5
1D7
100
AcDbEntity
  8
BORDER
100
AcDbCircle
 10
10.051269
 20
1.589764
 30
0.23292
 40
0.077145
100
AcDbArc
 50
270.0
 51
297.452648
  0
ARC
  5
1D8
100
AcDbEntity
  8
BORDER
100
AcDbCircle
 10
10.043081
 20
1.573131
 30
0.23292
 40
0.032307
100
AcDbArc
 50
270.0
 51
313.227508
  0
TEXT
  5
1D9
100
AcDbEntity
  8
BORDER
100
AcDbText
 10
10.471169
 20
1.629079
 30
0.23292
 40
0.072788
  1
PO BOX 366
100
AcDbText
  0
SOLID
  5
1DA
100
AcDbEntity
  8
BORDER
100
AcDbTrace
 10
10.328463
 20
1.637764
 30
0.23292
 11
10.329404
 21
1.623184
 31
0.23292
 12
10.351229
 22
1.645004
 32
0.23292
 13
10.357642
 23
1.634439
 33
0.23292
  0
LWPOLYLINE
  5
1DB
100
AcDbEntity
  8
BORDER
100
AcDbPolyline
 90
        2
 70
     0
 43
0.003424
 38
0.23292
 10
10.307308
 20
1.627141
 42
0.270661
 10
10.355921
 20
1.634716
 42
0.270661
  0
LWPOLYLINE
  5
1DF
100
AcDbEntity
  8
BORDER
100
AcDbPolyline
 90
        6
 70
     0
 43
0.003424
 38
0.23292
 10
10.309217
 20
1.68336
 42
0.342627
 10
10.292708
 20
1.665805
 42
0.294281
 10
10.304472
 20
1.643092
 42
0.273538
 10
10.347286
 20
1.643671
 42
0.20817
 10
10.358168
 20
1.659149
 42
0.418985
 10
10.341391
 20
1.68414
 42
0.418985
  0
SOLID
  5
1E7
100
AcDbEntity
  8
BORDER
100
AcDbTrace
 10
10.283117
 20
1.61371
 30
0.23292
 11
10.368715
 21
1.61371
 31
0.23292
 12
10.283117
 22
1.595735
 32
0.23292
 13
10.368715
 23
1.595735
 33
0.23292
  0
SOLID
  5
1E8
100
AcDbEntity
  8
BORDER
100
AcDbTrace
 10
9.635564
 20
1.612131
 30
0.23292
 11
9.649471
 21
1.605647
 31
0.23292
 12
9.616429
 22
1.612774
 32
0.23292
 13
9.639097
 23
1.59935
 33
0.23292
  0
SOLID
  5
1E9
100
AcDbEntity
  8
BORDER
100
AcDbTrace
 10
9.632047
 20
1.668857
 30
0.23292
 11
9.644856
 21
1.689591
 31
0.23292
 12
9.616429
 22
1.666846
 32
0.23292
 13
9.633194
 23
1.694587
 33
0.23292
  0
SOLID
  5
1EA
100
AcDbEntity
  8
BORDER
100
AcDbTrace
 10
9.644479
 20
1.655662
 30
0.23292
 11
9.672735
 21
1.670365
 31
0.23292
 12
9.632047
 22
1.668857
 32
0.23292
 13
9.644856
 23
1.689591
 33
0.23292
  0
SOLID
  5
1EB
100
AcDbEntity
  8
BORDER
100
AcDbTrace
 10
9.635564
 20
1.612131
 30
0.23292
 11
9.649471
 21
1.605647
 31
0.23292
 12
9.648247
 22
1.640582
 32
0.23292
 13
9.676503
 23
1.631534
 33
0.23292
  0
SOLID
  5
1EC
100
AcDbEntity
  8
BORDER
100
AcDbTrace
 10
9.63112
 20
1.576881
 30
0.23292
 11
9.650801
 21
1.590667
 31
0.23292
 12
9.621246
 22
1.586708
 32
0.23292
 13
9.639097
 23
1.59935
 33
0.23292
  0
LWPOLYLINE
  5
1ED
100
AcDbEntity
  8
BORDER
100
AcDbPolyline
 90
        2
 70
     0
 43
0.007279
 38
0.23292
 10
9.616429
 20
1.609135
 42
1.0
 10
9.616429
 20
1.670485
 42
1.0
  0
LWPOLYLINE
  5
1F1
100
AcDbEntity
  8
BORDER
100
AcDbPolyline
 90
        2
 70
     0
 43
0.007279
 38
0.23292
 10
9.638648
 20
1.602961
 42
0.939934
 10
9.633194
 20
1.690948
 42
0.939934
  0
SOLID
  5
1F5
100
AcDbEntity
  8
BORDER
100
AcDbTrace
 10
9.621246
 20
1.586708
 30
0.23292
 11
9.639097
 21
1.59935
 31
0.23292
 12
9.605368
 22
1.585343
 32
0.23292
 13
9.616429
 23
1.612774
 33
0.23292
  0
SOLID
  5
1F6
100
AcDbEntity
  8
BORDER
100
AcDbTrace
 10
9.569925
 20
1.612774
 30
0.23292
 11
9.569925
 21
1.585343
 31
0.23292
 12
9.616429
 22
1.612774
 32
0.23292
 13
9.605368
 23
1.585343
 33
0.23292
  0
SOLID
  5
1F7
100
AcDbEntity
  8
BORDER
100
AcDbTrace
 10
9.569925
 20
1.666846
 30
0.23292
 11
9.569925
 21
1.690623
 31
0.23292
 12
9.616429
 22
1.666846
 32
0.23292
 13
9.633194
 23
1.694587
 33
0.23292
  0
LINE
  5
1F8
100
AcDbEntity
  8
BORDER
100
AcDbLine
 10
9.719196
 20
1.694587
 30
0.23292
 11
9.680983
 21
1.694587
 31
0.23292
  0
SOLID
  5
1F9
100
AcDbEntity
  8
BORDER
100
AcDbTrace
 10
9.648247
 20
1.640582
 30
0.23292
 11
9.676503
 21
1.631534
 31
0.23292
 12
9.644479
 22
1.655662
 32
0.23292
 13
9.672735
 23
1.670365
 33
0.23292
  0
LINE
  5
1FA
100
AcDbEntity
  8
BORDER
100
AcDbLine
 10
9.882513
 20
1.66472
 30
0.23292
 11
9.856117
 21
1.579037
 31
0.23292
  0
LINE
  5
1FB
100
AcDbEntity
  8
BORDER
100
AcDbLine
 10
9.856117
 20
1.579037
 30
0.23292
 11
9.908909
 21
1.579037
 31
0.23292
  0
LINE
  5
1FC
100
AcDbEntity
  8
BORDER
100
AcDbLine
 10
9.908909
 20
1.579037
 30
0.23292
 11
9.882513
 21
1.66472
 31
0.23292
  0
LINE
  5
1FD
100
AcDbEntity
  8
BORDER
100
AcDbLine
 10
10.048031
 20
1.694587
 30
0.23292
 11
9.963015
 21
1.694587
 31
0.23292
  0
LINE
  5
1FE
100
AcDbEntity
  8
BORDER
100
AcDbLine
 10
10.045422
 20
1.667292
 30
0.23292
 11
9.999408
 21
1.667292
 31
0.23292
  0
LINE
  5
1FF
100
AcDbEntity
  8
BORDER
100
AcDbLine
 10
9.999408
 20
1.6218
 30
0.23292
 11
10.045422
 21
1.6218
 31
0.23292
  0
ARC
  5
200
100
AcDbEntity
  8
BORDER
100
AcDbCircle
 10
10.045422
 20
1.644546
 30
0.23292
 40
0.022746
100
AcDbArc
 50
270.0
 51
90.000005
  0
LINE
  5
201
100
AcDbEntity
  8
BORDER
100
AcDbLine
 10
10.047773
 20
1.593595
 30
0.23292
 11
9.999408
 21
1.593595
 31
0.23292
  0
LINE
  5
202
100
AcDbEntity
  8
BORDER
100
AcDbLine
 10
9.999408
 20
1.667292
 30
0.23292
 11
9.999408
 21
1.6218
 31
0.23292
  0
ARC
  5
203
100
AcDbEntity
  8
BORDER
100
AcDbCircle
 10
10.06538
 20
1.562604
 30
0.23292
 40
0.046538
100
AcDbArc
 50
5.797667
 51
41.821431
  0
ARC
  5
204
100
AcDbEntity
  8
BORDER
100
AcDbCircle
 10
10.065643
 20
1.648691
 30
0.23292
 40
0.040957
100
AcDbArc
 50
358.653261
 51
58.670206
  0
ARC
  5
205
100
AcDbEntity
  8
BORDER
100
AcDbCircle
 10
10.071864
 20
1.648545
 30
0.23292
 40
0.034735
100
AcDbArc
 50
313.157563
 51
358.653261
  0
ARC
  5
206
100
AcDbEntity
  8
BORDER
100
AcDbCircle
 10
10.0449
 20
1.6773
 30
0.23292
 40
0.074155
100
AcDbArc
 50
295.378395
 51
313.157563
  0
ARC
  5
207
100
AcDbEntity
  8
BORDER
100
AcDbCircle
 10
10.051381
 20
1.550078
 30
0.23292
 40
0.065323
100
AcDbArc
 50
41.821431
 51
67.21117
  0
ARC
  5
208
100
AcDbEntity
  8
BORDER
100
AcDbCircle
 10
10.048031
 20
1.619757
 30
0.23292
 40
0.07483
100
AcDbArc
 50
58.670206
 51
90.0
  0
SOLID
  5
209
100
AcDbEntity
  8
BORDER
100
AcDbTrace
 10
10.307133
 20
1.682742
 30
0.23292
 11
10.306019
 21
1.69756
 31
0.23292
 12
10.309482
 22
1.681669
 32
0.23292
 13
10.309482
 23
1.698415
 33
0.23292
  0
SOLID
  5
20A
100
AcDbEntity
  8
BORDER
100
AcDbTrace
 10
10.30352
 20
1.681817
 30
0.23292
 11
10.294891
 21
1.691223
 31
0.23292
 12
10.307133
 22
1.682742
 32
0.23292
 13
10.306019
 23
1.69756
 33
0.23292
  0
LWPOLYLINE
  5
20B
100
AcDbEntity
  8
BORDER
100
AcDbPolyline
 90
        2
 70
     0
 43
0.003424
 38
0.23292
 10
10.309166
 20
1.696645
 42
0.284121
 10
10.284438
 20
1.675959
 42
0.288845
  0
SOLID
  5
20F
100
AcDbEntity
  8
BORDER
100
AcDbTrace
 10
10.310893
 20
1.639175
 30
0.23292
 11
10.302108
 21
1.628671
 31
0.23292
 12
10.328463
 22
1.637764
 32
0.23292
 13
10.329404
 23
1.623184
 33
0.23292
  0
SOLID
  5
210
100
AcDbEntity
  8
BORDER
100
AcDbTrace
 10
10.294578
 20
1.652187
 30
0.23292
 11
10.284224
 21
1.647954
 31
0.23292
 12
10.310893
 22
1.639175
 32
0.23292
 13
10.302108
 23
1.628671
 33
0.23292
  0
SOLID
  5
211
100
AcDbEntity
  8
BORDER
100
AcDbTrace
 10
10.292852
 20
1.670372
 30
0.23292
 11
10.282969
 21
1.674448
 31
0.23292
 12
10.294578
 22
1.652187
 32
0.23292
 13
10.284224
 23
1.647954
 33
0.23292
  0
SOLID
  5
212
100
AcDbEntity
  8
BORDER
100
AcDbTrace
 10
10.30352
 20
1.681817
 30
0.23292
 11
10.294891
 21
1.691223
 31
0.23292
 12
10.292852
 22
1.670372
 32
0.23292
 13
10.282969
 23
1.674448
 33
0.23292
  0
LWPOLYLINE
  5
213
100
AcDbEntity
  8
BORDER
100
AcDbPolyline
 90
        2
 70
     0
 43
0.003424
 38
0.23292
 10
10.284438
 20
1.675959
 42
0.398621
 10
10.307308
 20
1.627141
 42
0.398621
  0
SOLID
  5
217
100
AcDbEntity
  8
BORDER
100
AcDbTrace
 10
10.343426
 20
1.683033
 30
0.23292
 11
10.345247
 21
1.698752
 31
0.23292
 12
10.341075
 22
1.682458
 32
0.23292
 13
10.341075
 23
1.699771
 33
0.23292
  0
LWPOLYLINE
  5
218
100
AcDbEntity
  8
BORDER
100
AcDbPolyline
 90
        2
 70
     0
 43
0.003424
 38
0.23292
 10
10.365559
 20
1.680219
 42
0.261966
 10
10.341311
 20
1.698021
 42
0.265647
  0
SOLID
  5
21C
100
AcDbEntity
  8
BORDER
100
AcDbTrace
 10
10.354175
 20
1.676701
 30
0.23292
 11
10.364748
 21
1.683803
 31
0.23292
 12
10.343426
 22
1.683033
 32
0.23292
 13
10.345247
 23
1.698752
 33
0.23292
  0
SOLID
  5
21D
100
AcDbEntity
  8
BORDER
100
AcDbTrace
 10
10.358682
 20
1.661806
 30
0.23292
 11
10.369775
 21
1.656263
 31
0.23292
 12
10.354175
 22
1.676701
 32
0.23292
 13
10.364748
 23
1.683803
 33
0.23292
  0
SOLID
  5
21E
100
AcDbEntity
  8
BORDER
100
AcDbTrace
 10
10.351229
 20
1.645004
 30
0.23292
 11
10.357642
 21
1.634439
 31
0.23292
 12
10.358682
 22
1.661806
 32
0.23292
 13
10.369775
 23
1.656263
 33
0.23292
  0
LWPOLYLINE
  5
21F
100
AcDbEntity
  8
BORDER
100
AcDbPolyline
 90
        2
 70
     0
 43
0.003424
 38
0.23292
 10
10.368542
 20
1.656094
 42
0.152191
 10
10.365559
 20
1.680219
 42
0.152191
  0
LWPOLYLINE
  5
223
100
AcDbEntity
  8
BORDER
100
AcDbPolyline
 90
        2
 70
     0
 43
0.003424
 38
0.23292
 10
10.355921
 20
1.634716
 42
0.179001
 10
10.368542
 20
1.656094
 42
0.179001
  0
LWPOLYLINE
  5
331F
100
AcDbEntity
  8
BORDER
100
AcDbPolyline
 90
        3
 70
     0
 43
0.03
 10
0.266175
 20
0.28235
 10
11.266175
 20
0.28235
 10
11.266175
 20
8.78235
  0
LWPOLYLINE
  5
3320
100
AcDbEntity
  8
BORDER
100
AcDbPolyline
 90
        2
 70
     1
 43
0.03
 10
11.266175
 20
8.78235
 10
0.266175
 20
8.78235
  0
LWPOLYLINE
  5
3321
100
AcDbEntity
  8
BORDER
100
AcDbPolyline
 90
        2
 70
     0
 43
0.03
 10
0.266175
 20
8.78235
 10
0.266175
 20
0.28235
  0
LINE
  5
3451
100
AcDbEntity
  8
BORDER
100
AcDbLine
 10
10.522391
 20
0.683214
 30
0.11646
 11
10.522391
 21
0.489114
 31
0.11646
  0
LINE
  5
3452
100
AcDbEntity
  8
BORDER
100
AcDbLine
 39
0.0075
 10
8.990689
 20
1.181238
 30
0.11646
 11
11.255189
 21
1.181238
 31
0.11646
  0
LWPOLYLINE
  5
3455
100
AcDbEntity
  8
BORDER
100
AcDbPolyline
 90
        2
 70
     0
 43
0.01
 38
0.11646
 39
0.0075
 10
8.990689
 20
1.291238
 10
11.255189
 20
1.291238
  0
LWPOLYLINE
  5
3456
100
AcDbEntity
  8
BORDER
100
AcDbPolyline
 90
        2
 70
     0
 43
0.01
 38
0.11646
 39
0.0075
 10
11.255189
 20
1.181238
 10
8.990689
 20
1.181238
  0
LWPOLYLINE
  5
3457
100
AcDbEntity
  8
BORDER
100
AcDbPolyline
 90
        2
 70
     0
 43
0.01
 38
0.11646
 39
0.0075
 10
8.990689
 20
1.071414
 10
11.255189
 20
1.071414
  0
LWPOLYLINE
  5
3458
100
AcDbEntity
  8
BORDER
100
AcDbPolyline
 90
        2
 70
     0
 43
0.01
 39
0.0075
 10
10.261916
 20
1.071414
 10
10.261916
 20
0.877314
  0
LWPOLYLINE
  5
3459
100
AcDbEntity
  8
BORDER
100
AcDbPolyline
 90
        2
 70
     0
 43
0.01
 39
0.0075
 10
9.702916
 20
1.071414
 10
9.702916
 20
0.877314
  0
LWPOLYLINE
  5
345A
100
AcDbEntity
  8
BORDER
100
AcDbPolyline
 90
        2
 70
     0
 43
0.01
 38
0.11646
 39
0.0075
 10
8.990689
 20
0.877314
 10
11.269201
 20
0.877314
  0
LWPOLYLINE
  5
345B
100
AcDbEntity
  8
BORDER
100
AcDbPolyline
 90
        2
 70
     0
 43
0.01
 38
0.11646
 39
0.0075
 10
11.269201
 20
0.683214
 10
8.990689
 20
0.683214
  0
LWPOLYLINE
  5
345C
100
AcDbEntity
  8
BORDER
100
AcDbPolyline
 90
        2
 70
     0
 43
0.01
 38
0.11646
 39
0.0075
 10
11.266175
 20
0.489114
 10
8.990689
 20
0.489114
  0
LWPOLYLINE
  5
345D
100
AcDbEntity
  8
BORDER
100
AcDbPolyline
 90
        2
 70
     0
 43
0.01
 39
0.0075
 10
9.537916
 20
0.683214
 10
9.537916
 20
0.489114
  0
LWPOLYLINE
  5
345E
100
AcDbEntity
  8
BORDER
100
AcDbPolyline
 90
        2
 70
     0
 43
0.01
 39
0.0075
 10
9.726547
 20
0.683214
 10
9.726547
 20
0.489114
  0
LWPOLYLINE
  5
345F
100
AcDbEntity
  8
BORDER
100
AcDbPolyline
 90
        2
 70
     0
 43
0.01
 38
0.11646
 39
0.0075
 10
9.945832
 20
0.683214
 10
9.945832
 20
0.28235
  0
LWPOLYLINE
  5
3460
100
AcDbEntity
  8
BORDER
100
AcDbPolyline
 90
        2
 70
     0
 43
0.01
 38
0.11646
 39
0.0075
 10
10.522391
 20
0.683214
 10
10.522391
 20
0.489114
  0
TEXT
  5
3461
100
AcDbEntity
  8
BORDER
100
AcDbText
 10
10.549184
 20
0.615444
 30
0.11646
 40
0.04
  1
DRAWING SCALE
100
AcDbText
  0
TEXT
  5
3462
100
AcDbEntity
  8
D1
100
AcDbText
 10
10.686741
 20
0.53354
 30
0.0
 40
0.06
  1
1" = 1"
100
AcDbText
  0
INSERT
  5
37D1
100
AcDbEntity
  8
S1
100
AcDbBlockReference
  2
A$C1BEC697A
 10
5.10901
 20
6.612807
 30
0.0
 41
0.75
 42
0.75
 43
0.823527
  0
INSERT
  5
37D8
100
AcDbEntity
  8
S1
100
AcDbBlockReference
  2
ESDINF_101
 10
5.821677
 20
0.433553
 30
0.0
 41
0.5
 42
0.5
 43
0.53846
  0
INSERT
  5
37DB
100
AcDbEntity
  8
S1
100
AcDbBlockReference
  2
COPYRIGHT
 10
0.37373
 20
8.473041
 30
0.0
 41
0.5
 42
0.5
 43
0.205882
  0
TEXT
  5
37DF
100
AcDbEntity
  8
D1
100
AcDbText
 10
10.66546
 20
0.906654
 30
0.0
 40
0.06
  1
EC
100
AcDbText
  0
VIEWPORT
  5
31FC
100
AcDbEntity
 67
     1
  8
0
100
AcDbViewport
 10
8.157143
 20
5.097131
 30
0.0
 40
16.314286
 41
10.194261
 68
    -1
 69
     1
1001
ACAD
1000
MVIEW
1002
{
1070
    16
1010
0.0
1020
0.0
1030
0.0
1010
0.0
1020
0.0
1030
1.0
1040
0.0
1040
10.194261
1040
8.157143
1040
5.097131
1040
50.0
1040
0.0
1040
0.0
1070
     0
1070
   100
1070
     0
1070
     1
1070
     0
1070
     0
1070
     0
1070
     0
1040
0.0
1040
0.0
1040
0.0
1040
0.005
1040
0.005
1040
1.0
1040
1.0
1070
     0
1002
{
1002
}
1002
}
  0
ENDSEC
  0
SECTION
  2
OBJECTS
  0
DICTIONARY
  5
C
100
AcDbDictionary
  3
ACAD_GROUP
350
D
  3
ACAD_MLINESTYLE
350
E
  3
CONTENTDICTIONARY
350
3316
  0
DICTIONARY
  5
D
102
{ACAD_REACTORS
330
C
102
}
100
AcDbDictionary
  0
DICTIONARY
  5
E
102
{ACAD_REACTORS
330
C
102
}
100
AcDbDictionary
  3
STANDARD
350
13
  0
DICTIONARY
  5
3316
102
{ACAD_REACTORS
330
C
102
}
100
AcDbDictionary
1001
CONTENTTABDATA
1070
     7
1000
English Fasteners
1000
C:\Program Files\AutoCAD LT 97\Symbols\eengfast.dwg
1070
     0
1070
     0
1070
     1
1000
Metric Fasteners
1000
C:\Program Files\AutoCAD LT 97\Symbols\emetfast.dwg
1070
     0
1070
     0
1070
     1
1000
Welding
1000
C:\Program Files\AutoCAD LT 97\Symbols\ewelding.dwg
1070
     0
1070
     0
1070
     1
1000
Hyd-Pneu
1000
C:\Program Files\AutoCAD LT 97\Symbols\ehydpneu.dwg
1070
     0
1070
     0
1070
     1
1000
Pipe Fittings
1000
C:\Program Files\AutoCAD LT 97\Symbols\epipefit.dwg
1070
     0
1070
     0
1070
     1
1000
Plant Process
1000
C:\Program Files\AutoCAD LT 97\Symbols\eplntprc.dwg
1070
     0
1070
     0
1070
     1
1000
BLOCKS
1000
C:\BLOCKS
1070
     1
1070
     0
1070
     1
1001
CONTENTCURRENTTAB
1070
     8
  0
MLINESTYLE
  5
13
102
{ACAD_REACTORS
330
E
102
}
100
AcDbMlineStyle
  2
STANDARD
 70
     0
  3

 62
     0
 51
90.0
 52
90.0
 71
     2
 49
0.5
 62
   256
  6
BYLAYER
 49
-0.5
 62
   256
  6
BYLAYER
  0
ENDSEC
  0
EOF
