ISO-10303-21;
HEADER;
FILE_DESCRIPTION (( 'STEP AP214' ),
    '1' );
FILE_NAME ('4802-E0W.STEP',
    '2009-12-21T17:14:41',
    ( ' ' ),
    ( ' ' ),
    'SwSTEP 2.0',
    'SolidWorks 2009',
    '' );
FILE_SCHEMA (( 'AUTOMOTIVE_DESIGN' ));
ENDSEC;

DATA;
#1 = PRESENTATION_LAYER_ASSIGNMENT (  '', '', ( #70 ) ) ;
#2 = MECHANICAL_DESIGN_GEOMETRIC_PRESENTATION_REPRESENTATION (  '', ( #70 ), #6 ) ;
#3 =( LENGTH_UNIT ( ) NAMED_UNIT ( * ) SI_UNIT ( .MILLI., .METRE. ) );
#4 =( NAMED_UNIT ( * ) PLANE_ANGLE_UNIT ( ) SI_UNIT ( $, .RADIAN. ) );
#5 =( NAMED_UNIT ( * ) SI_UNIT ( $, .STERADIAN. ) SOLID_ANGLE_UNIT ( ) );
#6 =( GEOMETRIC_REPRESENTATION_CONTEXT ( 3 ) GLOBAL_UNCERTAINTY_ASSIGNED_CONTEXT ( ( #18 ) ) GLOBAL_UNIT_ASSIGNED_CONTEXT ( ( #3, #4, #5 ) ) REPRESENTATION_CONTEXT ( 'NONE', 'WORKASPACE' ) );
#7 = EDGE_CURVE ( 'NONE', #8, #10, #17, .T. ) ;
#8 = VERTEX_POINT ( 'NONE', #65 ) ;
#9 = ORIENTED_EDGE ( 'NONE', *, *, #33, .F. ) ;
#10 = VERTEX_POINT ( 'NONE', #64 ) ;
#11 = ORIENTED_EDGE ( 'NONE', *, *, #56, .T. ) ;
#12 = ORIENTED_EDGE ( 'NONE', *, *, #27, .T. ) ;
#13 = VERTEX_POINT ( 'NONE', #63 ) ;
#14 = ORIENTED_EDGE ( 'NONE', *, *, #33, .T. ) ;
#15 = ADVANCED_FACE ( 'NONE', ( #67 ), #90, .T. ) ;
#16 = VERTEX_POINT ( 'NONE', #93 ) ;
#17 = CIRCLE ( 'NONE', #30, 6.350000000000000500 ) ;
#18 = UNCERTAINTY_MEASURE_WITH_UNIT (LENGTH_MEASURE( 1.000000000000000100E-005 ), #3, 'distance_accuracy_value', 'NONE');
#19 = CLOSED_SHELL ( 'NONE', ( #35, #20, #40, #23, #15 ) ) ;
#20 = ADVANCED_FACE ( 'NONE', ( #92 ), #102, .F. ) ;
#21 = EDGE_CURVE ( 'NONE', #13, #16, #94, .T. ) ;
#22 = ORIENTED_EDGE ( 'NONE', *, *, #36, .T. ) ;
#23 = ADVANCED_FACE ( 'NONE', ( #117 ), #130, .F. ) ;
#24 = EDGE_CURVE ( 'NONE', #10, #8, #123, .T. ) ;
#25 = ORIENTED_EDGE ( 'NONE', *, *, #24, .T. ) ;
#26 = ORIENTED_EDGE ( 'NONE', *, *, #27, .F. ) ;
#27 = EDGE_CURVE ( 'NONE', #8, #16, #132, .T. ) ;
#28 = DIRECTION ( 'NONE',  ( 1.000000000000000000, 0.0000000000000000000, 0.0000000000000000000 ) ) ;
#29 = DIRECTION ( 'NONE',  ( -0.0000000000000000000, -0.0000000000000000000, 1.000000000000000000 ) ) ;
#30 = AXIS2_PLACEMENT_3D ( 'NONE', #37, #29, #28 ) ;
#31 = ORIENTED_EDGE ( 'NONE', *, *, #21, .F. ) ;
#32 = EDGE_LOOP ( 'NONE', ( #9, #22, #44, #43 ) ) ;
#33 = EDGE_CURVE ( 'NONE', #59, #51, #139, .T. ) ;
#34 = ORIENTED_EDGE ( 'NONE', *, *, #36, .F. ) ;
#35 = ADVANCED_FACE ( 'NONE', ( #142 ), #184, .T. ) ;
#36 = EDGE_CURVE ( 'NONE', #59, #13, #227, .T. ) ;
#37 = CARTESIAN_POINT ( 'NONE',  ( 0.0000000000000000000, 0.0000000000000000000, -2.183599001621370700 ) ) ;
#38 = ORIENTED_EDGE ( 'NONE', *, *, #24, .F. ) ;
#39 = MANIFOLD_SOLID_BREP ( 'NONE', #19 ) ;
#40 = ADVANCED_FACE ( 'NONE', ( #194 ), #187, .F. ) ;
#41 = ORIENTED_EDGE ( 'NONE', *, *, #7, .F. ) ;
#42 = EDGE_LOOP ( 'NONE', ( #34, #14, #55, #53 ) ) ;
#43 = ORIENTED_EDGE ( 'NONE', *, *, #47, .T. ) ;
#44 = ORIENTED_EDGE ( 'NONE', *, *, #21, .T. ) ;
#45 = EDGE_CURVE ( 'NONE', #57, #13, #210, .T. ) ;
#46 = ORIENTED_EDGE ( 'NONE', *, *, #47, .F. ) ;
#47 = EDGE_CURVE ( 'NONE', #16, #51, #159, .T. ) ;
#48 = ORIENTED_EDGE ( 'NONE', *, *, #56, .F. ) ;
#49 = EDGE_LOOP ( 'NONE', ( #41, #38 ) ) ;
#50 = EDGE_CURVE ( 'NONE', #51, #57, #244, .T. ) ;
#51 = VERTEX_POINT ( 'NONE', #170 ) ;
#52 = ORIENTED_EDGE ( 'NONE', *, *, #45, .F. ) ;
#53 = ORIENTED_EDGE ( 'NONE', *, *, #45, .T. ) ;
#54 = EDGE_LOOP ( 'NONE', ( #48, #25, #12, #31, #52 ) ) ;
#55 = ORIENTED_EDGE ( 'NONE', *, *, #50, .T. ) ;
#56 = EDGE_CURVE ( 'NONE', #10, #57, #169, .T. ) ;
#57 = VERTEX_POINT ( 'NONE', #181 ) ;
#58 = ORIENTED_EDGE ( 'NONE', *, *, #50, .F. ) ;
#59 = VERTEX_POINT ( 'NONE', #180 ) ;
#60 = EDGE_LOOP ( 'NONE', ( #61, #11, #58, #46, #26 ) ) ;
#61 = ORIENTED_EDGE ( 'NONE', *, *, #7, .T. ) ;
#62 =( NAMED_UNIT ( * ) SI_UNIT ( $, .STERADIAN. ) SOLID_ANGLE_UNIT ( ) );
#63 = CARTESIAN_POINT ( 'NONE',  ( -7.776250346772094400E-016, -6.349999999999998800, 2.183599001621372000 ) ) ;
#64 = CARTESIAN_POINT ( 'NONE',  ( -6.350000000000001400, 7.776250346772097400E-016, -2.183599001621370700 ) ) ;
#65 = CARTESIAN_POINT ( 'NONE',  ( 6.350000000000000500, 0.0000000000000000000, -2.183599001621370700 ) ) ;
#66 = COLOUR_RGB ( '',0.9568627450980391500, 0.9490196078431372100, 0.9607843137254902200 ) ;
#67 = FACE_OUTER_BOUND ( 'NONE', #54, .T. ) ;
#68 = FILL_AREA_STYLE_COLOUR ( '', #66 ) ;
#69 = FILL_AREA_STYLE ('',( #68 ) ) ;
#70 = STYLED_ITEM ( 'NONE', ( #71 ), #15 ) ;
#71 = PRESENTATION_STYLE_ASSIGNMENT (( #72 ) ) ;
#72 = SURFACE_STYLE_USAGE ( .BOTH. , #73 ) ;
#73 = SURFACE_SIDE_STYLE ('',( #74 ) ) ;
#74 = SURFACE_STYLE_FILL_AREA ( #69 ) ;
#75 =( NAMED_UNIT ( * ) PLANE_ANGLE_UNIT ( ) SI_UNIT ( $, .RADIAN. ) );
#76 =( LENGTH_UNIT ( ) NAMED_UNIT ( * ) SI_UNIT ( .MILLI., .METRE. ) );
#77 = MECHANICAL_DESIGN_GEOMETRIC_PRESENTATION_REPRESENTATION (  '', ( #82 ), #96 ) ;
#78 = DIRECTION ( 'NONE',  ( 1.000000000000000000, 0.0000000000000000000, 0.0000000000000000000 ) ) ;
#79 = DIRECTION ( 'NONE',  ( -0.0000000000000000000, -0.0000000000000000000, 1.000000000000000000 ) ) ;
#80 = CARTESIAN_POINT ( 'NONE',  ( 0.0000000000000000000, 0.0000000000000000000, 8.333554268807953100 ) ) ;
#81 = PRESENTATION_LAYER_ASSIGNMENT (  '', '', ( #82 ) ) ;
#82 = STYLED_ITEM ( 'NONE', ( #83 ), #20 ) ;
#83 = PRESENTATION_STYLE_ASSIGNMENT (( #84 ) ) ;
#84 = SURFACE_STYLE_USAGE ( .BOTH. , #85 ) ;
#85 = SURFACE_SIDE_STYLE ('',( #86 ) ) ;
#86 = SURFACE_STYLE_FILL_AREA ( #87 ) ;
#87 = FILL_AREA_STYLE ('',( #91 ) ) ;
#88 = COLOUR_RGB ( '',0.9568627450980391500, 0.9490196078431372100, 0.9607843137254902200 ) ;
#89 = AXIS2_PLACEMENT_3D ( 'NONE', #80, #79, #78 ) ;
#90 = CYLINDRICAL_SURFACE ( 'NONE', #89, 6.349999999999999600 ) ;
#91 = FILL_AREA_STYLE_COLOUR ( '', #88 ) ;
#92 = FACE_OUTER_BOUND ( 'NONE', #32, .T. ) ;
#93 = CARTESIAN_POINT ( 'NONE',  ( 6.349999999999997900, 0.0000000000000000000, 2.183599001621370700 ) ) ;
#94 = CIRCLE ( 'NONE', #100, 6.349999999999997900 ) ;
#95 = AXIS2_PLACEMENT_3D ( 'NONE', #97, #105, #104 ) ;
#96 =( GEOMETRIC_REPRESENTATION_CONTEXT ( 3 ) GLOBAL_UNCERTAINTY_ASSIGNED_CONTEXT ( ( #103 ) ) GLOBAL_UNIT_ASSIGNED_CONTEXT ( ( #76, #75, #62 ) ) REPRESENTATION_CONTEXT ( 'NONE', 'WORKASPACE' ) );
#97 = CARTESIAN_POINT ( 'NONE',  ( 0.0000000000000000000, 0.0000000000000000000, 16.24640099837863300 ) ) ;
#98 = DIRECTION ( 'NONE',  ( -0.0000000000000000000, -0.0000000000000000000, 1.000000000000000000 ) ) ;
#99 = CARTESIAN_POINT ( 'NONE',  ( 0.0000000000000000000, 0.0000000000000000000, 2.183599001621370700 ) ) ;
#100 = AXIS2_PLACEMENT_3D ( 'NONE', #99, #98, #106 ) ;
#101 =( LENGTH_UNIT ( ) NAMED_UNIT ( * ) SI_UNIT ( .MILLI., .METRE. ) );
#102 = SPHERICAL_SURFACE ( 'NONE', #95, 15.43000000000000000 ) ;
#103 = UNCERTAINTY_MEASURE_WITH_UNIT (LENGTH_MEASURE( 1.000000000000000100E-005 ), #76, 'distance_accuracy_value', 'NONE');
#104 = DIRECTION ( 'NONE',  ( 0.0000000000000000000, 1.000000000000000000, 0.0000000000000000000 ) ) ;
#105 = DIRECTION ( 'NONE',  ( -1.000000000000000000, 0.0000000000000000000, 0.0000000000000000000 ) ) ;
#106 = DIRECTION ( 'NONE',  ( 1.000000000000000000, 0.0000000000000000000, 0.0000000000000000000 ) ) ;
#107 = MECHANICAL_DESIGN_GEOMETRIC_PRESENTATION_REPRESENTATION (  '', ( #109 ), #118 ) ;
#108 = PRESENTATION_LAYER_ASSIGNMENT (  '', '', ( #109 ) ) ;
#109 = STYLED_ITEM ( 'NONE', ( #110 ), #23 ) ;
#110 = PRESENTATION_STYLE_ASSIGNMENT (( #111 ) ) ;
#111 = SURFACE_STYLE_USAGE ( .BOTH. , #112 ) ;
#112 = SURFACE_SIDE_STYLE ('',( #113 ) ) ;
#113 = SURFACE_STYLE_FILL_AREA ( #114 ) ;
#114 = FILL_AREA_STYLE ('',( #115 ) ) ;
#115 = FILL_AREA_STYLE_COLOUR ( '', #116 ) ;
#116 = COLOUR_RGB ( '',0.9568627450980391500, 0.9490196078431372100, 0.9607843137254902200 ) ;
#117 = FACE_OUTER_BOUND ( 'NONE', #49, .T. ) ;
#118 =( GEOMETRIC_REPRESENTATION_CONTEXT ( 3 ) GLOBAL_UNCERTAINTY_ASSIGNED_CONTEXT ( ( #125 ) ) GLOBAL_UNIT_ASSIGNED_CONTEXT ( ( #101, #131, #119 ) ) REPRESENTATION_CONTEXT ( 'NONE', 'WORKASPACE' ) );
#119 =( NAMED_UNIT ( * ) SI_UNIT ( $, .STERADIAN. ) SOLID_ANGLE_UNIT ( ) );
#120 = DIRECTION ( 'NONE',  ( -0.0000000000000000000, -0.0000000000000000000, 1.000000000000000000 ) ) ;
#121 = CARTESIAN_POINT ( 'NONE',  ( 0.0000000000000000000, 0.0000000000000000000, -2.183599001621370700 ) ) ;
#122 = AXIS2_PLACEMENT_3D ( 'NONE', #121, #120, #136 ) ;
#123 = CIRCLE ( 'NONE', #122, 6.350000000000000500 ) ;
#124 = DIRECTION ( 'NONE',  ( 1.000000000000000000, 0.0000000000000000000, 0.0000000000000000000 ) ) ;
#125 = UNCERTAINTY_MEASURE_WITH_UNIT (LENGTH_MEASURE( 1.000000000000000100E-005 ), #101, 'distance_accuracy_value', 'NONE');
#126 = DIRECTION ( 'NONE',  ( 1.000000000000000000, 0.0000000000000000000, 0.0000000000000000000 ) ) ;
#127 = DIRECTION ( 'NONE',  ( 0.0000000000000000000, -0.0000000000000000000, 1.000000000000000000 ) ) ;
#128 = CARTESIAN_POINT ( 'NONE',  ( 0.0000000000000000000, 5.510910596163088600E-016, -2.183599001621371100 ) ) ;
#129 = AXIS2_PLACEMENT_3D ( 'NONE', #128, #127, #126 ) ;
#130 = PLANE ( 'NONE',  #129 ) ;
#131 =( NAMED_UNIT ( * ) PLANE_ANGLE_UNIT ( ) SI_UNIT ( $, .RADIAN. ) );
#132 = LINE ( 'NONE', #135, #134 ) ;
#133 = DIRECTION ( 'NONE',  ( -0.0000000000000000000, -0.0000000000000000000, 1.000000000000000000 ) ) ;
#134 = VECTOR ( 'NONE', #133, 1000.000000000000000 ) ;
#135 = CARTESIAN_POINT ( 'NONE',  ( 6.349999999999999600, 0.0000000000000000000, 8.333554268807953100 ) ) ;
#136 = DIRECTION ( 'NONE',  ( 1.000000000000000000, 0.0000000000000000000, 0.0000000000000000000 ) ) ;
#137 = CARTESIAN_POINT ( 'NONE',  ( 0.0000000000000000000, 0.0000000000000000000, 16.24640099837863300 ) ) ;
#138 = AXIS2_PLACEMENT_3D ( 'NONE', #137, #124, #140 ) ;
#139 = CIRCLE ( 'NONE', #138, 15.43000000000000000 ) ;
#140 = DIRECTION ( 'NONE',  ( 0.0000000000000000000, 0.0000000000000000000, -1.000000000000000000 ) ) ;
#141 = STYLED_ITEM ( 'NONE', ( #198 ), #35 ) ;
#142 = FACE_OUTER_BOUND ( 'NONE', #60, .T. ) ;
#143 = DIRECTION ( 'NONE',  ( 0.0000000000000000000, 0.0000000000000000000, 1.000000000000000000 ) ) ;
#144 = AXIS2_PLACEMENT_3D ( 'NONE', #179, #143, #223 ) ;
#145 =( GEOMETRIC_REPRESENTATION_CONTEXT ( 3 ) GLOBAL_UNCERTAINTY_ASSIGNED_CONTEXT ( ( #146 ) ) GLOBAL_UNIT_ASSIGNED_CONTEXT ( ( #229, #155, #154 ) ) REPRESENTATION_CONTEXT ( 'NONE', 'WORKASPACE' ) );
#146 = UNCERTAINTY_MEASURE_WITH_UNIT (LENGTH_MEASURE( 1.000000000000000100E-005 ), #229, 'distance_accuracy_value', 'NONE');
#147 = ADVANCED_BREP_SHAPE_REPRESENTATION ( '4802-E0W', ( #39, #144 ), #148 ) ;
#148 =( GEOMETRIC_REPRESENTATION_CONTEXT ( 3 ) GLOBAL_UNCERTAINTY_ASSIGNED_CONTEXT ( ( #185 ) ) GLOBAL_UNIT_ASSIGNED_CONTEXT ( ( #178, #202, #201 ) ) REPRESENTATION_CONTEXT ( 'NONE', 'WORKASPACE' ) );
#149 = COLOUR_RGB ( '',0.9568627450980391500, 0.9490196078431372100, 0.9607843137254902200 ) ;
#150 = MECHANICAL_DESIGN_GEOMETRIC_PRESENTATION_REPRESENTATION (  '', ( #141 ), #153 ) ;
#151 = SURFACE_STYLE_USAGE ( .BOTH. , #203 ) ;
#152 = FILL_AREA_STYLE_COLOUR ( '', #149 ) ;
#153 =( GEOMETRIC_REPRESENTATION_CONTEXT ( 3 ) GLOBAL_UNCERTAINTY_ASSIGNED_CONTEXT ( ( #240 ) ) GLOBAL_UNIT_ASSIGNED_CONTEXT ( ( #205, #241, #204 ) ) REPRESENTATION_CONTEXT ( 'NONE', 'WORKASPACE' ) );
#154 =( NAMED_UNIT ( * ) SI_UNIT ( $, .STERADIAN. ) SOLID_ANGLE_UNIT ( ) );
#155 =( NAMED_UNIT ( * ) PLANE_ANGLE_UNIT ( ) SI_UNIT ( $, .RADIAN. ) );
#156 = DIRECTION ( 'NONE',  ( -0.0000000000000000000, -0.0000000000000000000, 1.000000000000000000 ) ) ;
#157 = CARTESIAN_POINT ( 'NONE',  ( 0.0000000000000000000, 0.0000000000000000000, 2.183599001621370700 ) ) ;
#158 = AXIS2_PLACEMENT_3D ( 'NONE', #157, #156, #245 ) ;
#159 = CIRCLE ( 'NONE', #158, 6.349999999999997900 ) ;
#160 = DIRECTION ( 'NONE',  ( 1.000000000000000000, 0.0000000000000000000, 0.0000000000000000000 ) ) ;
#161 = MECHANICAL_DESIGN_GEOMETRIC_PRESENTATION_REPRESENTATION (  '', ( #163 ), #188 ) ;
#162 = PRESENTATION_LAYER_ASSIGNMENT (  '', '', ( #163 ) ) ;
#163 = STYLED_ITEM ( 'NONE', ( #164 ), #40 ) ;
#164 = PRESENTATION_STYLE_ASSIGNMENT (( #165 ) ) ;
#165 = SURFACE_STYLE_USAGE ( .BOTH. , #166 ) ;
#166 = SURFACE_SIDE_STYLE ('',( #190 ) ) ;
#167 = VECTOR ( 'NONE', #182, 1000.000000000000000 ) ;
#168 = CARTESIAN_POINT ( 'NONE',  ( -6.349999999999999600, 7.776250346772095400E-016, 8.333554268807953100 ) ) ;
#169 = LINE ( 'NONE', #168, #167 ) ;
#170 = CARTESIAN_POINT ( 'NONE',  ( 0.0000000000000000000, 6.349999999999998800, 2.183599001621372000 ) ) ;
#171 = DIRECTION ( 'NONE',  ( 1.000000000000000000, 0.0000000000000000000, 0.0000000000000000000 ) ) ;
#172 = DIRECTION ( 'NONE',  ( -0.0000000000000000000, -0.0000000000000000000, 1.000000000000000000 ) ) ;
#173 = DIRECTION ( 'NONE',  ( -0.0000000000000000000, -0.0000000000000000000, 1.000000000000000000 ) ) ;
#174 = CARTESIAN_POINT ( 'NONE',  ( 0.0000000000000000000, 0.0000000000000000000, 2.183599001621370700 ) ) ;
#175 = AXIS2_PLACEMENT_3D ( 'NONE', #174, #173, #160 ) ;
#176 = DIRECTION ( 'NONE',  ( 0.0000000000000000000, 1.000000000000000000, 0.0000000000000000000 ) ) ;
#177 = FILL_AREA_STYLE ('',( #152 ) ) ;
#178 =( LENGTH_UNIT ( ) NAMED_UNIT ( * ) SI_UNIT ( .MILLI., .METRE. ) );
#179 = CARTESIAN_POINT ( 'NONE',  ( 0.0000000000000000000, 0.0000000000000000000, 0.0000000000000000000 ) ) ;
#180 = CARTESIAN_POINT ( 'NONE',  ( 0.0000000000000000000, 9.447838019739639300E-016, 0.8164009983786315600 ) ) ;
#181 = CARTESIAN_POINT ( 'NONE',  ( -6.349999999999997900, 7.776250346772094400E-016, 2.183599001621370700 ) ) ;
#182 = DIRECTION ( 'NONE',  ( -0.0000000000000000000, -0.0000000000000000000, 1.000000000000000000 ) ) ;
#183 = CARTESIAN_POINT ( 'NONE',  ( 0.0000000000000000000, 0.0000000000000000000, 8.333554268807953100 ) ) ;
#184 = CYLINDRICAL_SURFACE ( 'NONE', #213, 6.349999999999999600 ) ;
#185 = UNCERTAINTY_MEASURE_WITH_UNIT (LENGTH_MEASURE( 1.000000000000000100E-005 ), #178, 'distance_accuracy_value', 'NONE');
#186 = PRESENTATION_LAYER_ASSIGNMENT (  '', '', ( #141 ) ) ;
#187 = SPHERICAL_SURFACE ( 'NONE', #209, 15.43000000000000000 ) ;
#188 =( GEOMETRIC_REPRESENTATION_CONTEXT ( 3 ) GLOBAL_UNCERTAINTY_ASSIGNED_CONTEXT ( ( #214 ) ) GLOBAL_UNIT_ASSIGNED_CONTEXT ( ( #197, #196, #215 ) ) REPRESENTATION_CONTEXT ( 'NONE', 'WORKASPACE' ) );
#189 = SURFACE_STYLE_FILL_AREA ( #177 ) ;
#190 = SURFACE_STYLE_FILL_AREA ( #191 ) ;
#191 = FILL_AREA_STYLE ('',( #192 ) ) ;
#192 = FILL_AREA_STYLE_COLOUR ( '', #193 ) ;
#193 = COLOUR_RGB ( '',0.9568627450980391500, 0.9490196078431372100, 0.9607843137254902200 ) ;
#194 = FACE_OUTER_BOUND ( 'NONE', #42, .T. ) ;
#195 =( GEOMETRIC_REPRESENTATION_CONTEXT ( 3 ) GLOBAL_UNCERTAINTY_ASSIGNED_CONTEXT ( ( #199 ) ) GLOBAL_UNIT_ASSIGNED_CONTEXT ( ( #246, #206, #200 ) ) REPRESENTATION_CONTEXT ( 'NONE', 'WORKASPACE' ) );
#196 =( NAMED_UNIT ( * ) PLANE_ANGLE_UNIT ( ) SI_UNIT ( $, .RADIAN. ) );
#197 =( LENGTH_UNIT ( ) NAMED_UNIT ( * ) SI_UNIT ( .MILLI., .METRE. ) );
#198 = PRESENTATION_STYLE_ASSIGNMENT (( #151 ) ) ;
#199 = UNCERTAINTY_MEASURE_WITH_UNIT (LENGTH_MEASURE( 1.000000000000000100E-005 ), #246, 'distance_accuracy_value', 'NONE');
#200 =( NAMED_UNIT ( * ) SI_UNIT ( $, .STERADIAN. ) SOLID_ANGLE_UNIT ( ) );
#201 =( NAMED_UNIT ( * ) SI_UNIT ( $, .STERADIAN. ) SOLID_ANGLE_UNIT ( ) );
#202 =( NAMED_UNIT ( * ) PLANE_ANGLE_UNIT ( ) SI_UNIT ( $, .RADIAN. ) );
#203 = SURFACE_SIDE_STYLE ('',( #189 ) ) ;
#204 =( NAMED_UNIT ( * ) SI_UNIT ( $, .STERADIAN. ) SOLID_ANGLE_UNIT ( ) );
#205 =( LENGTH_UNIT ( ) NAMED_UNIT ( * ) SI_UNIT ( .MILLI., .METRE. ) );
#206 =( NAMED_UNIT ( * ) PLANE_ANGLE_UNIT ( ) SI_UNIT ( $, .RADIAN. ) );
#207 = DIRECTION ( 'NONE',  ( -1.000000000000000000, 0.0000000000000000000, 0.0000000000000000000 ) ) ;
#208 = CARTESIAN_POINT ( 'NONE',  ( 0.0000000000000000000, 0.0000000000000000000, 16.24640099837863300 ) ) ;
#209 = AXIS2_PLACEMENT_3D ( 'NONE', #208, #207, #176 ) ;
#210 = CIRCLE ( 'NONE', #175, 6.349999999999997900 ) ;
#211 = DIRECTION ( 'NONE',  ( 1.000000000000000000, 0.0000000000000000000, 0.0000000000000000000 ) ) ;
#212 = DIRECTION ( 'NONE',  ( -0.0000000000000000000, -0.0000000000000000000, 1.000000000000000000 ) ) ;
#213 = AXIS2_PLACEMENT_3D ( 'NONE', #183, #212, #211 ) ;
#214 = UNCERTAINTY_MEASURE_WITH_UNIT (LENGTH_MEASURE( 1.000000000000000100E-005 ), #197, 'distance_accuracy_value', 'NONE');
#215 =( NAMED_UNIT ( * ) SI_UNIT ( $, .STERADIAN. ) SOLID_ANGLE_UNIT ( ) );
#216 = PRESENTATION_STYLE_ASSIGNMENT (( #217 ) ) ;
#217 = SURFACE_STYLE_USAGE ( .BOTH. , #218 ) ;
#218 = SURFACE_SIDE_STYLE ('',( #219 ) ) ;
#219 = SURFACE_STYLE_FILL_AREA ( #220 ) ;
#220 = FILL_AREA_STYLE ('',( #221 ) ) ;
#221 = FILL_AREA_STYLE_COLOUR ( '', #228 ) ;
#222 = DIRECTION ( 'NONE',  ( -1.224606353822377000E-016, -1.000000000000000000, 0.0000000000000000000 ) ) ;
#223 = DIRECTION ( 'NONE',  ( 1.000000000000000000, 0.0000000000000000000, 0.0000000000000000000 ) ) ;
#224 = DIRECTION ( 'NONE',  ( -1.000000000000000000, 1.224606353822377300E-016, 0.0000000000000000000 ) ) ;
#225 = CARTESIAN_POINT ( 'NONE',  ( 0.0000000000000000000, 0.0000000000000000000, 16.24640099837863300 ) ) ;
#226 = AXIS2_PLACEMENT_3D ( 'NONE', #225, #224, #222 ) ;
#227 = CIRCLE ( 'NONE', #226, 15.43000000000000000 ) ;
#228 = COLOUR_RGB ( '',0.7960784313725489700, 0.8235294117647058400, 0.9372549019607843100 ) ;
#229 =( LENGTH_UNIT ( ) NAMED_UNIT ( * ) SI_UNIT ( .MILLI., .METRE. ) );
#230 = MECHANICAL_DESIGN_GEOMETRIC_PRESENTATION_REPRESENTATION (  '', ( #232 ), #145 ) ;
#231 = PRESENTATION_LAYER_ASSIGNMENT (  '', '', ( #232 ) ) ;
#232 = STYLED_ITEM ( 'NONE', ( #233 ), #147 ) ;
#233 = PRESENTATION_STYLE_ASSIGNMENT (( #234 ) ) ;
#234 = SURFACE_STYLE_USAGE ( .BOTH. , #235 ) ;
#235 = SURFACE_SIDE_STYLE ('',( #236 ) ) ;
#236 = SURFACE_STYLE_FILL_AREA ( #237 ) ;
#237 = FILL_AREA_STYLE ('',( #238 ) ) ;
#238 = FILL_AREA_STYLE_COLOUR ( '', #239 ) ;
#239 = COLOUR_RGB ( '',0.7960784313725489700, 0.8235294117647058400, 0.9372549019607843100 ) ;
#240 = UNCERTAINTY_MEASURE_WITH_UNIT (LENGTH_MEASURE( 1.000000000000000100E-005 ), #205, 'distance_accuracy_value', 'NONE');
#241 =( NAMED_UNIT ( * ) PLANE_ANGLE_UNIT ( ) SI_UNIT ( $, .RADIAN. ) );
#242 = CARTESIAN_POINT ( 'NONE',  ( 0.0000000000000000000, 0.0000000000000000000, 2.183599001621370700 ) ) ;
#243 = AXIS2_PLACEMENT_3D ( 'NONE', #242, #172, #171 ) ;
#244 = CIRCLE ( 'NONE', #243, 6.349999999999997900 ) ;
#245 = DIRECTION ( 'NONE',  ( 1.000000000000000000, 0.0000000000000000000, 0.0000000000000000000 ) ) ;
#246 =( LENGTH_UNIT ( ) NAMED_UNIT ( * ) SI_UNIT ( .MILLI., .METRE. ) );
#247 = MECHANICAL_DESIGN_GEOMETRIC_PRESENTATION_REPRESENTATION (  '', ( #249 ), #195 ) ;
#248 = PRESENTATION_LAYER_ASSIGNMENT (  '', '', ( #249 ) ) ;
#249 = STYLED_ITEM ( 'NONE', ( #216 ), #39 ) ;
#250 = PRODUCT_DEFINITION_SHAPE ( 'NONE', 'NONE',  #253 ) ;
#251 = PRODUCT_RELATED_PRODUCT_CATEGORY ( 'part', '', ( #259 ) ) ;
#252 = PRODUCT_DEFINITION_FORMATION_WITH_SPECIFIED_SOURCE ( 'ANY', '', #259, .NOT_KNOWN. ) ;
#253 = PRODUCT_DEFINITION ( 'UNKNOWN', '', #252, #254 ) ;
#254 = PRODUCT_DEFINITION_CONTEXT ( 'detailed design', #256, 'design' ) ;
#255 = APPLICATION_PROTOCOL_DEFINITION ( 'draft international standard', 'automotive_design', 1998, #256 ) ;
#256 = APPLICATION_CONTEXT ( 'automotive_design' ) ;
#257 = APPLICATION_CONTEXT ( 'automotive_design' ) ;
#258 = SHAPE_DEFINITION_REPRESENTATION ( #250, #147 ) ;
#259 = PRODUCT ( '4802-E0W', '4802-E0W', '', ( #260 ) ) ;
#260 = PRODUCT_CONTEXT ( 'NONE', #257, 'mechanical' ) ;
#261 = APPLICATION_PROTOCOL_DEFINITION ( 'draft international standard', 'automotive_design', 1998, #257 ) ;
ENDSEC;
END-ISO-10303-21;
