ISO-10303-21;
HEADER;
FILE_DESCRIPTION (( 'STEP AP203' ),
    '1' );
FILE_NAME ('4286-E0W.STEP',
    '2015-05-29T14:22:23',
    ( 'admin' ),
    ( '' ),
    'SwSTEP 2.0',
    'SolidWorks 2014',
    '' );
FILE_SCHEMA (( 'CONFIG_CONTROL_DESIGN' ));
ENDSEC;

DATA;
#1 = CARTESIAN_POINT ( 'NONE',  ( -1.450000000000000000, 0.0000000000000000000, -12.45000000000000100 ) ) ;
#2 = LINE ( 'NONE', #1, #14 ) ;
#3 = ADVANCED_FACE ( 'NONE', ( #285 ), #230, .T. ) ;
#4 = CARTESIAN_POINT ( 'NONE',  ( 0.2999999999996894000, 0.0000000000000000000, 0.0000000000000000000 ) ) ;
#5 = CC_DESIGN_PERSON_AND_ORGANIZATION_ASSIGNMENT ( #34, #85, ( #23 ) ) ;
#6 = APPROVAL_STATUS ( 'not_yet_approved' ) ;
#7 = CALENDAR_DATE ( 2015, 29, 5 ) ;
#8 = VERTEX_POINT ( 'NONE', #21 ) ;
#9 = DIRECTION ( 'NONE',  ( -1.000000000000000000, -0.0000000000000000000, -0.0000000000000000000 ) ) ;
#10 = APPROVAL_ROLE ( '' ) ;
#11 = LOCAL_TIME ( 10, 22, 23.00000000000000000, #96 ) ;
#12 = CC_DESIGN_PERSON_AND_ORGANIZATION_ASSIGNMENT ( #212, #174, ( #271 ) ) ;
#13 = DIRECTION ( 'NONE',  ( 0.0000000000000000000, 0.0000000000000000000, 1.000000000000000000 ) ) ;
#14 = VECTOR ( 'NONE', #258, 1000.000000000000000 ) ;
#15 = CIRCLE ( 'NONE', #208, 12.69999999999998900 ) ;
#16 = CONICAL_SURFACE ( 'NONE', #17, 12.69999999999998900, 0.7153991435513259400 ) ;
#17 = AXIS2_PLACEMENT_3D ( 'NONE', #4, #125, #181 ) ;
#18 = CARTESIAN_POINT ( 'NONE',  ( 0.5844956134705980900, 1.525026273841535000E-015, -12.45278454900888800 ) ) ;
#19 = SECURITY_CLASSIFICATION_LEVEL ( 'unclassified' ) ;
#20 = ORIENTED_EDGE ( 'NONE', *, *, #136, .T. ) ;
#21 = CARTESIAN_POINT ( 'NONE',  ( -1.450000000000000000, 1.539993349927796100E-015, 12.45000000000000100 ) ) ;
#22 = EDGE_CURVE ( 'NONE', #290, #52, #2, .T. ) ;
#23 = SECURITY_CLASSIFICATION ( '', '', #19 ) ;
#24 = ORIENTED_EDGE ( 'NONE', *, *, #128, .T. ) ;
#25 = ADVANCED_FACE ( 'NONE', ( #98 ), #286, .T. ) ;
#26 = LINE ( 'NONE', #148, #233 ) ;
#27 = DIRECTION ( 'NONE',  ( 0.7071067811865524600, 8.659560562354873700E-017, 0.7071067811865426900 ) ) ;
#28 = COORDINATED_UNIVERSAL_TIME_OFFSET ( 5, 0, .BEHIND. ) ;
#29 = DIRECTION ( 'NONE',  ( 0.0000000000000000000, 0.0000000000000000000, 1.000000000000000000 ) ) ;
#30 = DIRECTION ( 'NONE',  ( 1.000000000000000000, 0.0000000000000000000, 0.0000000000000000000 ) ) ;
#31 = DIRECTION ( 'NONE',  ( 1.000000000000000000, 0.0000000000000000000, 0.0000000000000000000 ) ) ;
#32 = ADVANCED_FACE ( 'NONE', ( #33 ), #35, .T. ) ;
#33 = FACE_OUTER_BOUND ( 'NONE', #68, .T. ) ;
#34 = PERSON_AND_ORGANIZATION ( #298, #200 ) ;
#35 = CONICAL_SURFACE ( 'NONE', #63, 12.45000000000000100, 0.7853981633974415100 ) ;
#36 = CARTESIAN_POINT ( 'NONE',  ( -1.450000000000000000, 0.0000000000000000000, 0.0000000000000000000 ) ) ;
#37 = DIRECTION ( 'NONE',  ( -1.000000000000000000, -0.0000000000000000000, -0.0000000000000000000 ) ) ;
#38 = PERSON_AND_ORGANIZATION ( #298, #200 ) ;
#39 = AXIS2_PLACEMENT_3D ( 'NONE', #117, #30, #207 ) ;
#40 = CARTESIAN_POINT ( 'NONE',  ( -90.54989681775261100, 0.0000000000000000000, 0.0000000000000000000 ) ) ;
#41 = ORIENTED_EDGE ( 'NONE', *, *, #245, .F. ) ;
#42 = DIRECTION ( 'NONE',  ( 0.0000000000000000000, 0.0000000000000000000, -1.000000000000000000 ) ) ;
#43 = FACE_OUTER_BOUND ( 'NONE', #246, .T. ) ;
#44 = PERSON_AND_ORGANIZATION ( #298, #200 ) ;
#45 = DIRECTION ( 'NONE',  ( -0.7548314956054337200, 0.0000000000000000000, 0.6559187550619850500 ) ) ;
#46 = EDGE_CURVE ( 'NONE', #8, #74, #197, .T. ) ;
#47 = APPROVAL_DATE_TIME ( #48, #275 ) ;
#48 = DATE_AND_TIME ( #100, #11 ) ;
#49 = DIRECTION ( 'NONE',  ( 1.000000000000000000, 0.0000000000000000000, 0.0000000000000000000 ) ) ;
#50 = DIRECTION ( 'NONE',  ( 1.000000000000000000, 0.0000000000000000000, 0.0000000000000000000 ) ) ;
#51 = CC_DESIGN_APPROVAL ( #107, ( #65 ) ) ;
#52 = VERTEX_POINT ( 'NONE', #62 ) ;
#53 = CARTESIAN_POINT ( 'NONE',  ( 0.5844956134705980900, 0.0000000000000000000, 0.0000000000000000000 ) ) ;
#54 = DIRECTION ( 'NONE',  ( 0.0000000000000000000, 0.0000000000000000000, -1.000000000000000000 ) ) ;
#55 =( LENGTH_UNIT ( ) NAMED_UNIT ( * ) SI_UNIT ( .MILLI., .METRE. ) );
#56 = VECTOR ( 'NONE', #45, 999.9999999999998900 ) ;
#57 = EDGE_CURVE ( 'NONE', #247, #153, #263, .T. ) ;
#58 = COORDINATED_UNIVERSAL_TIME_OFFSET ( 5, 0, .BEHIND. ) ;
#59 = DIRECTION ( 'NONE',  ( 0.0000000000000000000, 0.0000000000000000000, 1.000000000000000000 ) ) ;
#60 = DIRECTION ( 'NONE',  ( -0.0000000000000000000, 1.000000000000000000, 1.224646799147353200E-016 ) ) ;
#61 = PRODUCT_DEFINITION_SHAPE ( 'NONE', 'NONE',  #65 ) ;
#62 = CARTESIAN_POINT ( 'NONE',  ( -1.200000000000008400, 1.555301434917137200E-015, -12.69999999999998900 ) ) ;
#63 = AXIS2_PLACEMENT_3D ( 'NONE', #143, #152, #222 ) ;
#64 = EDGE_LOOP ( 'NONE', ( #193, #202, #127, #115 ) ) ;
#65 = PRODUCT_DEFINITION ( 'UNKNOWN', '', #297, #132 ) ;
#66 = ORIENTED_EDGE ( 'NONE', *, *, #136, .F. ) ;
#67 = APPROVAL_PERSON_ORGANIZATION ( #265, #107, #235 ) ;
#68 = EDGE_LOOP ( 'NONE', ( #176, #238, #257, #101 ) ) ;
#69 = CARTESIAN_POINT ( 'NONE',  ( -1.200000000000008400, 0.0000000000000000000, 0.0000000000000000000 ) ) ;
#70 = PERSON_AND_ORGANIZATION_ROLE ( 'design_supplier' ) ;
#71 = UNCERTAINTY_MEASURE_WITH_UNIT (LENGTH_MEASURE( 1.000000000000000100E-005 ), #55, 'distance_accuracy_value', 'NONE');
#72 = APPROVAL_PERSON_ORGANIZATION ( #78, #262, #205 ) ;
#73 = DIRECTION ( 'NONE',  ( -1.000000000000000000, -0.0000000000000000000, -0.0000000000000000000 ) ) ;
#74 = VERTEX_POINT ( 'NONE', #249 ) ;
#75 = EDGE_CURVE ( 'NONE', #74, #52, #186, .T. ) ;
#76 = CALENDAR_DATE ( 2015, 29, 5 ) ;
#77 = CARTESIAN_POINT ( 'NONE',  ( 0.2999999999996894000, 0.0000000000000000000, 0.0000000000000000000 ) ) ;
#78 = PERSON_AND_ORGANIZATION ( #298, #200 ) ;
#79 = PERSON_AND_ORGANIZATION_ROLE ( 'creator' ) ;
#80 = ADVANCED_FACE ( 'NONE', ( #293 ), #283, .T. ) ;
#81 = ORIENTED_EDGE ( 'NONE', *, *, #57, .T. ) ;
#82 = ORIENTED_EDGE ( 'NONE', *, *, #240, .F. ) ;
#83 = CARTESIAN_POINT ( 'NONE',  ( -1.200000000000008400, 0.0000000000000000000, 0.0000000000000000000 ) ) ;
#84 = DATE_AND_TIME ( #89, #91 ) ;
#85 = PERSON_AND_ORGANIZATION_ROLE ( 'classification_officer' ) ;
#86 = ORIENTED_EDGE ( 'NONE', *, *, #75, .F. ) ;
#87 = CARTESIAN_POINT ( 'NONE',  ( 0.2999999999996894000, 0.0000000000000000000, 12.69999999999998900 ) ) ;
#88 = CARTESIAN_POINT ( 'NONE',  ( -90.54989681775261100, -1.687415884157285400E-017, 0.1377879634627821000 ) ) ;
#89 = CALENDAR_DATE ( 2015, 29, 5 ) ;
#90 = AXIS2_PLACEMENT_3D ( 'NONE', #83, #31, #54 ) ;
#91 = LOCAL_TIME ( 10, 22, 23.00000000000000000, #28 ) ;
#92 = CC_DESIGN_PERSON_AND_ORGANIZATION_ASSIGNMENT ( #108, #79, ( #65 ) ) ;
#93 = ORIENTED_EDGE ( 'NONE', *, *, #46, .F. ) ;
#94 = VERTEX_POINT ( 'NONE', #18 ) ;
#95 = DIRECTION ( 'NONE',  ( 0.0000000000000000000, 0.0000000000000000000, 1.000000000000000000 ) ) ;
#96 = COORDINATED_UNIVERSAL_TIME_OFFSET ( 5, 0, .BEHIND. ) ;
#97 = EDGE_LOOP ( 'NONE', ( #175, #277, #196 ) ) ;
#98 = FACE_OUTER_BOUND ( 'NONE', #122, .T. ) ;
#99 = DIRECTION ( 'NONE',  ( 0.0000000000000000000, 0.0000000000000000000, -1.000000000000000000 ) ) ;
#100 = CALENDAR_DATE ( 2015, 29, 5 ) ;
#101 = ORIENTED_EDGE ( 'NONE', *, *, #22, .F. ) ;
#102 = CC_DESIGN_PERSON_AND_ORGANIZATION_ASSIGNMENT ( #44, #209, ( #297 ) ) ;
#103 = MECHANICAL_CONTEXT ( 'NONE', #291, 'mechanical' ) ;
#104 = DIRECTION ( 'NONE',  ( -1.000000000000000000, -0.0000000000000000000, -0.0000000000000000000 ) ) ;
#105 = APPROVAL_PERSON_ORGANIZATION ( #171, #275, #10 ) ;
#106 = ORIENTED_EDGE ( 'NONE', *, *, #109, .F. ) ;
#107 = APPROVAL ( #138, 'UNSPECIFIED' ) ;
#108 = PERSON_AND_ORGANIZATION ( #298, #200 ) ;
#109 = EDGE_CURVE ( 'NONE', #290, #8, #226, .T. ) ;
#110 = CLOSED_SHELL ( 'NONE', ( #32, #155, #80, #25, #255, #172, #299, #133, #3 ) ) ;
#111 = LOCAL_TIME ( 10, 22, 23.00000000000000000, #179 ) ;
#112 = COORDINATED_UNIVERSAL_TIME_OFFSET ( 5, 0, .BEHIND. ) ;
#113 = CC_DESIGN_PERSON_AND_ORGANIZATION_ASSIGNMENT ( #38, #70, ( #297 ) ) ;
#114 = DIRECTION ( 'NONE',  ( 0.0000000000000000000, -1.000000000000000000, 0.0000000000000000000 ) ) ;
#115 = ORIENTED_EDGE ( 'NONE', *, *, #251, .F. ) ;
#116 = DIRECTION ( 'NONE',  ( -1.000000000000000000, -0.0000000000000000000, -0.0000000000000000000 ) ) ;
#117 = CARTESIAN_POINT ( 'NONE',  ( -1.450000000000000000, 0.0000000000000000000, 0.0000000000000000000 ) ) ;
#118 = AXIS2_PLACEMENT_3D ( 'NONE', #236, #73, #13 ) ;
#119 = ORIENTED_EDGE ( 'NONE', *, *, #173, .T. ) ;
#120 = LOCAL_TIME ( 10, 22, 23.00000000000000000, #112 ) ;
#121 = VERTEX_POINT ( 'NONE', #234 ) ;
#122 = EDGE_LOOP ( 'NONE', ( #20, #139, #24, #223 ) ) ;
#123 = AXIS2_PLACEMENT_3D ( 'NONE', #204, #104, #95 ) ;
#124 = DATE_TIME_ROLE ( 'classification_date' ) ;
#125 = DIRECTION ( 'NONE',  ( -1.000000000000000000, -0.0000000000000000000, -0.0000000000000000000 ) ) ;
#126 = APPLICATION_PROTOCOL_DEFINITION ( 'international standard', 'config_control_design', 1994, #291 ) ;
#127 = ORIENTED_EDGE ( 'NONE', *, *, #245, .T. ) ;
#128 = EDGE_CURVE ( 'NONE', #52, #74, #252, .T. ) ;
#129 = DIRECTION ( 'NONE',  ( 0.0000000000000000000, 0.0000000000000000000, -1.000000000000000000 ) ) ;
#130 = CALENDAR_DATE ( 2015, 29, 5 ) ;
#131 = DATE_AND_TIME ( #130, #120 ) ;
#132 = DESIGN_CONTEXT ( 'detailed design', #211, 'design' ) ;
#133 = ADVANCED_FACE ( 'NONE', ( #225 ), #16, .T. ) ;
#134 = ORIENTED_EDGE ( 'NONE', *, *, #192, .T. ) ;
#135 = CC_DESIGN_APPROVAL ( #275, ( #297 ) ) ;
#136 = EDGE_CURVE ( 'NONE', #185, #121, #15, .T. ) ;
#137 = CIRCLE ( 'NONE', #154, 12.45278454900880600 ) ;
#138 = APPROVAL_STATUS ( 'not_yet_approved' ) ;
#139 = ORIENTED_EDGE ( 'NONE', *, *, #144, .T. ) ;
#140 = EDGE_LOOP ( 'NONE', ( #250, #81, #119 ) ) ;
#141 = VECTOR ( 'NONE', #289, 999.9999999999998900 ) ;
#142 = DIRECTION ( 'NONE',  ( 0.0000000000000000000, 0.0000000000000000000, -1.000000000000000000 ) ) ;
#143 = CARTESIAN_POINT ( 'NONE',  ( -1.450000000000000000, 0.0000000000000000000, 0.0000000000000000000 ) ) ;
#144 = EDGE_CURVE ( 'NONE', #121, #52, #26, .T. ) ;
#145 = LINE ( 'NONE', #274, #149 ) ;
#146 = EDGE_LOOP ( 'NONE', ( #169, #214, #170, #188 ) ) ;
#147 = CARTESIAN_POINT ( 'NONE',  ( -1.450000000000000000, 0.0000000000000000000, 0.0000000000000000000 ) ) ;
#148 = CARTESIAN_POINT ( 'NONE',  ( -1.450000000000000000, 1.555301434917137200E-015, -12.69999999999998900 ) ) ;
#149 = VECTOR ( 'NONE', #279, 1000.000000000000000 ) ;
#150 = CARTESIAN_POINT ( 'NONE',  ( 0.0000000000000000000, 0.0000000000000000000, 0.0000000000000000000 ) ) ;
#151 = ORIENTED_EDGE ( 'NONE', *, *, #109, .T. ) ;
#152 = DIRECTION ( 'NONE',  ( 1.000000000000000000, 0.0000000000000000000, 0.0000000000000000000 ) ) ;
#153 = VERTEX_POINT ( 'NONE', #159 ) ;
#154 = AXIS2_PLACEMENT_3D ( 'NONE', #270, #165, #260 ) ;
#155 = ADVANCED_FACE ( 'NONE', ( #301 ), #184, .T. ) ;
#156 = AXIS2_PLACEMENT_3D ( 'NONE', #198, #239, #59 ) ;
#157 = CARTESIAN_POINT ( 'NONE',  ( 0.2999999999996894000, 0.0000000000000000000, 12.69999999999998900 ) ) ;
#158 = DATE_AND_TIME ( #76, #272 ) ;
#159 = CARTESIAN_POINT ( 'NONE',  ( 0.5844956134705980900, 0.0000000000000000000, 12.45278454900888800 ) ) ;
#160 = DIRECTION ( 'NONE',  ( -1.000000000000000000, -0.0000000000000000000, -0.0000000000000000000 ) ) ;
#161 = CARTESIAN_POINT ( 'NONE',  ( -1.450000000000000000, 0.0000000000000000000, 0.0000000000000000000 ) ) ;
#162 = CARTESIAN_POINT ( 'NONE',  ( -90.54989681775261100, 0.0000000000000000000, -0.1377879634627821000 ) ) ;
#163 = CIRCLE ( 'NONE', #244, 12.45000000000000100 ) ;
#164 = FACE_OUTER_BOUND ( 'NONE', #140, .T. ) ;
#165 = DIRECTION ( 'NONE',  ( 1.000000000000000000, 0.0000000000000000000, 0.0000000000000000000 ) ) ;
#166 = MANIFOLD_SOLID_BREP ( '4286-001-1-solid1', #110 ) ;
#167 = AXIS2_PLACEMENT_3D ( 'NONE', #36, #50, #187 ) ;
#168 =( NAMED_UNIT ( * ) SI_UNIT ( $, .STERADIAN. ) SOLID_ANGLE_UNIT ( ) );
#169 = ORIENTED_EDGE ( 'NONE', *, *, #144, .F. ) ;
#170 = ORIENTED_EDGE ( 'NONE', *, *, #253, .T. ) ;
#171 = PERSON_AND_ORGANIZATION ( #298, #200 ) ;
#172 = ADVANCED_FACE ( 'NONE', ( #228 ), #237, .T. ) ;
#173 = EDGE_CURVE ( 'NONE', #153, #94, #218, .T. ) ;
#174 = PERSON_AND_ORGANIZATION_ROLE ( 'design_owner' ) ;
#175 = ORIENTED_EDGE ( 'NONE', *, *, #57, .F. ) ;
#176 = ORIENTED_EDGE ( 'NONE', *, *, #189, .F. ) ;
#177 =( NAMED_UNIT ( * ) PLANE_ANGLE_UNIT ( ) SI_UNIT ( $, .RADIAN. ) );
#178 = DIRECTION ( 'NONE',  ( 0.0000000000000000000, 0.0000000000000000000, 1.000000000000000000 ) ) ;
#179 = COORDINATED_UNIVERSAL_TIME_OFFSET ( 5, 0, .BEHIND. ) ;
#180 = DIRECTION ( 'NONE',  ( 1.000000000000000000, 0.0000000000000000000, 0.0000000000000000000 ) ) ;
#181 = DIRECTION ( 'NONE',  ( 0.0000000000000000000, 0.0000000000000000000, 1.000000000000000000 ) ) ;
#182 = AXIS2_PLACEMENT_3D ( 'NONE', #150, #178, #268 ) ;
#183 = LINE ( 'NONE', #157, #56 ) ;
#184 = CONICAL_SURFACE ( 'NONE', #216, 12.69999999999998900, 0.7153991435513259400 ) ;
#185 = VERTEX_POINT ( 'NONE', #87 ) ;
#186 = CIRCLE ( 'NONE', #90, 12.69999999999998900 ) ;
#187 = DIRECTION ( 'NONE',  ( 0.0000000000000000000, 0.0000000000000000000, -1.000000000000000000 ) ) ;
#188 = ORIENTED_EDGE ( 'NONE', *, *, #75, .T. ) ;
#189 = EDGE_CURVE ( 'NONE', #8, #290, #163, .T. ) ;
#190 = LINE ( 'NONE', #194, #141 ) ;
#191 = CIRCLE ( 'NONE', #199, 12.69999999999998900 ) ;
#192 = EDGE_CURVE ( 'NONE', #94, #121, #190, .T. ) ;
#193 = ORIENTED_EDGE ( 'NONE', *, *, #192, .F. ) ;
#194 = CARTESIAN_POINT ( 'NONE',  ( 0.2999999999996894000, 1.555301434917137200E-015, -12.69999999999998900 ) ) ;
#195 = SHAPE_DEFINITION_REPRESENTATION ( #61, #269 ) ;
#196 = ORIENTED_EDGE ( 'NONE', *, *, #240, .T. ) ;
#197 = LINE ( 'NONE', #215, #261 ) ;
#198 = CARTESIAN_POINT ( 'NONE',  ( -90.54989681775261100, 0.0000000000000000000, 0.0000000000000000000 ) ) ;
#199 = AXIS2_PLACEMENT_3D ( 'NONE', #284, #292, #294 ) ;
#200 = ORGANIZATION ( 'UNSPECIFIED', 'UNSPECIFIED', '' ) ;
#201 = DIRECTION ( 'NONE',  ( 0.0000000000000000000, 0.0000000000000000000, 1.000000000000000000 ) ) ;
#202 = ORIENTED_EDGE ( 'NONE', *, *, #173, .F. ) ;
#203 = CARTESIAN_POINT ( 'NONE',  ( -1.450000000000000000, 0.0000000000000000000, -12.45000000000000100 ) ) ;
#204 = CARTESIAN_POINT ( 'NONE',  ( -1.450000000000000000, 0.0000000000000000000, 0.0000000000000000000 ) ) ;
#205 = APPROVAL_ROLE ( '' ) ;
#206 = AXIS2_PLACEMENT_3D ( 'NONE', #88, #60, #219 ) ;
#207 = DIRECTION ( 'NONE',  ( 0.0000000000000000000, 0.0000000000000000000, -1.000000000000000000 ) ) ;
#208 = AXIS2_PLACEMENT_3D ( 'NONE', #232, #160, #224 ) ;
#209 = PERSON_AND_ORGANIZATION_ROLE ( 'creator' ) ;
#210 = EDGE_LOOP ( 'NONE', ( #93, #106, #231, #86 ) ) ;
#211 = APPLICATION_CONTEXT ( 'configuration controlled 3d designs of mechanical parts and assemblies' ) ;
#212 = PERSON_AND_ORGANIZATION ( #298, #200 ) ;
#213 = APPROVAL_STATUS ( 'not_yet_approved' ) ;
#214 = ORIENTED_EDGE ( 'NONE', *, *, #251, .T. ) ;
#215 = CARTESIAN_POINT ( 'NONE',  ( -1.450000000000000000, 1.524685264938455000E-015, 12.45000000000000100 ) ) ;
#216 = AXIS2_PLACEMENT_3D ( 'NONE', #77, #37, #201 ) ;
#217 = DATE_AND_TIME ( #7, #111 ) ;
#218 = CIRCLE ( 'NONE', #276, 12.45278454900880600 ) ;
#219 = DIRECTION ( 'NONE',  ( 0.0000000000000000000, -1.224646799147353200E-016, 1.000000000000000000 ) ) ;
#220 = CC_DESIGN_DATE_AND_TIME_ASSIGNMENT ( #131, #256, ( #65 ) ) ;
#221 = TOROIDAL_SURFACE ( 'NONE', #242, -0.1377879634627821000, 92.00000000000001400 ) ;
#222 = DIRECTION ( 'NONE',  ( 0.0000000000000000000, 0.0000000000000000000, -1.000000000000000000 ) ) ;
#223 = ORIENTED_EDGE ( 'NONE', *, *, #253, .F. ) ;
#224 = DIRECTION ( 'NONE',  ( 0.0000000000000000000, 0.0000000000000000000, 1.000000000000000000 ) ) ;
#225 = FACE_OUTER_BOUND ( 'NONE', #64, .T. ) ;
#226 = CIRCLE ( 'NONE', #229, 12.45000000000000100 ) ;
#227 =( GEOMETRIC_REPRESENTATION_CONTEXT ( 3 ) GLOBAL_UNCERTAINTY_ASSIGNED_CONTEXT ( ( #71 ) ) GLOBAL_UNIT_ASSIGNED_CONTEXT ( ( #55, #177, #168 ) ) REPRESENTATION_CONTEXT ( 'NONE', 'WORKASPACE' ) );
#228 = FACE_OUTER_BOUND ( 'NONE', #146, .T. ) ;
#229 = AXIS2_PLACEMENT_3D ( 'NONE', #161, #116, #142 ) ;
#230 = CONICAL_SURFACE ( 'NONE', #167, 12.45000000000000100, 0.7853981633974415100 ) ;
#231 = ORIENTED_EDGE ( 'NONE', *, *, #22, .T. ) ;
#232 = CARTESIAN_POINT ( 'NONE',  ( 0.2999999999996894000, 0.0000000000000000000, 0.0000000000000000000 ) ) ;
#233 = VECTOR ( 'NONE', #287, 1000.000000000000000 ) ;
#234 = CARTESIAN_POINT ( 'NONE',  ( 0.2999999999996894000, 1.555301434917137200E-015, -12.69999999999998900 ) ) ;
#235 = APPROVAL_ROLE ( '' ) ;
#236 = CARTESIAN_POINT ( 'NONE',  ( -1.450000000000000000, 0.0000000000000000000, 0.0000000000000000000 ) ) ;
#237 = CYLINDRICAL_SURFACE ( 'NONE', #123, 12.69999999999998900 ) ;
#238 = ORIENTED_EDGE ( 'NONE', *, *, #46, .T. ) ;
#239 = DIRECTION ( 'NONE',  ( -1.000000000000000000, -0.0000000000000000000, -0.0000000000000000000 ) ) ;
#240 = EDGE_CURVE ( 'NONE', #94, #153, #137, .T. ) ;
#241 = PRODUCT_RELATED_PRODUCT_CATEGORY ( 'detail', '', ( #271 ) ) ;
#242 = AXIS2_PLACEMENT_3D ( 'NONE', #40, #9, #29 ) ;
#243 = CC_DESIGN_APPROVAL ( #262, ( #23 ) ) ;
#244 = AXIS2_PLACEMENT_3D ( 'NONE', #147, #278, #129 ) ;
#245 = EDGE_CURVE ( 'NONE', #153, #185, #183, .T. ) ;
#246 = EDGE_LOOP ( 'NONE', ( #151, #295 ) ) ;
#247 = VERTEX_POINT ( 'NONE', #282 ) ;
#248 = APPROVAL_DATE_TIME ( #158, #262 ) ;
#249 = CARTESIAN_POINT ( 'NONE',  ( -1.200000000000008400, 0.0000000000000000000, 12.69999999999998900 ) ) ;
#250 = ORIENTED_EDGE ( 'NONE', *, *, #281, .F. ) ;
#251 = EDGE_CURVE ( 'NONE', #121, #185, #191, .T. ) ;
#252 = CIRCLE ( 'NONE', #267, 12.69999999999998900 ) ;
#253 = EDGE_CURVE ( 'NONE', #185, #74, #145, .T. ) ;
#254 = CC_DESIGN_SECURITY_CLASSIFICATION ( #23, ( #297 ) ) ;
#255 = ADVANCED_FACE ( 'NONE', ( #43 ), #280, .F. ) ;
#256 = DATE_TIME_ROLE ( 'creation_date' ) ;
#257 = ORIENTED_EDGE ( 'NONE', *, *, #128, .F. ) ;
#258 = DIRECTION ( 'NONE',  ( 0.7071067811865524600, 0.0000000000000000000, -0.7071067811865426900 ) ) ;
#259 = CIRCLE ( 'NONE', #206, 92.00000000000001400 ) ;
#260 = DIRECTION ( 'NONE',  ( 0.0000000000000000000, 0.0000000000000000000, 1.000000000000000000 ) ) ;
#261 = VECTOR ( 'NONE', #27, 1000.000000000000000 ) ;
#262 = APPROVAL ( #213, 'UNSPECIFIED' ) ;
#263 = CIRCLE ( 'NONE', #300, 92.00000000000001400 ) ;
#264 = APPLICATION_PROTOCOL_DEFINITION ( 'international standard', 'config_control_design', 1994, #211 ) ;
#265 = PERSON_AND_ORGANIZATION ( #298, #200 ) ;
#266 = EDGE_LOOP ( 'NONE', ( #82, #134, #66, #41 ) ) ;
#267 = AXIS2_PLACEMENT_3D ( 'NONE', #69, #180, #42 ) ;
#268 = DIRECTION ( 'NONE',  ( 1.000000000000000000, 0.0000000000000000000, 0.0000000000000000000 ) ) ;
#269 = ADVANCED_BREP_SHAPE_REPRESENTATION ( '4286-E0W', ( #166, #182 ), #227 ) ;
#270 = CARTESIAN_POINT ( 'NONE',  ( 0.5844956134705980900, 0.0000000000000000000, 0.0000000000000000000 ) ) ;
#271 = PRODUCT ( '4286-E0W', '4286-E0W', '', ( #103 ) ) ;
#272 = LOCAL_TIME ( 10, 22, 23.00000000000000000, #58 ) ;
#273 = APPROVAL_DATE_TIME ( #217, #107 ) ;
#274 = CARTESIAN_POINT ( 'NONE',  ( -1.450000000000000000, 0.0000000000000000000, 12.69999999999998900 ) ) ;
#275 = APPROVAL ( #6, 'UNSPECIFIED' ) ;
#276 = AXIS2_PLACEMENT_3D ( 'NONE', #53, #49, #296 ) ;
#277 = ORIENTED_EDGE ( 'NONE', *, *, #281, .T. ) ;
#278 = DIRECTION ( 'NONE',  ( -1.000000000000000000, -0.0000000000000000000, -0.0000000000000000000 ) ) ;
#279 = DIRECTION ( 'NONE',  ( -1.000000000000000000, -0.0000000000000000000, -0.0000000000000000000 ) ) ;
#280 = PLANE ( 'NONE',  #39 ) ;
#281 = EDGE_CURVE ( 'NONE', #247, #94, #259, .T. ) ;
#282 = CARTESIAN_POINT ( 'NONE',  ( 1.450000000000000000, 0.0000000000000000000, 0.0000000000000000000 ) ) ;
#283 = TOROIDAL_SURFACE ( 'NONE', #156, -0.1377879634627821000, 92.00000000000001400 ) ;
#284 = CARTESIAN_POINT ( 'NONE',  ( 0.2999999999996894000, 0.0000000000000000000, 0.0000000000000000000 ) ) ;
#285 = FACE_OUTER_BOUND ( 'NONE', #210, .T. ) ;
#286 = CYLINDRICAL_SURFACE ( 'NONE', #118, 12.69999999999998900 ) ;
#287 = DIRECTION ( 'NONE',  ( -1.000000000000000000, -0.0000000000000000000, -0.0000000000000000000 ) ) ;
#288 = CC_DESIGN_DATE_AND_TIME_ASSIGNMENT ( #84, #124, ( #23 ) ) ;
#289 = DIRECTION ( 'NONE',  ( -0.7548314956054337200, 8.032688038873766000E-017, -0.6559187550619850500 ) ) ;
#290 = VERTEX_POINT ( 'NONE', #203 ) ;
#291 = APPLICATION_CONTEXT ( 'configuration controlled 3d designs of mechanical parts and assemblies' ) ;
#292 = DIRECTION ( 'NONE',  ( -1.000000000000000000, -0.0000000000000000000, -0.0000000000000000000 ) ) ;
#293 = FACE_OUTER_BOUND ( 'NONE', #97, .T. ) ;
#294 = DIRECTION ( 'NONE',  ( 0.0000000000000000000, 0.0000000000000000000, 1.000000000000000000 ) ) ;
#295 = ORIENTED_EDGE ( 'NONE', *, *, #189, .T. ) ;
#296 = DIRECTION ( 'NONE',  ( 0.0000000000000000000, 0.0000000000000000000, 1.000000000000000000 ) ) ;
#297 = PRODUCT_DEFINITION_FORMATION_WITH_SPECIFIED_SOURCE ( 'ANY', '', #271, .NOT_KNOWN. ) ;
#298 = PERSON ( 'UNSPECIFIED', 'UNSPECIFIED', 'UNSPECIFIED', ('UNSPECIFIED'), ('UNSPECIFIED'), ('UNSPECIFIED') ) ;
#299 = ADVANCED_FACE ( 'NONE', ( #164 ), #221, .T. ) ;
#300 = AXIS2_PLACEMENT_3D ( 'NONE', #162, #114, #99 ) ;
#301 = FACE_OUTER_BOUND ( 'NONE', #266, .T. ) ;
ENDSEC;
END-ISO-10303-21;
