ISO-10303-21;
HEADER;
FILE_DESCRIPTION (( 'STEP AP203' ),
    '1' );
FILE_NAME ('Web Model 64397MX_15775.step',
    '2020-10-19T15:37:37',
    ( '' ),
    ( '' ),
    'SwSTEP 2.0',
    'SolidWorks 2018',
    '' );
FILE_SCHEMA (( 'CONFIG_CONTROL_DESIGN' ));
ENDSEC;

DATA;
#1 = CC_DESIGN_DATE_AND_TIME_ASSIGNMENT ( #129, #154, ( #69 ) ) ;
#2 = LOCAL_TIME ( 11, 37, 37.00000000000000000, #173 ) ;
#3 = LINE ( 'NONE', #228, #193 ) ;
#4 = ORIENTED_EDGE ( 'NONE', *, *, #227, .T. ) ;
#5 = CARTESIAN_POINT ( 'NONE',  ( 0.0000000000000000000, 0.0000000000000000000, 0.0000000000000000000 ) ) ;
#6 = DIRECTION ( 'NONE',  ( 0.0000000000000000000, 0.0000000000000000000, 1.000000000000000000 ) ) ;
#7 = CC_DESIGN_SECURITY_CLASSIFICATION ( #77, ( #58 ) ) ;
#8 =( NAMED_UNIT ( * ) PLANE_ANGLE_UNIT ( ) SI_UNIT ( $, .RADIAN. ) );
#9 = LOCAL_TIME ( 11, 37, 37.00000000000000000, #95 ) ;
#10 = ORIENTED_EDGE ( 'NONE', *, *, #215, .T. ) ;
#11 =( LENGTH_UNIT ( ) NAMED_UNIT ( * ) SI_UNIT ( .MILLI., .METRE. ) );
#12 = CARTESIAN_POINT ( 'NONE',  ( 6.349999999999998757, -6.349999999999998757, 3.000000000000000000 ) ) ;
#13 = VECTOR ( 'NONE', #146, 1000.000000000000000 ) ;
#14 = CARTESIAN_POINT ( 'NONE',  ( -6.350000000000000533, -6.350000000000000533, 3.000000000000000000 ) ) ;
#15 = EDGE_CURVE ( 'NONE', #80, #216, #30, .T. ) ;
#16 = DATE_AND_TIME ( #110, #101 ) ;
#17 = PERSON_AND_ORGANIZATION ( #190, #211 ) ;
#18 = LINE ( 'NONE', #60, #178 ) ;
#19 = CC_DESIGN_APPROVAL ( #160, ( #69 ) ) ;
#20 = APPROVAL_PERSON_ORGANIZATION ( #149, #148, #203 ) ;
#21 = ORIENTED_EDGE ( 'NONE', *, *, #111, .T. ) ;
#22 = EDGE_CURVE ( 'NONE', #216, #123, #18, .T. ) ;
#23 = LOCAL_TIME ( 11, 37, 37.00000000000000000, #72 ) ;
#24 = LINE ( 'NONE', #166, #201 ) ;
#25 = APPLICATION_CONTEXT ( 'configuration controlled 3d designs of mechanical parts and assemblies' ) ;
#26 = EDGE_CURVE ( 'NONE', #187, #104, #53, .T. ) ;
#27 = DIRECTION ( 'NONE',  ( 0.0000000000000000000, 0.0000000000000000000, -1.000000000000000000 ) ) ;
#28 = CARTESIAN_POINT ( 'NONE',  ( 6.349999999999998757, 6.350000000000000533, 3.000000000000000000 ) ) ;
#29 = CARTESIAN_POINT ( 'NONE',  ( -6.350000000000000533, -6.350000000000000533, 3.000000000000000000 ) ) ;
#30 = LINE ( 'NONE', #121, #84 ) ;
#31 = EDGE_LOOP ( 'NONE', ( #21, #183, #119, #10 ) ) ;
#32 = DATE_AND_TIME ( #139, #2 ) ;
#33 = CARTESIAN_POINT ( 'NONE',  ( 6.349999999999998757, 6.350000000000000533, -3.000000000000000000 ) ) ;
#34 = EDGE_CURVE ( 'NONE', #123, #97, #117, .T. ) ;
#35 = PERSON_AND_ORGANIZATION ( #190, #211 ) ;
#36 = APPROVAL_STATUS ( 'not_yet_approved' ) ;
#37 = DIRECTION ( 'NONE',  ( -1.000000000000000000, -1.365923996832131609E-16, 0.0000000000000000000 ) ) ;
#38 = APPROVAL_STATUS ( 'not_yet_approved' ) ;
#39 = FACE_OUTER_BOUND ( 'NONE', #207, .T. ) ;
#40 = DIRECTION ( 'NONE',  ( -1.000000000000000000, -1.365923996832131609E-16, 0.0000000000000000000 ) ) ;
#41 = VECTOR ( 'NONE', #109, 1000.000000000000000 ) ;
#42 = ORIENTED_EDGE ( 'NONE', *, *, #215, .F. ) ;
#43 = UNCERTAINTY_MEASURE_WITH_UNIT (LENGTH_MEASURE( 1.000000000000000082E-05 ), #11, 'distance_accuracy_value', 'NONE');
#44 = DIRECTION ( 'NONE',  ( 1.365923996832131609E-16, -1.000000000000000000, 0.0000000000000000000 ) ) ;
#45 = LINE ( 'NONE', #55, #157 ) ;
#46 = CARTESIAN_POINT ( 'NONE',  ( 0.0000000000000000000, 0.0000000000000000000, 3.000000000000000000 ) ) ;
#47 = CLOSED_SHELL ( 'NONE', ( #188, #208, #102, #158, #155, #223 ) ) ;
#48 = CC_DESIGN_APPROVAL ( #148, ( #58 ) ) ;
#49 = ORIENTED_EDGE ( 'NONE', *, *, #176, .F. ) ;
#50 = EDGE_LOOP ( 'NONE', ( #127, #143, #237, #226 ) ) ;
#51 = PRODUCT_DEFINITION_SHAPE ( 'NONE', 'NONE',  #69 ) ;
#52 = DATE_AND_TIME ( #108, #9 ) ;
#53 = LINE ( 'NONE', #29, #214 ) ;
#54 = PERSON_AND_ORGANIZATION_ROLE ( 'design_owner' ) ;
#55 = CARTESIAN_POINT ( 'NONE',  ( 6.349999999999998757, 6.350000000000000533, 3.000000000000000000 ) ) ;
#56 = PERSON_AND_ORGANIZATION ( #190, #211 ) ;
#57 = DIRECTION ( 'NONE',  ( -0.0000000000000000000, -0.0000000000000000000, -1.000000000000000000 ) ) ;
#58 = PRODUCT_DEFINITION_FORMATION_WITH_SPECIFIED_SOURCE ( 'ANY', '', #128, .NOT_KNOWN. ) ;
#59 = VERTEX_POINT ( 'NONE', #103 ) ;
#60 = CARTESIAN_POINT ( 'NONE',  ( 6.349999999999998757, -6.349999999999998757, -3.000000000000000000 ) ) ;
#61 = DESIGN_CONTEXT ( 'detailed design', #25, 'design' ) ;
#62 = PLANE ( 'NONE',  #90 ) ;
#63 = CARTESIAN_POINT ( 'NONE',  ( -6.350000000000000533, -6.350000000000000533, 3.000000000000000000 ) ) ;
#64 = VECTOR ( 'NONE', #219, 1000.000000000000000 ) ;
#65 = VERTEX_POINT ( 'NONE', #28 ) ;
#66 = AXIS2_PLACEMENT_3D ( 'NONE', #5, #6, #138 ) ;
#67 = APPROVAL_PERSON_ORGANIZATION ( #113, #160, #91 ) ;
#68 = CARTESIAN_POINT ( 'NONE',  ( 6.349999999999998757, -6.349999999999998757, -3.000000000000000000 ) ) ;
#69 = PRODUCT_DEFINITION ( 'UNKNOWN', '', #58, #61 ) ;
#70 = LINE ( 'NONE', #217, #41 ) ;
#71 = ORIENTED_EDGE ( 'NONE', *, *, #83, .F. ) ;
#72 = COORDINATED_UNIVERSAL_TIME_OFFSET ( 5, 0, .BEHIND. ) ;
#73 = LINE ( 'NONE', #68, #13 ) ;
#74 = ORIENTED_EDGE ( 'NONE', *, *, #131, .F. ) ;
#75 = PERSON_AND_ORGANIZATION ( #190, #211 ) ;
#76 = FACE_OUTER_BOUND ( 'NONE', #171, .T. ) ;
#77 = SECURITY_CLASSIFICATION ( '', '', #205 ) ;
#78 = APPROVAL_STATUS ( 'not_yet_approved' ) ;
#79 = PLANE ( 'NONE',  #189 ) ;
#80 = VERTEX_POINT ( 'NONE', #12 ) ;
#81 = CARTESIAN_POINT ( 'NONE',  ( 6.349999999999998757, 6.350000000000000533, -3.000000000000000000 ) ) ;
#82 = LOCAL_TIME ( 11, 37, 37.00000000000000000, #159 ) ;
#83 = EDGE_CURVE ( 'NONE', #80, #65, #3, .T. ) ;
#84 = VECTOR ( 'NONE', #100, 1000.000000000000000 ) ;
#85 = DIRECTION ( 'NONE',  ( 0.0000000000000000000, -0.0000000000000000000, 1.000000000000000000 ) ) ;
#86 = ORIENTED_EDGE ( 'NONE', *, *, #94, .T. ) ;
#87 = APPROVAL ( #38, 'UNSPECIFIED' ) ;
#88 = PERSON_AND_ORGANIZATION ( #190, #211 ) ;
#89 = VECTOR ( 'NONE', #98, 1000.000000000000000 ) ;
#90 = AXIS2_PLACEMENT_3D ( 'NONE', #229, #125, #161 ) ;
#91 = APPROVAL_ROLE ( '' ) ;
#92 = DIRECTION ( 'NONE',  ( 1.000000000000000000, 1.365923996832131609E-16, -0.0000000000000000000 ) ) ;
#93 = APPROVAL_ROLE ( '' ) ;
#94 = EDGE_CURVE ( 'NONE', #65, #123, #218, .T. ) ;
#95 = COORDINATED_UNIVERSAL_TIME_OFFSET ( 5, 0, .BEHIND. ) ;
#96 = ADVANCED_BREP_SHAPE_REPRESENTATION ( 'Web Model 64397MX_15775', ( #204, #66 ), #200 ) ;
#97 = VERTEX_POINT ( 'NONE', #213 ) ;
#98 = DIRECTION ( 'NONE',  ( -0.0000000000000000000, -0.0000000000000000000, -1.000000000000000000 ) ) ;
#99 = CARTESIAN_POINT ( 'NONE',  ( 6.349999999999998757, -6.349999999999998757, 3.000000000000000000 ) ) ;
#100 = DIRECTION ( 'NONE',  ( -0.0000000000000000000, -0.0000000000000000000, -1.000000000000000000 ) ) ;
#101 = LOCAL_TIME ( 11, 37, 37.00000000000000000, #152 ) ;
#102 = ADVANCED_FACE ( 'NONE', ( #39 ), #62, .F. ) ;
#103 = CARTESIAN_POINT ( 'NONE',  ( -6.350000000000000533, 6.349999999999998757, 3.000000000000000000 ) ) ;
#104 = VERTEX_POINT ( 'NONE', #185 ) ;
#105 = PLANE ( 'NONE',  #134 ) ;
#106 = APPROVAL_DATE_TIME ( #16, #87 ) ;
#107 = ORIENTED_EDGE ( 'NONE', *, *, #176, .T. ) ;
#108 = CALENDAR_DATE ( 2020, 19, 10 ) ;
#109 = DIRECTION ( 'NONE',  ( -0.0000000000000000000, -0.0000000000000000000, -1.000000000000000000 ) ) ;
#110 = CALENDAR_DATE ( 2020, 19, 10 ) ;
#111 = EDGE_CURVE ( 'NONE', #59, #187, #142, .T. ) ;
#112 = ORIENTED_EDGE ( 'NONE', *, *, #227, .F. ) ;
#113 = PERSON_AND_ORGANIZATION ( #190, #211 ) ;
#114 = DIRECTION ( 'NONE',  ( -1.365923996832131609E-16, 1.000000000000000000, 0.0000000000000000000 ) ) ;
#115 = DIRECTION ( 'NONE',  ( 0.0000000000000000000, -0.0000000000000000000, 1.000000000000000000 ) ) ;
#116 = CALENDAR_DATE ( 2020, 19, 10 ) ;
#117 = LINE ( 'NONE', #81, #177 ) ;
#118 = APPLICATION_PROTOCOL_DEFINITION ( 'international standard', 'config_control_design', 1994, #25 ) ;
#119 = ORIENTED_EDGE ( 'NONE', *, *, #83, .T. ) ;
#120 = DIRECTION ( 'NONE',  ( -0.0000000000000000000, -1.000000000000000000, -0.0000000000000000000 ) ) ;
#121 = CARTESIAN_POINT ( 'NONE',  ( 6.349999999999998757, -6.349999999999998757, 3.000000000000000000 ) ) ;
#122 = FACE_OUTER_BOUND ( 'NONE', #50, .T. ) ;
#123 = VERTEX_POINT ( 'NONE', #33 ) ;
#124 = CARTESIAN_POINT ( 'NONE',  ( 6.349999999999998757, 6.350000000000000533, 3.000000000000000000 ) ) ;
#125 = DIRECTION ( 'NONE',  ( -1.000000000000000000, 0.0000000000000000000, 0.0000000000000000000 ) ) ;
#126 = CARTESIAN_POINT ( 'NONE',  ( -6.350000000000000533, -6.350000000000000533, 3.000000000000000000 ) ) ;
#127 = ORIENTED_EDGE ( 'NONE', *, *, #131, .T. ) ;
#128 = PRODUCT ( 'Web Model 64397MX_15775', 'Web Model 64397MX_15775', '', ( #137 ) ) ;
#129 = DATE_AND_TIME ( #116, #23 ) ;
#130 = CC_DESIGN_PERSON_AND_ORGANIZATION_ASSIGNMENT ( #75, #170, ( #58 ) ) ;
#131 = EDGE_CURVE ( 'NONE', #104, #216, #73, .T. ) ;
#132 = CC_DESIGN_APPROVAL ( #87, ( #77 ) ) ;
#133 = APPROVAL_DATE_TIME ( #198, #148 ) ;
#134 = AXIS2_PLACEMENT_3D ( 'NONE', #126, #222, #27 ) ;
#135 = CARTESIAN_POINT ( 'NONE',  ( 0.0000000000000000000, 0.0000000000000000000, -3.000000000000000000 ) ) ;
#136 = ORIENTED_EDGE ( 'NONE', *, *, #22, .T. ) ;
#137 = MECHANICAL_CONTEXT ( 'NONE', #184, 'mechanical' ) ;
#138 = DIRECTION ( 'NONE',  ( 1.000000000000000000, 0.0000000000000000000, 0.0000000000000000000 ) ) ;
#139 = CALENDAR_DATE ( 2020, 19, 10 ) ;
#140 = DIRECTION ( 'NONE',  ( 0.0000000000000000000, 1.000000000000000000, 0.0000000000000000000 ) ) ;
#141 = APPLICATION_PROTOCOL_DEFINITION ( 'international standard', 'config_control_design', 1994, #184 ) ;
#142 = LINE ( 'NONE', #14, #174 ) ;
#143 = ORIENTED_EDGE ( 'NONE', *, *, #15, .F. ) ;
#144 = PLANE ( 'NONE',  #234 ) ;
#145 = CC_DESIGN_DATE_AND_TIME_ASSIGNMENT ( #52, #224, ( #77 ) ) ;
#146 = DIRECTION ( 'NONE',  ( 1.000000000000000000, 1.365923996832131609E-16, -0.0000000000000000000 ) ) ;
#147 = APPROVAL_DATE_TIME ( #32, #160 ) ;
#148 = APPROVAL ( #36, 'UNSPECIFIED' ) ;
#149 = PERSON_AND_ORGANIZATION ( #190, #211 ) ;
#150 = FACE_OUTER_BOUND ( 'NONE', #179, .T. ) ;
#151 = EDGE_LOOP ( 'NONE', ( #4, #231, #169, #107 ) ) ;
#152 = COORDINATED_UNIVERSAL_TIME_OFFSET ( 5, 0, .BEHIND. ) ;
#153 = DIRECTION ( 'NONE',  ( 1.000000000000000000, 0.0000000000000000000, -0.0000000000000000000 ) ) ;
#154 = DATE_TIME_ROLE ( 'creation_date' ) ;
#155 = ADVANCED_FACE ( 'NONE', ( #181 ), #196, .T. ) ;
#156 = PERSON_AND_ORGANIZATION_ROLE ( 'classification_officer' ) ;
#157 = VECTOR ( 'NONE', #37, 1000.000000000000000 ) ;
#158 = ADVANCED_FACE ( 'NONE', ( #76 ), #144, .F. ) ;
#159 = COORDINATED_UNIVERSAL_TIME_OFFSET ( 5, 0, .BEHIND. ) ;
#160 = APPROVAL ( #78, 'UNSPECIFIED' ) ;
#161 = DIRECTION ( 'NONE',  ( 0.0000000000000000000, 0.0000000000000000000, 1.000000000000000000 ) ) ;
#162 = CC_DESIGN_PERSON_AND_ORGANIZATION_ASSIGNMENT ( #17, #156, ( #77 ) ) ;
#163 = CALENDAR_DATE ( 2020, 19, 10 ) ;
#164 = ORIENTED_EDGE ( 'NONE', *, *, #15, .T. ) ;
#165 = CARTESIAN_POINT ( 'NONE',  ( 6.349999999999998757, 6.350000000000000533, 3.000000000000000000 ) ) ;
#166 = CARTESIAN_POINT ( 'NONE',  ( 6.349999999999998757, -6.349999999999998757, 3.000000000000000000 ) ) ;
#167 = PERSON_AND_ORGANIZATION ( #190, #211 ) ;
#168 =( NAMED_UNIT ( * ) SI_UNIT ( $, .STERADIAN. ) SOLID_ANGLE_UNIT ( ) );
#169 = ORIENTED_EDGE ( 'NONE', *, *, #111, .F. ) ;
#170 = PERSON_AND_ORGANIZATION_ROLE ( 'creator' ) ;
#171 = EDGE_LOOP ( 'NONE', ( #230, #49, #42, #86 ) ) ;
#172 = PERSON_AND_ORGANIZATION_ROLE ( 'design_supplier' ) ;
#173 = COORDINATED_UNIVERSAL_TIME_OFFSET ( 5, 0, .BEHIND. ) ;
#174 = VECTOR ( 'NONE', #120, 1000.000000000000000 ) ;
#175 = CC_DESIGN_PERSON_AND_ORGANIZATION_ASSIGNMENT ( #167, #209, ( #69 ) ) ;
#176 = EDGE_CURVE ( 'NONE', #59, #97, #70, .T. ) ;
#177 = VECTOR ( 'NONE', #40, 1000.000000000000000 ) ;
#178 = VECTOR ( 'NONE', #191, 1000.000000000000000 ) ;
#179 = EDGE_LOOP ( 'NONE', ( #112, #221, #212, #74 ) ) ;
#180 = EDGE_CURVE ( 'NONE', #187, #80, #24, .T. ) ;
#181 = FACE_OUTER_BOUND ( 'NONE', #31, .T. ) ;
#182 = CARTESIAN_POINT ( 'NONE',  ( -6.350000000000000533, -6.350000000000000533, -3.000000000000000000 ) ) ;
#183 = ORIENTED_EDGE ( 'NONE', *, *, #180, .T. ) ;
#184 = APPLICATION_CONTEXT ( 'configuration controlled 3d designs of mechanical parts and assemblies' ) ;
#185 = CARTESIAN_POINT ( 'NONE',  ( -6.350000000000000533, -6.350000000000000533, -3.000000000000000000 ) ) ;
#186 = CARTESIAN_POINT ( 'NONE',  ( 6.349999999999998757, -6.349999999999998757, -3.000000000000000000 ) ) ;
#187 = VERTEX_POINT ( 'NONE', #63 ) ;
#188 = ADVANCED_FACE ( 'NONE', ( #195 ), #105, .F. ) ;
#189 = AXIS2_PLACEMENT_3D ( 'NONE', #99, #114, #220 ) ;
#190 = PERSON ( 'UNSPECIFIED', 'UNSPECIFIED', 'UNSPECIFIED', ('UNSPECIFIED'), ('UNSPECIFIED'), ('UNSPECIFIED') ) ;
#191 = DIRECTION ( 'NONE',  ( 0.0000000000000000000, 1.000000000000000000, 0.0000000000000000000 ) ) ;
#192 = AXIS2_PLACEMENT_3D ( 'NONE', #135, #115, #153 ) ;
#193 = VECTOR ( 'NONE', #140, 1000.000000000000000 ) ;
#194 = SHAPE_DEFINITION_REPRESENTATION ( #51, #96 ) ;
#195 = FACE_OUTER_BOUND ( 'NONE', #151, .T. ) ;
#196 = PLANE ( 'NONE',  #202 ) ;
#197 = PRODUCT_RELATED_PRODUCT_CATEGORY ( 'detail', '', ( #128 ) ) ;
#198 = DATE_AND_TIME ( #163, #82 ) ;
#199 = DIRECTION ( 'NONE',  ( 1.000000000000000000, 1.365923996832131609E-16, 0.0000000000000000000 ) ) ;
#200 =( GEOMETRIC_REPRESENTATION_CONTEXT ( 3 ) GLOBAL_UNCERTAINTY_ASSIGNED_CONTEXT ( ( #43 ) ) GLOBAL_UNIT_ASSIGNED_CONTEXT ( ( #11, #8, #168 ) ) REPRESENTATION_CONTEXT ( 'NONE', 'WORKASPACE' ) );
#201 = VECTOR ( 'NONE', #92, 1000.000000000000000 ) ;
#202 = AXIS2_PLACEMENT_3D ( 'NONE', #46, #85, #233 ) ;
#203 = APPROVAL_ROLE ( '' ) ;
#204 = MANIFOLD_SOLID_BREP ( 'Boss-Extrude1', #47 ) ;
#205 = SECURITY_CLASSIFICATION_LEVEL ( 'unclassified' ) ;
#206 = LINE ( 'NONE', #182, #64 ) ;
#207 = EDGE_LOOP ( 'NONE', ( #136, #236, #71, #164 ) ) ;
#208 = ADVANCED_FACE ( 'NONE', ( #122 ), #79, .F. ) ;
#209 = PERSON_AND_ORGANIZATION_ROLE ( 'creator' ) ;
#210 = PLANE ( 'NONE',  #192 ) ;
#211 = ORGANIZATION ( 'UNSPECIFIED', 'UNSPECIFIED', '' ) ;
#212 = ORIENTED_EDGE ( 'NONE', *, *, #22, .F. ) ;
#213 = CARTESIAN_POINT ( 'NONE',  ( -6.350000000000000533, 6.349999999999998757, -3.000000000000000000 ) ) ;
#214 = VECTOR ( 'NONE', #57, 1000.000000000000000 ) ;
#215 = EDGE_CURVE ( 'NONE', #65, #59, #45, .T. ) ;
#216 = VERTEX_POINT ( 'NONE', #186 ) ;
#217 = CARTESIAN_POINT ( 'NONE',  ( -6.350000000000000533, 6.349999999999998757, 3.000000000000000000 ) ) ;
#218 = LINE ( 'NONE', #124, #89 ) ;
#219 = DIRECTION ( 'NONE',  ( -0.0000000000000000000, -1.000000000000000000, -0.0000000000000000000 ) ) ;
#220 = DIRECTION ( 'NONE',  ( -1.000000000000000000, -1.365923996832131609E-16, 0.0000000000000000000 ) ) ;
#221 = ORIENTED_EDGE ( 'NONE', *, *, #34, .F. ) ;
#222 = DIRECTION ( 'NONE',  ( 1.000000000000000000, 0.0000000000000000000, 0.0000000000000000000 ) ) ;
#223 = ADVANCED_FACE ( 'NONE', ( #150 ), #210, .F. ) ;
#224 = DATE_TIME_ROLE ( 'classification_date' ) ;
#225 = APPROVAL_PERSON_ORGANIZATION ( #35, #87, #93 ) ;
#226 = ORIENTED_EDGE ( 'NONE', *, *, #26, .T. ) ;
#227 = EDGE_CURVE ( 'NONE', #97, #104, #206, .T. ) ;
#228 = CARTESIAN_POINT ( 'NONE',  ( 6.349999999999998757, -6.349999999999998757, 3.000000000000000000 ) ) ;
#229 = CARTESIAN_POINT ( 'NONE',  ( 6.349999999999998757, -6.349999999999998757, 3.000000000000000000 ) ) ;
#230 = ORIENTED_EDGE ( 'NONE', *, *, #34, .T. ) ;
#231 = ORIENTED_EDGE ( 'NONE', *, *, #26, .F. ) ;
#232 = CC_DESIGN_PERSON_AND_ORGANIZATION_ASSIGNMENT ( #88, #54, ( #128 ) ) ;
#233 = DIRECTION ( 'NONE',  ( 1.000000000000000000, 0.0000000000000000000, -0.0000000000000000000 ) ) ;
#234 = AXIS2_PLACEMENT_3D ( 'NONE', #165, #44, #199 ) ;
#235 = CC_DESIGN_PERSON_AND_ORGANIZATION_ASSIGNMENT ( #56, #172, ( #58 ) ) ;
#236 = ORIENTED_EDGE ( 'NONE', *, *, #94, .F. ) ;
#237 = ORIENTED_EDGE ( 'NONE', *, *, #180, .F. ) ;
ENDSEC;
END-ISO-10303-21;
