ISO-10303-21;
HEADER;
FILE_DESCRIPTION (( 'STEP AP203' ),
    '1' );
FILE_NAME ('36992_36999.step',
    '2017-09-06T15:56:05',
    ( '' ),
    ( '' ),
    'SwSTEP 2.0',
    'SolidWorks 2016',
    '' );
FILE_SCHEMA (( 'CONFIG_CONTROL_DESIGN' ));
ENDSEC;

DATA;
#1 = EDGE_CURVE ( 'NONE', #62, #149, #120, .T. ) ;
#2 = UNCERTAINTY_MEASURE_WITH_UNIT (LENGTH_MEASURE( 1.000000000000000100E-005 ), #172, 'distance_accuracy_value', 'NONE');
#3 = APPROVAL_PERSON_ORGANIZATION ( #161, #166, #7 ) ;
#4 = EDGE_LOOP ( 'NONE', ( #27, #153, #154, #109 ) ) ;
#5 = CARTESIAN_POINT ( 'NONE',  ( 0.0000000000000000000, 0.0000000000000000000, 1.000000000000000000 ) ) ;
#6 = ADVANCED_FACE ( 'NONE', ( #108 ), #140, .T. ) ;
#7 = APPROVAL_ROLE ( '' ) ;
#8 = APPROVAL_PERSON_ORGANIZATION ( #39, #148, #65 ) ;
#9 = CARTESIAN_POINT ( 'NONE',  ( 12.50000000000000000, 1.530808498934191500E-015, 1.000000000000000000 ) ) ;
#10 = APPROVAL ( #44, 'UNSPECIFIED' ) ;
#11 = PERSON_AND_ORGANIZATION_ROLE ( 'creator' ) ;
#12 = DATE_AND_TIME ( #22, #81 ) ;
#13 = PRODUCT_RELATED_PRODUCT_CATEGORY ( 'detail', '', ( #87 ) ) ;
#14 = CARTESIAN_POINT ( 'NONE',  ( -12.50000000000000000, 0.0000000000000000000, 1.000000000000000000 ) ) ;
#15 = CARTESIAN_POINT ( 'NONE',  ( 0.0000000000000000000, 0.0000000000000000000, 1.000000000000000000 ) ) ;
#16 = SHAPE_DEFINITION_REPRESENTATION ( #122, #51 ) ;
#17 = ORIENTED_EDGE ( 'NONE', *, *, #32, .T. ) ;
#18 = DIRECTION ( 'NONE',  ( 1.000000000000000000, 0.0000000000000000000, 0.0000000000000000000 ) ) ;
#19 = DIRECTION ( 'NONE',  ( 0.0000000000000000000, 0.0000000000000000000, 1.000000000000000000 ) ) ;
#20 = CIRCLE ( 'NONE', #99, 12.50000000000000000 ) ;
#21 = CYLINDRICAL_SURFACE ( 'NONE', #93, 12.50000000000000000 ) ;
#22 = CALENDAR_DATE ( 2017, 6, 9 ) ;
#23 = ORIENTED_EDGE ( 'NONE', *, *, #164, .F. ) ;
#24 = AXIS2_PLACEMENT_3D ( 'NONE', #5, #88, #41 ) ;
#25 = APPROVAL_PERSON_ORGANIZATION ( #175, #10, #35 ) ;
#26 =( GEOMETRIC_REPRESENTATION_CONTEXT ( 3 ) GLOBAL_UNCERTAINTY_ASSIGNED_CONTEXT ( ( #2 ) ) GLOBAL_UNIT_ASSIGNED_CONTEXT ( ( #172, #143, #60 ) ) REPRESENTATION_CONTEXT ( 'NONE', 'WORKASPACE' ) );
#27 = ORIENTED_EDGE ( 'NONE', *, *, #64, .F. ) ;
#28 = ADVANCED_FACE ( 'NONE', ( #133 ), #167, .T. ) ;
#29 = APPLICATION_CONTEXT ( 'configuration controlled 3d designs of mechanical parts and assemblies' ) ;
#30 = ORGANIZATION ( 'UNSPECIFIED', 'UNSPECIFIED', '' ) ;
#31 = PLANE ( 'NONE',  #151 ) ;
#32 = EDGE_CURVE ( 'NONE', #149, #62, #67, .T. ) ;
#33 = ADVANCED_FACE ( 'NONE', ( #43 ), #21, .T. ) ;
#34 = PERSON_AND_ORGANIZATION_ROLE ( 'design_supplier' ) ;
#35 = APPROVAL_ROLE ( '' ) ;
#36 = COORDINATED_UNIVERSAL_TIME_OFFSET ( 5, 0, .BEHIND. ) ;
#37 = EDGE_LOOP ( 'NONE', ( #85, #113 ) ) ;
#38 = EDGE_CURVE ( 'NONE', #75, #149, #97, .T. ) ;
#39 = PERSON_AND_ORGANIZATION ( #112, #30 ) ;
#40 = PERSON_AND_ORGANIZATION ( #112, #30 ) ;
#41 = DIRECTION ( 'NONE',  ( -1.000000000000000000, 0.0000000000000000000, 0.0000000000000000000 ) ) ;
#42 = DIRECTION ( 'NONE',  ( 1.000000000000000000, 0.0000000000000000000, 0.0000000000000000000 ) ) ;
#43 = FACE_OUTER_BOUND ( 'NONE', #165, .T. ) ;
#44 = APPROVAL_STATUS ( 'not_yet_approved' ) ;
#45 = CARTESIAN_POINT ( 'NONE',  ( 0.0000000000000000000, 0.0000000000000000000, 0.0000000000000000000 ) ) ;
#46 = CARTESIAN_POINT ( 'NONE',  ( 12.50000000000000000, 1.530808498934191500E-015, 1.000000000000000000 ) ) ;
#47 = PERSON_AND_ORGANIZATION_ROLE ( 'design_owner' ) ;
#48 = CC_DESIGN_APPROVAL ( #10, ( #53 ) ) ;
#49 = DATE_AND_TIME ( #134, #70 ) ;
#50 = AXIS2_PLACEMENT_3D ( 'NONE', #125, #155, #126 ) ;
#51 = ADVANCED_BREP_SHAPE_REPRESENTATION ( '36992_36999', ( #73, #101 ), #26 ) ;
#52 = EDGE_LOOP ( 'NONE', ( #71, #57 ) ) ;
#53 = PRODUCT_DEFINITION ( 'UNKNOWN', '', #124, #103 ) ;
#54 = CALENDAR_DATE ( 2017, 6, 9 ) ;
#55 = CARTESIAN_POINT ( 'NONE',  ( 0.0000000000000000000, 0.0000000000000000000, 1.000000000000000000 ) ) ;
#56 = CC_DESIGN_PERSON_AND_ORGANIZATION_ASSIGNMENT ( #96, #34, ( #124 ) ) ;
#57 = ORIENTED_EDGE ( 'NONE', *, *, #64, .T. ) ;
#58 = DIRECTION ( 'NONE',  ( 0.0000000000000000000, 0.0000000000000000000, 1.000000000000000000 ) ) ;
#59 = DIRECTION ( 'NONE',  ( 1.000000000000000000, 0.0000000000000000000, -0.0000000000000000000 ) ) ;
#60 =( NAMED_UNIT ( * ) SI_UNIT ( $, .STERADIAN. ) SOLID_ANGLE_UNIT ( ) );
#61 = COORDINATED_UNIVERSAL_TIME_OFFSET ( 5, 0, .BEHIND. ) ;
#62 = VERTEX_POINT ( 'NONE', #78 ) ;
#63 = CARTESIAN_POINT ( 'NONE',  ( 0.0000000000000000000, 0.0000000000000000000, 1.000000000000000000 ) ) ;
#64 = EDGE_CURVE ( 'NONE', #136, #75, #20, .T. ) ;
#65 = APPROVAL_ROLE ( '' ) ;
#66 = PERSON_AND_ORGANIZATION ( #112, #30 ) ;
#67 = CIRCLE ( 'NONE', #152, 12.50000000000000000 ) ;
#68 = CC_DESIGN_APPROVAL ( #148, ( #124 ) ) ;
#69 = DATE_AND_TIME ( #54, #98 ) ;
#70 = LOCAL_TIME ( 11, 56, 5.000000000000000000, #156 ) ;
#71 = ORIENTED_EDGE ( 'NONE', *, *, #164, .T. ) ;
#72 = LOCAL_TIME ( 11, 56, 5.000000000000000000, #61 ) ;
#73 = MANIFOLD_SOLID_BREP ( 'Boss-Extrude1', #123 ) ;
#74 = DATE_AND_TIME ( #82, #72 ) ;
#75 = VERTEX_POINT ( 'NONE', #128 ) ;
#76 = CC_DESIGN_APPROVAL ( #166, ( #157 ) ) ;
#77 = CARTESIAN_POINT ( 'NONE',  ( -12.50000000000000000, 0.0000000000000000000, -1.000000000000000000 ) ) ;
#78 = CARTESIAN_POINT ( 'NONE',  ( 12.50000000000000000, 1.530808498934191500E-015, -1.000000000000000000 ) ) ;
#79 = DIRECTION ( 'NONE',  ( 1.000000000000000000, 0.0000000000000000000, 0.0000000000000000000 ) ) ;
#80 = CARTESIAN_POINT ( 'NONE',  ( 0.0000000000000000000, 0.0000000000000000000, -1.000000000000000000 ) ) ;
#81 = LOCAL_TIME ( 11, 56, 5.000000000000000000, #111 ) ;
#82 = CALENDAR_DATE ( 2017, 6, 9 ) ;
#83 = PERSON_AND_ORGANIZATION ( #112, #30 ) ;
#84 = AXIS2_PLACEMENT_3D ( 'NONE', #55, #58, #89 ) ;
#85 = ORIENTED_EDGE ( 'NONE', *, *, #32, .F. ) ;
#86 = CC_DESIGN_PERSON_AND_ORGANIZATION_ASSIGNMENT ( #121, #11, ( #53 ) ) ;
#87 = PRODUCT ( '36992_36999', '36992_36999', '', ( #106 ) ) ;
#88 = DIRECTION ( 'NONE',  ( -0.0000000000000000000, -0.0000000000000000000, -1.000000000000000000 ) ) ;
#89 = DIRECTION ( 'NONE',  ( 1.000000000000000000, 0.0000000000000000000, -0.0000000000000000000 ) ) ;
#90 = APPROVAL_STATUS ( 'not_yet_approved' ) ;
#91 = CARTESIAN_POINT ( 'NONE',  ( 0.0000000000000000000, 0.0000000000000000000, 1.000000000000000000 ) ) ;
#92 = APPLICATION_PROTOCOL_DEFINITION ( 'international standard', 'config_control_design', 1994, #29 ) ;
#93 = AXIS2_PLACEMENT_3D ( 'NONE', #15, #102, #131 ) ;
#94 = VECTOR ( 'NONE', #114, 1000.000000000000000 ) ;
#95 = CC_DESIGN_SECURITY_CLASSIFICATION ( #157, ( #124 ) ) ;
#96 = PERSON_AND_ORGANIZATION ( #112, #30 ) ;
#97 = LINE ( 'NONE', #14, #94 ) ;
#98 = LOCAL_TIME ( 11, 56, 5.000000000000000000, #36 ) ;
#99 = AXIS2_PLACEMENT_3D ( 'NONE', #91, #115, #79 ) ;
#100 = ORIENTED_EDGE ( 'NONE', *, *, #38, .T. ) ;
#101 = AXIS2_PLACEMENT_3D ( 'NONE', #45, #19, #146 ) ;
#102 = DIRECTION ( 'NONE',  ( -0.0000000000000000000, -0.0000000000000000000, -1.000000000000000000 ) ) ;
#103 = DESIGN_CONTEXT ( 'detailed design', #171, 'design' ) ;
#104 = VECTOR ( 'NONE', #163, 1000.000000000000000 ) ;
#105 = APPROVAL_STATUS ( 'not_yet_approved' ) ;
#106 = MECHANICAL_CONTEXT ( 'NONE', #29, 'mechanical' ) ;
#107 = APPROVAL_DATE_TIME ( #74, #10 ) ;
#108 = FACE_OUTER_BOUND ( 'NONE', #52, .T. ) ;
#109 = ORIENTED_EDGE ( 'NONE', *, *, #38, .F. ) ;
#110 = CC_DESIGN_DATE_AND_TIME_ASSIGNMENT ( #49, #159, ( #53 ) ) ;
#111 = COORDINATED_UNIVERSAL_TIME_OFFSET ( 5, 0, .BEHIND. ) ;
#112 = PERSON ( 'UNSPECIFIED', 'UNSPECIFIED', 'UNSPECIFIED', ('UNSPECIFIED'), ('UNSPECIFIED'), ('UNSPECIFIED') ) ;
#113 = ORIENTED_EDGE ( 'NONE', *, *, #1, .F. ) ;
#114 = DIRECTION ( 'NONE',  ( -0.0000000000000000000, -0.0000000000000000000, -1.000000000000000000 ) ) ;
#115 = DIRECTION ( 'NONE',  ( 0.0000000000000000000, 0.0000000000000000000, 1.000000000000000000 ) ) ;
#116 = CARTESIAN_POINT ( 'NONE',  ( 0.0000000000000000000, 0.0000000000000000000, -1.000000000000000000 ) ) ;
#117 = COORDINATED_UNIVERSAL_TIME_OFFSET ( 5, 0, .BEHIND. ) ;
#118 = CC_DESIGN_PERSON_AND_ORGANIZATION_ASSIGNMENT ( #66, #47, ( #87 ) ) ;
#119 = APPLICATION_PROTOCOL_DEFINITION ( 'international standard', 'config_control_design', 1994, #171 ) ;
#120 = CIRCLE ( 'NONE', #50, 12.50000000000000000 ) ;
#121 = PERSON_AND_ORGANIZATION ( #112, #30 ) ;
#122 = PRODUCT_DEFINITION_SHAPE ( 'NONE', 'NONE',  #53 ) ;
#123 = CLOSED_SHELL ( 'NONE', ( #28, #33, #6, #162 ) ) ;
#124 = PRODUCT_DEFINITION_FORMATION_WITH_SPECIFIED_SOURCE ( 'ANY', '', #87, .NOT_KNOWN. ) ;
#125 = CARTESIAN_POINT ( 'NONE',  ( 0.0000000000000000000, 0.0000000000000000000, -1.000000000000000000 ) ) ;
#126 = DIRECTION ( 'NONE',  ( 1.000000000000000000, 0.0000000000000000000, 0.0000000000000000000 ) ) ;
#127 = CC_DESIGN_PERSON_AND_ORGANIZATION_ASSIGNMENT ( #83, #142, ( #124 ) ) ;
#128 = CARTESIAN_POINT ( 'NONE',  ( -12.50000000000000000, 0.0000000000000000000, 1.000000000000000000 ) ) ;
#129 = DIRECTION ( 'NONE',  ( 0.0000000000000000000, 0.0000000000000000000, 1.000000000000000000 ) ) ;
#130 = FACE_OUTER_BOUND ( 'NONE', #37, .T. ) ;
#131 = DIRECTION ( 'NONE',  ( -1.000000000000000000, 0.0000000000000000000, 0.0000000000000000000 ) ) ;
#132 = PERSON_AND_ORGANIZATION_ROLE ( 'classification_officer' ) ;
#133 = FACE_OUTER_BOUND ( 'NONE', #4, .T. ) ;
#134 = CALENDAR_DATE ( 2017, 6, 9 ) ;
#135 = EDGE_CURVE ( 'NONE', #136, #62, #141, .T. ) ;
#136 = VERTEX_POINT ( 'NONE', #46 ) ;
#137 = CC_DESIGN_PERSON_AND_ORGANIZATION_ASSIGNMENT ( #40, #132, ( #157 ) ) ;
#138 = LOCAL_TIME ( 11, 56, 5.000000000000000000, #117 ) ;
#139 = CC_DESIGN_DATE_AND_TIME_ASSIGNMENT ( #12, #169, ( #157 ) ) ;
#140 = PLANE ( 'NONE',  #84 ) ;
#141 = LINE ( 'NONE', #9, #104 ) ;
#142 = PERSON_AND_ORGANIZATION_ROLE ( 'creator' ) ;
#143 =( NAMED_UNIT ( * ) PLANE_ANGLE_UNIT ( ) SI_UNIT ( $, .RADIAN. ) );
#144 = APPROVAL_DATE_TIME ( #147, #148 ) ;
#145 = DIRECTION ( 'NONE',  ( 0.0000000000000000000, 0.0000000000000000000, 1.000000000000000000 ) ) ;
#146 = DIRECTION ( 'NONE',  ( 1.000000000000000000, 0.0000000000000000000, 0.0000000000000000000 ) ) ;
#147 = DATE_AND_TIME ( #170, #138 ) ;
#148 = APPROVAL ( #105, 'UNSPECIFIED' ) ;
#149 = VERTEX_POINT ( 'NONE', #77 ) ;
#150 = CIRCLE ( 'NONE', #174, 12.50000000000000000 ) ;
#151 = AXIS2_PLACEMENT_3D ( 'NONE', #116, #129, #59 ) ;
#152 = AXIS2_PLACEMENT_3D ( 'NONE', #80, #145, #18 ) ;
#153 = ORIENTED_EDGE ( 'NONE', *, *, #135, .T. ) ;
#154 = ORIENTED_EDGE ( 'NONE', *, *, #1, .T. ) ;
#155 = DIRECTION ( 'NONE',  ( 0.0000000000000000000, 0.0000000000000000000, 1.000000000000000000 ) ) ;
#156 = COORDINATED_UNIVERSAL_TIME_OFFSET ( 5, 0, .BEHIND. ) ;
#157 = SECURITY_CLASSIFICATION ( '', '', #158 ) ;
#158 = SECURITY_CLASSIFICATION_LEVEL ( 'unclassified' ) ;
#159 = DATE_TIME_ROLE ( 'creation_date' ) ;
#160 = DIRECTION ( 'NONE',  ( 0.0000000000000000000, 0.0000000000000000000, 1.000000000000000000 ) ) ;
#161 = PERSON_AND_ORGANIZATION ( #112, #30 ) ;
#162 = ADVANCED_FACE ( 'NONE', ( #130 ), #31, .F. ) ;
#163 = DIRECTION ( 'NONE',  ( -0.0000000000000000000, -0.0000000000000000000, -1.000000000000000000 ) ) ;
#164 = EDGE_CURVE ( 'NONE', #75, #136, #150, .T. ) ;
#165 = EDGE_LOOP ( 'NONE', ( #173, #23, #100, #17 ) ) ;
#166 = APPROVAL ( #90, 'UNSPECIFIED' ) ;
#167 = CYLINDRICAL_SURFACE ( 'NONE', #24, 12.50000000000000000 ) ;
#168 = APPROVAL_DATE_TIME ( #69, #166 ) ;
#169 = DATE_TIME_ROLE ( 'classification_date' ) ;
#170 = CALENDAR_DATE ( 2017, 6, 9 ) ;
#171 = APPLICATION_CONTEXT ( 'configuration controlled 3d designs of mechanical parts and assemblies' ) ;
#172 =( LENGTH_UNIT ( ) NAMED_UNIT ( * ) SI_UNIT ( .MILLI., .METRE. ) );
#173 = ORIENTED_EDGE ( 'NONE', *, *, #135, .F. ) ;
#174 = AXIS2_PLACEMENT_3D ( 'NONE', #63, #160, #42 ) ;
#175 = PERSON_AND_ORGANIZATION ( #112, #30 ) ;
ENDSEC;
END-ISO-10303-21;
